  0
SECTION
  2
HEADER
  9
$ACADVER
  1
AC1015
  9
$ACADMAINTVER
 70
     6
  9
$DWGCODEPAGE
  3
ANSI_1250
  9
$INSBASE
 10
0.0
 20
0.0
 30
0.0
  9
$EXTMIN
 10
-38.2506
 20
-34.1547
 30
0.0
  9
$EXTMAX
 10
38.2023
 20
34.1548
 30
0.0
  9
$LIMMIN
 10
0.0
 20
0.0
  9
$LIMMAX
 10
12.0
 20
9.0
  9
$ORTHOMODE
 70
     0
  9
$REGENMODE
 70
     1
  9
$FILLMODE
 70
     1
  9
$QTEXTMODE
 70
     0
  9
$MIRRTEXT
 70
     1
  9
$LTSCALE
 40
1.0
  9
$ATTMODE
 70
     1
  9
$TEXTSIZE
 40
0.2
  9
$TRACEWID
 40
0.05
  9
$TEXTSTYLE
  7
Standard
  9
$CLAYER
  8
0
  9
$CELTYPE
  6
ByLayer
  9
$CECOLOR
 62
   256
  9
$CELTSCALE
 40
1.0
  9
$DISPSILH
 70
     0
  9
$DIMSCALE
 40
1.0
  9
$DIMASZ
 40
0.18
  9
$DIMEXO
 40
0.0625
  9
$DIMDLI
 40
0.38
  9
$DIMRND
 40
0.0
  9
$DIMDLE
 40
0.0
  9
$DIMEXE
 40
0.18
  9
$DIMTP
 40
0.0
  9
$DIMTM
 40
0.0
  9
$DIMTXT
 40
0.18
  9
$DIMCEN
 40
0.09
  9
$DIMTSZ
 40
0.0
  9
$DIMTOL
 70
     0
  9
$DIMLIM
 70
     0
  9
$DIMTIH
 70
     1
  9
$DIMTOH
 70
     1
  9
$DIMSE1
 70
     0
  9
$DIMSE2
 70
     0
  9
$DIMTAD
 70
     0
  9
$DIMZIN
 70
     0
  9
$DIMBLK
  1

  9
$DIMASO
 70
     1
  9
$DIMSHO
 70
     1
  9
$DIMPOST
  1

  9
$DIMAPOST
  1

  9
$DIMALT
 70
     0
  9
$DIMALTD
 70
     2
  9
$DIMALTF
 40
25.4
  9
$DIMLFAC
 40
1.0
  9
$DIMTOFL
 70
     0
  9
$DIMTVP
 40
0.0
  9
$DIMTIX
 70
     0
  9
$DIMSOXD
 70
     0
  9
$DIMSAH
 70
     0
  9
$DIMBLK1
  1

  9
$DIMBLK2
  1

  9
$DIMSTYLE
  2
Standard
  9
$DIMCLRD
 70
     0
  9
$DIMCLRE
 70
     0
  9
$DIMCLRT
 70
     0
  9
$DIMTFAC
 40
1.0
  9
$DIMGAP
 40
0.09
  9
$DIMJUST
 70
     0
  9
$DIMSD1
 70
     0
  9
$DIMSD2
 70
     0
  9
$DIMTOLJ
 70
     1
  9
$DIMTZIN
 70
     0
  9
$DIMALTZ
 70
     0
  9
$DIMALTTZ
 70
     0
  9
$DIMUPT
 70
     0
  9
$DIMDEC
 70
     4
  9
$DIMTDEC
 70
     4
  9
$DIMALTU
 70
     2
  9
$DIMALTTD
 70
     2
  9
$DIMTXSTY
  7
Standard
  9
$DIMAUNIT
 70
     0
  9
$DIMADEC
 70
     0
  9
$DIMALTRND
 40
0.0
  9
$DIMAZIN
 70
     0
  9
$DIMDSEP
 70
    46
  9
$DIMATFIT
 70
     3
  9
$DIMFRAC
 70
     0
  9
$DIMLDRBLK
  1

  9
$DIMLUNIT
 70
     2
  9
$DIMLWD
 70
    -2
  9
$DIMLWE
 70
    -2
  9
$DIMTMOVE
 70
     0
  9
$LUNITS
 70
     2
  9
$LUPREC
 70
     4
  9
$SKETCHINC
 40
0.1
  9
$FILLETRAD
 40
0.5
  9
$AUNITS
 70
     0
  9
$AUPREC
 70
     0
  9
$MENU
  1
.
  9
$ELEVATION
 40
0.0
  9
$PELEVATION
 40
0.0
  9
$THICKNESS
 40
0.0
  9
$LIMCHECK
 70
     0
  9
$CHAMFERA
 40
0.5
  9
$CHAMFERB
 40
0.5
  9
$CHAMFERC
 40
1.0
  9
$CHAMFERD
 40
0.0
  9
$SKPOLY
 70
     0
  9
$TDCREATE
 40
2459373.539921111
  9
$TDUCREATE
 40
2459373.456587778
  9
$TDUPDATE
 40
2459373.539921123
  9
$TDUUPDATE
 40
2459373.45658779
  9
$TDINDWG
 40
0.0000000116
  9
$TDUSRTIMER
 40
0.0000000116
  9
$USRTIMER
 70
     1
  9
$ANGBASE
 50
0.0
  9
$ANGDIR
 70
     0
  9
$PDMODE
 70
     0
  9
$PDSIZE
 40
0.0
  9
$PLINEWID
 40
0.0
  9
$SPLFRAME
 70
     0
  9
$SPLINETYPE
 70
     6
  9
$SPLINESEGS
 70
     8
  9
$HANDSEED
  5
E2
  9
$SURFTAB1
 70
     6
  9
$SURFTAB2
 70
     6
  9
$SURFTYPE
 70
     6
  9
$SURFU
 70
     6
  9
$SURFV
 70
     6
  9
$UCSBASE
  2

  9
$UCSNAME
  2

  9
$UCSORG
 10
0.0
 20
0.0
 30
0.0
  9
$UCSXDIR
 10
1.0
 20
0.0
 30
0.0
  9
$UCSYDIR
 10
0.0
 20
1.0
 30
0.0
  9
$UCSORTHOREF
  2

  9
$UCSORTHOVIEW
 70
     0
  9
$UCSORGTOP
 10
0.0
 20
0.0
 30
0.0
  9
$UCSORGBOTTOM
 10
0.0
 20
0.0
 30
0.0
  9
$UCSORGLEFT
 10
0.0
 20
0.0
 30
0.0
  9
$UCSORGRIGHT
 10
0.0
 20
0.0
 30
0.0
  9
$UCSORGFRONT
 10
0.0
 20
0.0
 30
0.0
  9
$UCSORGBACK
 10
0.0
 20
0.0
 30
0.0
  9
$PUCSBASE
  2

  9
$PUCSNAME
  2

  9
$PUCSORG
 10
0.0
 20
0.0
 30
0.0
  9
$PUCSXDIR
 10
1.0
 20
0.0
 30
0.0
  9
$PUCSYDIR
 10
0.0
 20
1.0
 30
0.0
  9
$PUCSORTHOREF
  2

  9
$PUCSORTHOVIEW
 70
     0
  9
$PUCSORGTOP
 10
0.0
 20
0.0
 30
0.0
  9
$PUCSORGBOTTOM
 10
0.0
 20
0.0
 30
0.0
  9
$PUCSORGLEFT
 10
0.0
 20
0.0
 30
0.0
  9
$PUCSORGRIGHT
 10
0.0
 20
0.0
 30
0.0
  9
$PUCSORGFRONT
 10
0.0
 20
0.0
 30
0.0
  9
$PUCSORGBACK
 10
0.0
 20
0.0
 30
0.0
  9
$USERI1
 70
     0
  9
$USERI2
 70
     0
  9
$USERI3
 70
     0
  9
$USERI4
 70
     0
  9
$USERI5
 70
     0
  9
$USERR1
 40
0.0
  9
$USERR2
 40
0.0
  9
$USERR3
 40
0.0
  9
$USERR4
 40
0.0
  9
$USERR5
 40
0.0
  9
$WORLDVIEW
 70
     1
  9
$SHADEDGE
 70
     3
  9
$SHADEDIF
 70
    70
  9
$TILEMODE
 70
     1
  9
$MAXACTVP
 70
    64
  9
$PINSBASE
 10
0.0
 20
0.0
 30
0.0
  9
$PLIMCHECK
 70
     0
  9
$PEXTMIN
 10
1.000000000000000E+20
 20
1.000000000000000E+20
 30
1.000000000000000E+20
  9
$PEXTMAX
 10
-1.000000000000000E+20
 20
-1.000000000000000E+20
 30
-1.000000000000000E+20
  9
$PLIMMIN
 10
0.0
 20
0.0
  9
$PLIMMAX
 10
12.0
 20
9.0
  9
$UNITMODE
 70
     0
  9
$VISRETAIN
 70
     1
  9
$PLINEGEN
 70
     0
  9
$PSLTSCALE
 70
     1
  9
$TREEDEPTH
 70
  3020
  9
$CMLSTYLE
  2
Standard
  9
$CMLJUST
 70
     0
  9
$CMLSCALE
 40
1.0
  9
$PROXYGRAPHICS
 70
     1
  9
$MEASUREMENT
 70
     0
  9
$CELWEIGHT
370
    -1
  9
$ENDCAPS
280
     0
  9
$JOINSTYLE
280
     0
  9
$LWDISPLAY
290
     0
  9
$INSUNITS
 70
     4
  9
$HYPERLINKBASE
  1

  9
$STYLESHEET
  1

  9
$XEDIT
290
     1
  9
$CEPSNTYPE
380
     0
  9
$PSTYLEMODE
290
     1
  9
$FINGERPRINTGUID
  2
{815DEB0A-6179-47E9-9A3D-48F97150B355}
  9
$VERSIONGUID
  2
{FAEB1C32-E019-11D5-929B-00C0DF256EC4}
  9
$EXTNAMES
290
     1
  9
$PSVPSCALE
 40
0.0
  9
$OLESTARTUP
290
     0
  0
ENDSEC
  0
SECTION
  2
CLASSES
  0
CLASS
  1
ACDBDICTIONARYWDFLT
  2
AcDbDictionaryWithDefault
  3
ObjectDBX Classes
 90
        0
280
     0
281
     0
  0
CLASS
  1
VISUALSTYLE
  2
AcDbVisualStyle
  3
ObjectDBX Classes
 90
     4095
280
     0
281
     0
  0
CLASS
  1
MATERIAL
  2
AcDbMaterial
  3
ObjectDBX Classes
 90
     1153
280
     0
281
     0
  0
CLASS
  1
DICTIONARYVAR
  2
AcDbDictionaryVar
  3
ObjectDBX Classes
 90
        0
280
     0
281
     0
  0
CLASS
  1
ACDBPLACEHOLDER
  2
AcDbPlaceHolder
  3
ObjectDBX Classes
 90
        0
280
     0
281
     0
  0
CLASS
  1
LAYOUT
  2
AcDbLayout
  3
ObjectDBX Classes
 90
        0
280
     0
281
     0
  0
ENDSEC
  0
SECTION
  2
TABLES
  0
TABLE
  2
VPORT
  5
8
330
0
100
AcDbSymbolTable
 70
     1
  0
VPORT
  5
29
330
8
100
AcDbSymbolTableRecord
100
AcDbViewportTableRecord
  2
*Active
 70
     0
 10
0.0
 20
0.0
 11
1.0
 21
1.0
 12
10.42990654205607
 22
4.5
 13
0.0
 23
0.0
 14
0.5
 24
0.5
 15
0.5
 25
0.5
 16
0.0
 26
0.0
 36
1.0
 17
0.0
 27
0.0
 37
0.0
 40
9.0
 41
1.972972972850329
 42
50.0
 43
0.0
 44
0.0
 50
0.0
 51
0.0
 71
     0
 72
   100
 73
     1
 74
     3
 75
     0
 76
     0
 77
     0
 78
     0
281
     0
 65
     1
110
0.0
120
0.0
130
0.0
111
1.0
121
0.0
131
0.0
112
0.0
122
1.0
132
0.0
 79
     0
146
0.0
  0
ENDTAB
  0
TABLE
  2
LTYPE
  5
5
330
0
100
AcDbSymbolTable
 70
     3
  0
LTYPE
  5
14
330
5
100
AcDbSymbolTableRecord
100
AcDbLinetypeTableRecord
  2
ByBlock
 70
     0
  3

 72
    65
 73
     0
 40
0.0
  0
LTYPE
  5
15
330
5
100
AcDbSymbolTableRecord
100
AcDbLinetypeTableRecord
  2
ByLayer
 70
     0
  3

 72
    65
 73
     0
 40
0.0
  0
LTYPE
  5
16
330
5
100
AcDbSymbolTableRecord
100
AcDbLinetypeTableRecord
  2
Continuous
 70
     0
  3
Solid line
 72
    65
 73
     0
 40
0.0
  0
LTYPE
  5
AB
330
5
100
AcDbSymbolTableRecord
100
AcDbLinetypeTableRecord
  2
New Line1
 70
     0
  3

 72
    65
 73
     4
 40
1.2
 49
0.5
 74
     4
 75
     0
340
0
 46
1.0
 50
0.0
 44
0.0
 45
0.0
 49
-0.3
 74
     4
 75
     0
340
0
 46
1.0
 50
0.0
 44
0.0
 45
0.0
 49
0.1
 74
     4
 75
     0
340
0
 46
1.0
 50
0.0
 44
0.0
 45
0.0
 49
-0.3
 74
     4
 75
     0
340
0
 46
1.0
 50
0.0
 44
0.0
 45
0.0
  0
LTYPE
  5
AD
330
5
100
AcDbSymbolTableRecord
100
AcDbLinetypeTableRecord
  2
New Line2
 70
     0
  3

 72
    65
 73
     4
 40
1.2
 49
0.5
 74
     4
 75
     0
340
0
 46
1.0
 50
0.0
 44
0.0
 45
0.0
 49
-0.3
 74
     4
 75
     0
340
0
 46
1.0
 50
0.0
 44
0.0
 45
0.0
 49
0.1
 74
     4
 75
     0
340
0
 46
1.0
 50
0.0
 44
0.0
 45
0.0
 49
-0.3
 74
     4
 75
     0
340
0
 46
1.0
 50
0.0
 44
0.0
 45
0.0
  0
ENDTAB
  0
TABLE
  2
LAYER
  5
2
330
0
100
AcDbSymbolTable
 70
     2
  0
LAYER
  5
10
330
2
100
AcDbSymbolTableRecord
100
AcDbLayerTableRecord
  2
0
 70
     0
 62
     7
  6
Continuous
370
    -3
390
F
  0
LAYER
  5
40
330
2
100
AcDbSymbolTableRecord
100
AcDbLayerTableRecord
  2
Standard layer
 70
     0
 62
     7
  6
Continuous
370
    -3
390
F
  0
ENDTAB
  0
TABLE
  2
STYLE
  5
3
330
0
100
AcDbSymbolTable
 70
     1
  0
STYLE
  5
11
330
3
100
AcDbSymbolTableRecord
100
AcDbTextStyleTableRecord
  2
Standard
 70
     0
 40
0.0
 41
1.0
 50
0.0
 71
     0
 42
0.2
  3
txt
  4

  0
ENDTAB
  0
TABLE
  2
VIEW
  5
6
330
0
100
AcDbSymbolTable
 70
     0
  0
ENDTAB
  0
TABLE
  2
UCS
  5
7
330
0
100
AcDbSymbolTable
 70
     0
  0
ENDTAB
  0
TABLE
  2
APPID
  5
9
330
0
100
AcDbSymbolTable
 70
     2
  0
APPID
  5
12
330
9
100
AcDbSymbolTableRecord
100
AcDbRegAppTableRecord
  2
ACAD
 70
     0
  0
APPID
  5
3F
330
9
100
AcDbSymbolTableRecord
100
AcDbRegAppTableRecord
  2
ODA
 70
     0
  0
ENDTAB
  0
TABLE
  2
DIMSTYLE
  5
A
330
0
100
AcDbSymbolTable
 70
     1
100
AcDbDimStyleTable
  0
DIMSTYLE
105
27
330
A
100
AcDbSymbolTableRecord
100
AcDbDimStyleTableRecord
  2
Standard
 70
     0
340
11
  0
ENDTAB
  0
TABLE
  2
BLOCK_RECORD
  5
1
330
0
100
AcDbSymbolTable
 70
     1
  0
BLOCK_RECORD
  5
1F
330
1
100
AcDbSymbolTableRecord
100
AcDbBlockTableRecord
  2
*Model_Space
340
22
  0
BLOCK_RECORD
  5
1B
330
1
100
AcDbSymbolTableRecord
100
AcDbBlockTableRecord
  2
*Paper_Space
340
1E
  0
BLOCK_RECORD
  5
23
330
1
100
AcDbSymbolTableRecord
100
AcDbBlockTableRecord
  2
*Paper_Space0
340
26
  0
ENDTAB
  0
ENDSEC
  0
SECTION
  2
BLOCKS
  0
BLOCK
  5
20
330
1F
100
AcDbEntity
  8
0
100
AcDbBlockBegin
  2
*Model_Space
 70
     0
 10
0.0
 20
0.0
 30
0.0
  3
*Model_Space
  1

  0
ENDBLK
  5
21
330
1F
100
AcDbEntity
  8
0
100
AcDbBlockEnd
  0
BLOCK
  5
1C
330
1B
100
AcDbEntity
 67
     1
  8
0
100
AcDbBlockBegin
  2
*Paper_Space
 70
     0
 10
0.0
 20
0.0
 30
0.0
  3
*Paper_Space
  1

  0
ENDBLK
  5
1D
330
1B
100
AcDbEntity
 67
     1
  8
0
100
AcDbBlockEnd
  0
BLOCK
  5
24
330
23
100
AcDbEntity
  8
0
100
AcDbBlockBegin
  2
*Paper_Space0
 70
     0
 10
0.0
 20
0.0
 30
0.0
  3
*Paper_Space0
  1

  0
ENDBLK
  5
25
330
23
100
AcDbEntity
  8
0
100
AcDbBlockEnd
  0
ENDSEC
  0
SECTION
  2
ENTITIES
  0
SPLINE
  5
41
330
1F
100
AcDbEntity
  8
Standard layer
 62
   250
100
AcDbSpline
210
0.0
220
0.0
230
1.0
 70
    11
 71
     3
 72
   124
 73
   120
 74
     0
 42
0.0000000001
 43
0.0000000001
 40
0.0
 40
0.0
 40
0.0
 40
0.0
 40
0.032258064516129
 40
0.032258064516129
 40
0.032258064516129
 40
0.032258064516129
 40
0.0645161290322581
 40
0.0645161290322581
 40
0.0645161290322581
 40
0.0645161290322581
 40
0.0967741935483871
 40
0.0967741935483871
 40
0.0967741935483871
 40
0.0967741935483871
 40
0.1290322580645161
 40
0.1290322580645161
 40
0.1290322580645161
 40
0.1290322580645161
 40
0.1612903225806452
 40
0.1612903225806452
 40
0.1612903225806452
 40
0.1612903225806452
 40
0.1935483870967742
 40
0.1935483870967742
 40
0.1935483870967742
 40
0.1935483870967742
 40
0.2258064516129032
 40
0.2258064516129032
 40
0.2258064516129032
 40
0.2258064516129032
 40
0.2580645161290323
 40
0.2580645161290323
 40
0.2580645161290323
 40
0.2580645161290323
 40
0.2903225806451613
 40
0.2903225806451613
 40
0.2903225806451613
 40
0.2903225806451613
 40
0.3225806451612903
 40
0.3225806451612903
 40
0.3225806451612903
 40
0.3225806451612903
 40
0.3548387096774194
 40
0.3548387096774194
 40
0.3548387096774194
 40
0.3548387096774194
 40
0.3870967741935484
 40
0.3870967741935484
 40
0.3870967741935484
 40
0.3870967741935484
 40
0.4193548387096774
 40
0.4193548387096774
 40
0.4193548387096774
 40
0.4193548387096774
 40
0.4516129032258064
 40
0.4516129032258064
 40
0.4516129032258064
 40
0.4516129032258064
 40
0.4838709677419355
 40
0.4838709677419355
 40
0.4838709677419355
 40
0.4838709677419355
 40
0.5161290322580645
 40
0.5161290322580645
 40
0.5161290322580645
 40
0.5161290322580645
 40
0.5483870967741935
 40
0.5483870967741935
 40
0.5483870967741935
 40
0.5483870967741935
 40
0.5806451612903226
 40
0.5806451612903226
 40
0.5806451612903226
 40
0.5806451612903226
 40
0.6129032258064516
 40
0.6129032258064516
 40
0.6129032258064516
 40
0.6129032258064516
 40
0.6451612903225806
 40
0.6451612903225806
 40
0.6451612903225806
 40
0.6451612903225806
 40
0.6774193548387096
 40
0.6774193548387096
 40
0.6774193548387096
 40
0.6774193548387096
 40
0.7096774193548387
 40
0.7096774193548387
 40
0.7096774193548387
 40
0.7096774193548387
 40
0.7419354838709677
 40
0.7419354838709677
 40
0.7419354838709677
 40
0.7419354838709677
 40
0.7741935483870968
 40
0.7741935483870968
 40
0.7741935483870968
 40
0.7741935483870968
 40
0.8064516129032258
 40
0.8064516129032258
 40
0.8064516129032258
 40
0.8064516129032258
 40
0.8387096774193549
 40
0.8387096774193549
 40
0.8387096774193549
 40
0.8387096774193549
 40
0.8709677419354839
 40
0.8709677419354839
 40
0.8709677419354839
 40
0.8709677419354839
 40
0.9032258064516129
 40
0.9032258064516129
 40
0.9032258064516129
 40
0.9032258064516129
 40
0.9354838709677419
 40
0.9354838709677419
 40
0.9354838709677419
 40
0.9354838709677419
 40
1.0
 40
1.0
 40
1.0
 40
1.0
 10
3.894
 20
-17.1176
 30
0.0
 10
3.8629
 20
-17.1176
 30
0.0
 10
3.8261
 20
-17.1189
 30
0.0
 10
3.7847
 20
-17.1215
 30
0.0
 10
3.7847
 20
-17.1215
 30
0.0
 10
3.7426
 20
-17.124
 30
0.0
 10
3.6961
 20
-17.1292
 30
0.0
 10
3.6456
 20
-17.137
 30
0.0
 10
3.6456
 20
-17.137
 30
0.0
 10
3.4859
 20
-17.1564
 30
0.0
 10
3.3378
 20
-17.1978
 30
0.0
 10
3.2013
 20
-17.2605
 30
0.0
 10
3.2013
 20
-17.2605
 30
0.0
 10
3.0649
 20
-17.3232
 30
0.0
 10
2.9439
 20
-17.406
 30
0.0
 10
2.8385
 20
-17.5095
 30
0.0
 10
2.8385
 20
-17.5095
 30
0.0
 10
2.7538
 20
-17.5923
 30
0.0
 10
2.6794
 20
-17.6906
 30
0.0
 10
2.616
 20
-17.8044
 30
0.0
 10
2.616
 20
-17.8044
 30
0.0
 10
2.552
 20
-17.9176
 30
0.0
 10
2.5022
 20
-18.045
 30
0.0
 10
2.466
 20
-18.186
 30
0.0
 10
2.466
 20
-18.186
 30
0.0
 10
2.4304
 20
-18.327
 30
0.0
 10
2.4123
 20
-18.4809
 30
0.0
 10
2.4116
 20
-18.6465
 30
0.0
 10
2.4116
 20
-18.6465
 30
0.0
 10
2.4123
 20
-18.8108
 30
0.0
 10
2.4336
 20
-18.9589
 30
0.0
 10
2.475
 20
-19.0908
 30
0.0
 10
2.475
 20
-19.0908
 30
0.0
 10
2.5171
 20
-19.2234
 30
0.0
 10
2.5772
 20
-19.3359
 30
0.0
 10
2.6555
 20
-19.4297
 30
0.0
 10
2.6555
 20
-19.4297
 30
0.0
 10
2.7331
 20
-19.5235
 30
0.0
 10
2.8269
 20
-19.5959
 30
0.0
 10
2.9355
 20
-19.6457
 30
0.0
 10
2.9355
 20
-19.6457
 30
0.0
 10
3.0442
 20
-19.6955
 30
0.0
 10
3.1657
 20
-19.7207
 30
0.0
 10
3.3003
 20
-19.7214
 30
0.0
 10
3.3003
 20
-19.7214
 30
0.0
 10
3.4322
 20
-19.7201
 30
0.0
 10
3.5506
 20
-19.6955
 30
0.0
 10
3.6547
 20
-19.6477
 30
0.0
 10
3.6547
 20
-19.6477
 30
0.0
 10
3.7582
 20
-19.5991
 30
0.0
 10
3.8468
 20
-19.5332
 30
0.0
 10
3.9192
 20
-19.4498
 30
0.0
 10
3.9192
 20
-19.4498
 30
0.0
 10
3.9916
 20
-19.3663
 30
0.0
 10
4.0473
 20
-19.2712
 30
0.0
 10
4.0848
 20
-19.1645
 30
0.0
 10
4.0848
 20
-19.1645
 30
0.0
 10
4.1229
 20
-19.0585
 30
0.0
 10
4.1423
 20
-18.9466
 30
0.0
 10
4.1423
 20
-18.8289
 30
0.0
 10
4.1423
 20
-18.8289
 30
0.0
 10
4.1417
 20
-18.706
 30
0.0
 10
4.1229
 20
-18.5947
 30
0.0
 10
4.0861
 20
-18.4951
 30
0.0
 10
4.0861
 20
-18.4951
 30
0.0
 10
4.0492
 20
-18.3955
 30
0.0
 10
3.9968
 20
-18.3095
 30
0.0
 10
3.9296
 20
-18.2377
 30
0.0
 10
3.9296
 20
-18.2377
 30
0.0
 10
3.8617
 20
-18.1666
 30
0.0
 10
3.7815
 20
-18.111
 30
0.0
 10
3.689
 20
-18.0728
 30
0.0
 10
3.689
 20
-18.0728
 30
0.0
 10
3.5965
 20
-18.034
 30
0.0
 10
3.4936
 20
-18.0146
 30
0.0
 10
3.3818
 20
-18.014
 30
0.0
 10
3.3818
 20
-18.014
 30
0.0
 10
3.2886
 20
-18.0146
 30
0.0
 10
3.2033
 20
-18.0282
 30
0.0
 10
3.1256
 20
-18.0541
 30
0.0
 10
3.1256
 20
-18.0541
 30
0.0
 10
3.048
 20
-18.0806
 30
0.0
 10
2.9788
 20
-18.1155
 30
0.0
 10
2.9187
 20
-18.1601
 30
0.0
 10
2.9187
 20
-18.1601
 30
0.0
 10
2.8592
 20
-18.2041
 30
0.0
 10
2.8087
 20
-18.2539
 30
0.0
 10
2.7686
 20
-18.3089
 30
0.0
 10
2.7686
 20
-18.3089
 30
0.0
 10
2.7686
 20
-18.3089
 30
0.0
 10
2.7609
 20
-18.3089
 30
0.0
 10
2.7609
 20
-18.3089
 30
0.0
 10
2.7609
 20
-18.3089
 30
0.0
 10
2.7751
 20
-18.2035
 30
0.0
 10
2.8036
 20
-18.1019
 30
0.0
 10
2.8469
 20
-18.0043
 30
0.0
 10
2.8469
 20
-18.0043
 30
0.0
 10
2.8896
 20
-17.9073
 30
0.0
 10
2.9465
 20
-17.818
 30
0.0
 10
3.0189
 20
-17.7372
 30
0.0
 10
3.0189
 20
-17.7372
 30
0.0
 10
3.0914
 20
-17.657
 30
0.0
 10
3.1787
 20
-17.5884
 30
0.0
 10
3.2815
 20
-17.5328
 30
0.0
 10
3.2815
 20
-17.5328
 30
0.0
 10
3.3843
 20
-17.4772
 30
0.0
 10
3.5034
 20
-17.4384
 30
0.0
 10
3.6379
 20
-17.4164
 30
0.0
 10
3.6379
 20
-17.4164
 30
0.0
 10
3.6864
 20
-17.4086
 30
0.0
 10
3.7329
 20
-17.4028
 30
0.0
 10
3.7763
 20
-17.3996
 30
0.0
 10
3.7763
 20
-17.3996
 30
0.0
 10
3.8196
 20
-17.3957
 30
0.0
 10
3.8591
 20
-17.395
 30
0.0
 10
3.894
 20
-17.397
 30
0.0
 10
3.894
 20
-17.397
 30
0.0
 10
3.894
 20
-17.397
 30
0.0
 10
3.894
 20
-17.1176
 30
0.0
 10
3.894
 20
-17.1176
 30
0.0
  0
SPLINE
  5
42
330
1F
100
AcDbEntity
  8
Standard layer
 62
   250
100
AcDbSpline
210
0.0
220
0.0
230
1.0
 70
    11
 71
     3
 72
    64
 73
    60
 74
     0
 42
0.0000000001
 43
0.0000000001
 40
0.0
 40
0.0
 40
0.0
 40
0.0
 40
0.0625
 40
0.0625
 40
0.0625
 40
0.0625
 40
0.125
 40
0.125
 40
0.125
 40
0.125
 40
0.1875
 40
0.1875
 40
0.1875
 40
0.1875
 40
0.25
 40
0.25
 40
0.25
 40
0.25
 40
0.3125
 40
0.3125
 40
0.3125
 40
0.3125
 40
0.375
 40
0.375
 40
0.375
 40
0.375
 40
0.4375
 40
0.4375
 40
0.4375
 40
0.4375
 40
0.5
 40
0.5
 40
0.5
 40
0.5
 40
0.5625
 40
0.5625
 40
0.5625
 40
0.5625
 40
0.625
 40
0.625
 40
0.625
 40
0.625
 40
0.6875
 40
0.6875
 40
0.6875
 40
0.6875
 40
0.75
 40
0.75
 40
0.75
 40
0.75
 40
0.8125
 40
0.8125
 40
0.8125
 40
0.8125
 40
0.875
 40
0.875
 40
0.875
 40
0.875
 40
1.0
 40
1.0
 40
1.0
 40
1.0
 10
3.308
 20
-19.4575
 30
0.0
 10
3.2175
 20
-19.4569
 30
0.0
 10
3.1379
 20
-19.4388
 30
0.0
 10
3.0687
 20
-19.4025
 30
0.0
 10
3.0687
 20
-19.4025
 30
0.0
 10
3.0002
 20
-19.3663
 30
0.0
 10
2.942
 20
-19.3159
 30
0.0
 10
2.8948
 20
-19.2506
 30
0.0
 10
2.8948
 20
-19.2506
 30
0.0
 10
2.8475
 20
-19.1852
 30
0.0
 10
2.812
 20
-19.1083
 30
0.0
 10
2.7874
 20
-19.0203
 30
0.0
 10
2.7874
 20
-19.0203
 30
0.0
 10
2.7628
 20
-18.9324
 30
0.0
 10
2.7505
 20
-18.836
 30
0.0
 10
2.7492
 20
-18.7319
 30
0.0
 10
2.7492
 20
-18.7319
 30
0.0
 10
2.7492
 20
-18.7008
 30
0.0
 10
2.7531
 20
-18.6737
 30
0.0
 10
2.7596
 20
-18.6491
 30
0.0
 10
2.7596
 20
-18.6491
 30
0.0
 10
2.7661
 20
-18.6251
 30
0.0
 10
2.7745
 20
-18.6038
 30
0.0
 10
2.7842
 20
-18.5844
 30
0.0
 10
2.7842
 20
-18.5844
 30
0.0
 10
2.8159
 20
-18.5217
 30
0.0
 10
2.8566
 20
-18.4673
 30
0.0
 10
2.9077
 20
-18.4208
 30
0.0
 10
2.9077
 20
-18.4208
 30
0.0
 10
2.9581
 20
-18.3749
 30
0.0
 10
3.0151
 20
-18.3386
 30
0.0
 10
3.0784
 20
-18.3128
 30
0.0
 10
3.0784
 20
-18.3128
 30
0.0
 10
3.1418
 20
-18.2875
 30
0.0
 10
3.2078
 20
-18.274
 30
0.0
 10
3.277
 20
-18.274
 30
0.0
 10
3.277
 20
-18.274
 30
0.0
 10
3.3824
 20
-18.2746
 30
0.0
 10
3.4736
 20
-18.2979
 30
0.0
 10
3.5519
 20
-18.3438
 30
0.0
 10
3.5519
 20
-18.3438
 30
0.0
 10
3.6295
 20
-18.3897
 30
0.0
 10
3.6896
 20
-18.4557
 30
0.0
 10
3.7323
 20
-18.5417
 30
0.0
 10
3.7323
 20
-18.5417
 30
0.0
 10
3.775
 20
-18.6277
 30
0.0
 10
3.7963
 20
-18.7312
 30
0.0
 10
3.797
 20
-18.8522
 30
0.0
 10
3.797
 20
-18.8522
 30
0.0
 10
3.7963
 20
-18.9731
 30
0.0
 10
3.7756
 20
-19.0792
 30
0.0
 10
3.7349
 20
-19.1697
 30
0.0
 10
3.7349
 20
-19.1697
 30
0.0
 10
3.6941
 20
-19.2603
 30
0.0
 10
3.6372
 20
-19.3301
 30
0.0
 10
3.5641
 20
-19.3805
 30
0.0
 10
3.5641
 20
-19.3805
 30
0.0
 10
3.4911
 20
-19.431
 30
0.0
 10
3.4057
 20
-19.4569
 30
0.0
 10
3.308
 20
-19.4575
 30
0.0
  0
SPLINE
  5
43
330
1F
100
AcDbEntity
  8
Standard layer
 62
   250
100
AcDbSpline
210
0.0
220
0.0
230
1.0
 70
    11
 71
     3
 72
   132
 73
   128
 74
     0
 42
0.0000000001
 43
0.0000000001
 40
0.0
 40
0.0
 40
0.0
 40
0.0
 40
0.0303030303030303
 40
0.0303030303030303
 40
0.0303030303030303
 40
0.0303030303030303
 40
0.0606060606060606
 40
0.0606060606060606
 40
0.0606060606060606
 40
0.0606060606060606
 40
0.0909090909090909
 40
0.0909090909090909
 40
0.0909090909090909
 40
0.0909090909090909
 40
0.1212121212121212
 40
0.1212121212121212
 40
0.1212121212121212
 40
0.1212121212121212
 40
0.1515151515151515
 40
0.1515151515151515
 40
0.1515151515151515
 40
0.1515151515151515
 40
0.1818181818181818
 40
0.1818181818181818
 40
0.1818181818181818
 40
0.1818181818181818
 40
0.2121212121212121
 40
0.2121212121212121
 40
0.2121212121212121
 40
0.2121212121212121
 40
0.2424242424242424
 40
0.2424242424242424
 40
0.2424242424242424
 40
0.2424242424242424
 40
0.2727272727272727
 40
0.2727272727272727
 40
0.2727272727272727
 40
0.2727272727272727
 40
0.303030303030303
 40
0.303030303030303
 40
0.303030303030303
 40
0.303030303030303
 40
0.3333333333333333
 40
0.3333333333333333
 40
0.3333333333333333
 40
0.3333333333333333
 40
0.3636363636363636
 40
0.3636363636363636
 40
0.3636363636363636
 40
0.3636363636363636
 40
0.3939393939393939
 40
0.3939393939393939
 40
0.3939393939393939
 40
0.3939393939393939
 40
0.4242424242424243
 40
0.4242424242424243
 40
0.4242424242424243
 40
0.4242424242424243
 40
0.4545454545454545
 40
0.4545454545454545
 40
0.4545454545454545
 40
0.4545454545454545
 40
0.4848484848484849
 40
0.4848484848484849
 40
0.4848484848484849
 40
0.4848484848484849
 40
0.5151515151515151
 40
0.5151515151515151
 40
0.5151515151515151
 40
0.5151515151515151
 40
0.5454545454545454
 40
0.5454545454545454
 40
0.5454545454545454
 40
0.5454545454545454
 40
0.5757575757575758
 40
0.5757575757575758
 40
0.5757575757575758
 40
0.5757575757575758
 40
0.6060606060606061
 40
0.6060606060606061
 40
0.6060606060606061
 40
0.6060606060606061
 40
0.6363636363636364
 40
0.6363636363636364
 40
0.6363636363636364
 40
0.6363636363636364
 40
0.6666666666666666
 40
0.6666666666666666
 40
0.6666666666666666
 40
0.6666666666666666
 40
0.696969696969697
 40
0.696969696969697
 40
0.696969696969697
 40
0.696969696969697
 40
0.7272727272727273
 40
0.7272727272727273
 40
0.7272727272727273
 40
0.7272727272727273
 40
0.7575757575757576
 40
0.7575757575757576
 40
0.7575757575757576
 40
0.7575757575757576
 40
0.7878787878787878
 40
0.7878787878787878
 40
0.7878787878787878
 40
0.7878787878787878
 40
0.8181818181818182
 40
0.8181818181818182
 40
0.8181818181818182
 40
0.8181818181818182
 40
0.8484848484848485
 40
0.8484848484848485
 40
0.8484848484848485
 40
0.8484848484848485
 40
0.8787878787878788
 40
0.8787878787878788
 40
0.8787878787878788
 40
0.8787878787878788
 40
0.9090909090909091
 40
0.9090909090909091
 40
0.9090909090909091
 40
0.9090909090909091
 40
0.9393939393939394
 40
0.9393939393939394
 40
0.9393939393939394
 40
0.9393939393939394
 40
1.0
 40
1.0
 40
1.0
 40
1.0
 10
5.9507
 20
-17.1564
 30
0.0
 10
5.9507
 20
-17.1564
 30
0.0
 10
4.7438
 20
-17.1564
 30
0.0
 10
4.7438
 20
-17.1564
 30
0.0
 10
4.7438
 20
-17.1564
 30
0.0
 10
4.7438
 20
-17.1564
 30
0.0
 10
4.5808
 20
-18.3671
 30
0.0
 10
4.5808
 20
-18.3671
 30
0.0
 10
4.5808
 20
-18.3671
 30
0.0
 10
4.6274
 20
-18.3606
 30
0.0
 10
4.6791
 20
-18.3554
 30
0.0
 10
4.7374
 20
-18.3509
 30
0.0
 10
4.7374
 20
-18.3509
 30
0.0
 10
4.7949
 20
-18.3464
 30
0.0
 10
4.8609
 20
-18.3438
 30
0.0
 10
4.934
 20
-18.3438
 30
0.0
 10
4.934
 20
-18.3438
 30
0.0
 10
5.1008
 20
-18.3445
 30
0.0
 10
5.2373
 20
-18.3684
 30
0.0
 10
5.3434
 20
-18.415
 30
0.0
 10
5.3434
 20
-18.415
 30
0.0
 10
5.4501
 20
-18.4622
 30
0.0
 10
5.529
 20
-18.5268
 30
0.0
 10
5.5801
 20
-18.6096
 30
0.0
 10
5.5801
 20
-18.6096
 30
0.0
 10
5.6312
 20
-18.6931
 30
0.0
 10
5.6564
 20
-18.7894
 30
0.0
 10
5.6557
 20
-18.8987
 30
0.0
 10
5.6557
 20
-18.8987
 30
0.0
 10
5.6564
 20
-18.9834
 30
0.0
 10
5.6409
 20
-19.0591
 30
0.0
 10
5.6092
 20
-19.1264
 30
0.0
 10
5.6092
 20
-19.1264
 30
0.0
 10
5.5781
 20
-19.1943
 30
0.0
 10
5.5348
 20
-19.2512
 30
0.0
 10
5.4798
 20
-19.2991
 30
0.0
 10
5.4798
 20
-19.2991
 30
0.0
 10
5.4248
 20
-19.3463
 30
0.0
 10
5.3615
 20
-19.3825
 30
0.0
 10
5.2897
 20
-19.4077
 30
0.0
 10
5.2897
 20
-19.4077
 30
0.0
 10
5.2179
 20
-19.4329
 30
0.0
 10
5.1422
 20
-19.4459
 30
0.0
 10
5.062
 20
-19.4459
 30
0.0
 10
5.062
 20
-19.4459
 30
0.0
 10
4.9838
 20
-19.4452
 30
0.0
 10
4.91
 20
-19.4381
 30
0.0
 10
4.8408
 20
-19.4232
 30
0.0
 10
4.8408
 20
-19.4232
 30
0.0
 10
4.7716
 20
-19.409
 30
0.0
 10
4.7095
 20
-19.3915
 30
0.0
 10
4.6546
 20
-19.3702
 30
0.0
 10
4.6546
 20
-19.3702
 30
0.0
 10
4.5996
 20
-19.3489
 30
0.0
 10
4.5543
 20
-19.3275
 30
0.0
 10
4.5188
 20
-19.3062
 30
0.0
 10
4.5188
 20
-19.3062
 30
0.0
 10
4.5188
 20
-19.3062
 30
0.0
 10
4.4334
 20
-19.5662
 30
0.0
 10
4.4334
 20
-19.5662
 30
0.0
 10
4.4334
 20
-19.5662
 30
0.0
 10
4.4754
 20
-19.5927
 30
0.0
 10
4.5278
 20
-19.6173
 30
0.0
 10
4.5905
 20
-19.6412
 30
0.0
 10
4.5905
 20
-19.6412
 30
0.0
 10
4.6533
 20
-19.6645
 30
0.0
 10
4.7244
 20
-19.6832
 30
0.0
 10
4.804
 20
-19.6981
 30
0.0
 10
4.804
 20
-19.6981
 30
0.0
 10
4.8842
 20
-19.713
 30
0.0
 10
4.9702
 20
-19.7207
 30
0.0
 10
5.062
 20
-19.7214
 30
0.0
 10
5.062
 20
-19.7214
 30
0.0
 10
5.1998
 20
-19.7207
 30
0.0
 10
5.3252
 20
-19.6987
 30
0.0
 10
5.4397
 20
-19.6561
 30
0.0
 10
5.4397
 20
-19.6561
 30
0.0
 10
5.5542
 20
-19.6134
 30
0.0
 10
5.6532
 20
-19.5532
 30
0.0
 10
5.7366
 20
-19.4756
 30
0.0
 10
5.7366
 20
-19.4756
 30
0.0
 10
5.8207
 20
-19.398
 30
0.0
 10
5.8853
 20
-19.3068
 30
0.0
 10
5.9313
 20
-19.2027
 30
0.0
 10
5.9313
 20
-19.2027
 30
0.0
 10
5.9772
 20
-19.0979
 30
0.0
 10
6.0005
 20
-18.9834
 30
0.0
 10
6.0011
 20
-18.8599
 30
0.0
 10
6.0011
 20
-18.8599
 30
0.0
 10
6.0005
 20
-18.7551
 30
0.0
 10
5.9836
 20
-18.6607
 30
0.0
 10
5.9513
 20
-18.5773
 30
0.0
 10
5.9513
 20
-18.5773
 30
0.0
 10
5.919
 20
-18.4939
 30
0.0
 10
5.8763
 20
-18.4221
 30
0.0
 10
5.822
 20
-18.3613
 30
0.0
 10
5.822
 20
-18.3613
 30
0.0
 10
5.7676
 20
-18.3005
 30
0.0
 10
5.7068
 20
-18.252
 30
0.0
 10
5.6402
 20
-18.2158
 30
0.0
 10
5.6402
 20
-18.2158
 30
0.0
 10
5.562
 20
-18.1679
 30
0.0
 10
5.4772
 20
-18.133
 30
0.0
 10
5.3848
 20
-18.1116
 30
0.0
 10
5.3848
 20
-18.1116
 30
0.0
 10
5.2923
 20
-18.0903
 30
0.0
 10
5.1965
 20
-18.0793
 30
0.0
 10
5.0969
 20
-18.0799
 30
0.0
 10
5.0969
 20
-18.0799
 30
0.0
 10
5.0517
 20
-18.0799
 30
0.0
 10
5.0129
 20
-18.0806
 30
0.0
 10
4.9812
 20
-18.0825
 30
0.0
 10
4.9812
 20
-18.0825
 30
0.0
 10
4.9495
 20
-18.0845
 30
0.0
 10
4.9197
 20
-18.0877
 30
0.0
 10
4.8913
 20
-18.0916
 30
0.0
 10
4.8913
 20
-18.0916
 30
0.0
 10
4.8913
 20
-18.0916
 30
0.0
 10
4.9883
 20
-17.4435
 30
0.0
 10
4.9883
 20
-17.4435
 30
0.0
 10
4.9883
 20
-17.4435
 30
0.0
 10
4.9883
 20
-17.4435
 30
0.0
 10
5.9507
 20
-17.4435
 30
0.0
 10
5.9507
 20
-17.4435
 30
0.0
 10
5.9507
 20
-17.4435
 30
0.0
 10
5.9507
 20
-17.4435
 30
0.0
 10
5.9507
 20
-17.1564
 30
0.0
 10
5.9507
 20
-17.1564
 30
0.0
  0
SPLINE
  5
44
330
1F
100
AcDbEntity
  8
Standard layer
 62
   250
100
AcDbSpline
210
0.0
220
0.0
230
1.0
 70
    11
 71
     3
 72
   124
 73
   120
 74
     0
 42
0.0000000001
 43
0.0000000001
 40
0.0
 40
0.0
 40
0.0
 40
0.0
 40
0.032258064516129
 40
0.032258064516129
 40
0.032258064516129
 40
0.032258064516129
 40
0.0645161290322581
 40
0.0645161290322581
 40
0.0645161290322581
 40
0.0645161290322581
 40
0.0967741935483871
 40
0.0967741935483871
 40
0.0967741935483871
 40
0.0967741935483871
 40
0.1290322580645161
 40
0.1290322580645161
 40
0.1290322580645161
 40
0.1290322580645161
 40
0.1612903225806452
 40
0.1612903225806452
 40
0.1612903225806452
 40
0.1612903225806452
 40
0.1935483870967742
 40
0.1935483870967742
 40
0.1935483870967742
 40
0.1935483870967742
 40
0.2258064516129032
 40
0.2258064516129032
 40
0.2258064516129032
 40
0.2258064516129032
 40
0.2580645161290323
 40
0.2580645161290323
 40
0.2580645161290323
 40
0.2580645161290323
 40
0.2903225806451613
 40
0.2903225806451613
 40
0.2903225806451613
 40
0.2903225806451613
 40
0.3225806451612903
 40
0.3225806451612903
 40
0.3225806451612903
 40
0.3225806451612903
 40
0.3548387096774194
 40
0.3548387096774194
 40
0.3548387096774194
 40
0.3548387096774194
 40
0.3870967741935484
 40
0.3870967741935484
 40
0.3870967741935484
 40
0.3870967741935484
 40
0.4193548387096774
 40
0.4193548387096774
 40
0.4193548387096774
 40
0.4193548387096774
 40
0.4516129032258064
 40
0.4516129032258064
 40
0.4516129032258064
 40
0.4516129032258064
 40
0.4838709677419355
 40
0.4838709677419355
 40
0.4838709677419355
 40
0.4838709677419355
 40
0.5161290322580645
 40
0.5161290322580645
 40
0.5161290322580645
 40
0.5161290322580645
 40
0.5483870967741935
 40
0.5483870967741935
 40
0.5483870967741935
 40
0.5483870967741935
 40
0.5806451612903226
 40
0.5806451612903226
 40
0.5806451612903226
 40
0.5806451612903226
 40
0.6129032258064516
 40
0.6129032258064516
 40
0.6129032258064516
 40
0.6129032258064516
 40
0.6451612903225806
 40
0.6451612903225806
 40
0.6451612903225806
 40
0.6451612903225806
 40
0.6774193548387096
 40
0.6774193548387096
 40
0.6774193548387096
 40
0.6774193548387096
 40
0.7096774193548387
 40
0.7096774193548387
 40
0.7096774193548387
 40
0.7096774193548387
 40
0.7419354838709677
 40
0.7419354838709677
 40
0.7419354838709677
 40
0.7419354838709677
 40
0.7741935483870968
 40
0.7741935483870968
 40
0.7741935483870968
 40
0.7741935483870968
 40
0.8064516129032258
 40
0.8064516129032258
 40
0.8064516129032258
 40
0.8064516129032258
 40
0.8387096774193549
 40
0.8387096774193549
 40
0.8387096774193549
 40
0.8387096774193549
 40
0.8709677419354839
 40
0.8709677419354839
 40
0.8709677419354839
 40
0.8709677419354839
 40
0.9032258064516129
 40
0.9032258064516129
 40
0.9032258064516129
 40
0.9032258064516129
 40
0.9354838709677419
 40
0.9354838709677419
 40
0.9354838709677419
 40
0.9354838709677419
 40
1.0
 40
1.0
 40
1.0
 40
1.0
 10
29.044
 20
15.7542
 30
0.0
 10
29.044
 20
15.7542
 30
0.0
 10
28.8575
 20
15.9675
 30
0.0
 10
28.8575
 20
15.9675
 30
0.0
 10
28.8575
 20
15.9675
 30
0.0
 10
28.8575
 20
15.9675
 30
0.0
 10
28.0074
 20
15.2243
 30
0.0
 10
28.0074
 20
15.2243
 30
0.0
 10
28.0074
 20
15.2243
 30
0.0
 10
28.0074
 20
15.2243
 30
0.0
 10
28.0023
 20
15.2301
 30
0.0
 10
28.0023
 20
15.2301
 30
0.0
 10
28.0023
 20
15.2301
 30
0.0
 10
28.0023
 20
15.2301
 30
0.0
 10
28.0287
 20
15.5006
 30
0.0
 10
28.0287
 20
15.5006
 30
0.0
 10
28.0287
 20
15.5006
 30
0.0
 10
28.0451
 20
15.6842
 30
0.0
 10
28.0561
 20
15.8545
 30
0.0
 10
28.0615
 20
16.0104
 30
0.0
 10
28.0615
 20
16.0104
 30
0.0
 10
28.067
 20
16.1664
 30
0.0
 10
28.0624
 20
16.3102
 30
0.0
 10
28.0487
 20
16.4407
 30
0.0
 10
28.0487
 20
16.4407
 30
0.0
 10
28.0355
 20
16.5718
 30
0.0
 10
28.0078
 20
16.691
 30
0.0
 10
27.967
 20
16.7996
 30
0.0
 10
27.967
 20
16.7996
 30
0.0
 10
27.9261
 20
16.9073
 30
0.0
 10
27.8676
 20
17.0048
 30
0.0
 10
27.7918
 20
17.0923
 30
0.0
 10
27.7918
 20
17.0923
 30
0.0
 10
27.7318
 20
17.161
 30
0.0
 10
27.6624
 20
17.2188
 30
0.0
 10
27.583
 20
17.2646
 30
0.0
 10
27.583
 20
17.2646
 30
0.0
 10
27.5035
 20
17.3102
 30
0.0
 10
27.4169
 20
17.3384
 30
0.0
 10
27.3242
 20
17.3503
 30
0.0
 10
27.3242
 20
17.3503
 30
0.0
 10
27.2311
 20
17.3625
 30
0.0
 10
27.1341
 20
17.3515
 30
0.0
 10
27.0333
 20
17.3184
 30
0.0
 10
27.0333
 20
17.3184
 30
0.0
 10
26.9322
 20
17.2858
 30
0.0
 10
26.8304
 20
17.2252
 30
0.0
 10
26.7277
 20
17.1363
 30
0.0
 10
26.7277
 20
17.1363
 30
0.0
 10
26.6561
 20
17.0729
 30
0.0
 10
26.5947
 20
17.0046
 30
0.0
 10
26.5443
 20
16.9304
 30
0.0
 10
26.5443
 20
16.9304
 30
0.0
 10
26.494
 20
16.8564
 30
0.0
 10
26.4536
 20
16.7808
 30
0.0
 10
26.4237
 20
16.703
 30
0.0
 10
26.4237
 20
16.703
 30
0.0
 10
26.3938
 20
16.6262
 30
0.0
 10
26.3731
 20
16.5506
 30
0.0
 10
26.3616
 20
16.4762
 30
0.0
 10
26.3616
 20
16.4762
 30
0.0
 10
26.3616
 20
16.4762
 30
0.0
 10
26.6018
 20
16.3665
 30
0.0
 10
26.6018
 20
16.3665
 30
0.0
 10
26.6018
 20
16.3665
 30
0.0
 10
26.6093
 20
16.4169
 30
0.0
 10
26.6226
 20
16.4724
 30
0.0
 10
26.6422
 20
16.5324
 30
0.0
 10
26.6422
 20
16.5324
 30
0.0
 10
26.6615
 20
16.5931
 30
0.0
 10
26.6893
 20
16.6526
 30
0.0
 10
26.725
 20
16.713
 30
0.0
 10
26.725
 20
16.713
 30
0.0
 10
26.7611
 20
16.7729
 30
0.0
 10
26.8074
 20
16.8289
 30
0.0
 10
26.8646
 20
16.8797
 30
0.0
 10
26.8646
 20
16.8797
 30
0.0
 10
26.9355
 20
16.9409
 30
0.0
 10
27.0039
 20
16.9826
 30
0.0
 10
27.0696
 20
17.0048
 30
0.0
 10
27.0696
 20
17.0048
 30
0.0
 10
27.1351
 20
17.026
 30
0.0
 10
27.1974
 20
17.0323
 30
0.0
 10
27.2564
 20
17.0229
 30
0.0
 10
27.2564
 20
17.0229
 30
0.0
 10
27.3158
 20
17.013
 30
0.0
 10
27.3712
 20
16.9918
 30
0.0
 10
27.4226
 20
16.9586
 30
0.0
 10
27.4226
 20
16.9586
 30
0.0
 10
27.474
 20
16.9253
 30
0.0
 10
27.5207
 20
16.8846
 30
0.0
 10
27.5629
 20
16.8355
 30
0.0
 10
27.5629
 20
16.8355
 30
0.0
 10
27.625
 20
16.7644
 30
0.0
 10
27.6721
 20
16.682
 30
0.0
 10
27.7048
 20
16.5876
 30
0.0
 10
27.7048
 20
16.5876
 30
0.0
 10
27.7379
 20
16.4928
 30
0.0
 10
27.7589
 20
16.3823
 30
0.0
 10
27.7681
 20
16.2547
 30
0.0
 10
27.7681
 20
16.2547
 30
0.0
 10
27.7774
 20
16.1271
 30
0.0
 10
27.7775
 20
15.9787
 30
0.0
 10
27.7684
 20
15.8092
 30
0.0
 10
27.7684
 20
15.8092
 30
0.0
 10
27.7598
 20
15.6402
 30
0.0
 10
27.7449
 20
15.445
 30
0.0
 10
27.7241
 20
15.2241
 30
0.0
 10
27.7241
 20
15.2241
 30
0.0
 10
27.7241
 20
15.2241
 30
0.0
 10
27.6936
 20
14.8521
 30
0.0
 10
27.6936
 20
14.8521
 30
0.0
 10
27.6936
 20
14.8521
 30
0.0
 10
27.6936
 20
14.8521
 30
0.0
 10
27.8315
 20
14.6943
 30
0.0
 10
27.8315
 20
14.6943
 30
0.0
 10
27.8315
 20
14.6943
 30
0.0
 10
27.8315
 20
14.6943
 30
0.0
 10
29.044
 20
15.7542
 30
0.0
 10
29.044
 20
15.7542
 30
0.0
  0
SPLINE
  5
45
330
1F
100
AcDbEntity
  8
Standard layer
 62
   250
100
AcDbSpline
210
0.0
220
0.0
230
1.0
 70
    11
 71
     3
 72
    92
 73
    88
 74
     0
 42
0.0000000001
 43
0.0000000001
 40
0.0
 40
0.0
 40
0.0
 40
0.0
 40
0.0434782608695652
 40
0.0434782608695652
 40
0.0434782608695652
 40
0.0434782608695652
 40
0.0869565217391304
 40
0.0869565217391304
 40
0.0869565217391304
 40
0.0869565217391304
 40
0.1304347826086956
 40
0.1304347826086956
 40
0.1304347826086956
 40
0.1304347826086956
 40
0.1739130434782609
 40
0.1739130434782609
 40
0.1739130434782609
 40
0.1739130434782609
 40
0.2173913043478261
 40
0.2173913043478261
 40
0.2173913043478261
 40
0.2173913043478261
 40
0.2608695652173913
 40
0.2608695652173913
 40
0.2608695652173913
 40
0.2608695652173913
 40
0.3043478260869565
 40
0.3043478260869565
 40
0.3043478260869565
 40
0.3043478260869565
 40
0.3478260869565217
 40
0.3478260869565217
 40
0.3478260869565217
 40
0.3478260869565217
 40
0.391304347826087
 40
0.391304347826087
 40
0.391304347826087
 40
0.391304347826087
 40
0.4347826086956522
 40
0.4347826086956522
 40
0.4347826086956522
 40
0.4347826086956522
 40
0.4782608695652174
 40
0.4782608695652174
 40
0.4782608695652174
 40
0.4782608695652174
 40
0.5217391304347826
 40
0.5217391304347826
 40
0.5217391304347826
 40
0.5217391304347826
 40
0.5652173913043478
 40
0.5652173913043478
 40
0.5652173913043478
 40
0.5652173913043478
 40
0.6086956521739131
 40
0.6086956521739131
 40
0.6086956521739131
 40
0.6086956521739131
 40
0.6521739130434783
 40
0.6521739130434783
 40
0.6521739130434783
 40
0.6521739130434783
 40
0.6956521739130435
 40
0.6956521739130435
 40
0.6956521739130435
 40
0.6956521739130435
 40
0.7391304347826086
 40
0.7391304347826086
 40
0.7391304347826086
 40
0.7391304347826086
 40
0.782608695652174
 40
0.782608695652174
 40
0.782608695652174
 40
0.782608695652174
 40
0.8260869565217391
 40
0.8260869565217391
 40
0.8260869565217391
 40
0.8260869565217391
 40
0.8695652173913043
 40
0.8695652173913043
 40
0.8695652173913043
 40
0.8695652173913043
 40
0.9130434782608695
 40
0.9130434782608695
 40
0.9130434782608695
 40
0.9130434782608695
 40
1.0
 40
1.0
 40
1.0
 40
1.0
 10
28.6289
 20
17.886
 30
0.0
 10
28.6289
 20
17.886
 30
0.0
 10
29.7134
 20
17.6124
 30
0.0
 10
29.7134
 20
17.6124
 30
0.0
 10
29.7134
 20
17.6124
 30
0.0
 10
29.7134
 20
17.6124
 30
0.0
 10
29.8416
 20
16.4514
 30
0.0
 10
29.8416
 20
16.4514
 30
0.0
 10
29.8416
 20
16.4514
 30
0.0
 10
29.8416
 20
16.4514
 30
0.0
 10
30.1251
 20
16.6992
 30
0.0
 10
30.1251
 20
16.6992
 30
0.0
 10
30.1251
 20
16.6992
 30
0.0
 10
30.1251
 20
16.6992
 30
0.0
 10
30.0512
 20
17.1964
 30
0.0
 10
30.0512
 20
17.1964
 30
0.0
 10
30.0512
 20
17.1964
 30
0.0
 10
30.0424
 20
17.2626
 30
0.0
 10
30.0324
 20
17.326
 30
0.0
 10
30.0218
 20
17.3873
 30
0.0
 10
30.0218
 20
17.3873
 30
0.0
 10
30.0113
 20
17.4484
 30
0.0
 10
29.9989
 20
17.5097
 30
0.0
 10
29.9857
 20
17.572
 30
0.0
 10
29.9857
 20
17.572
 30
0.0
 10
29.9857
 20
17.572
 30
0.0
 10
29.9916
 20
17.5772
 30
0.0
 10
29.9916
 20
17.5772
 30
0.0
 10
29.9916
 20
17.5772
 30
0.0
 10
30.0533
 20
17.5565
 30
0.0
 10
30.1135
 20
17.5369
 30
0.0
 10
30.1737
 20
17.5182
 30
0.0
 10
30.1737
 20
17.5182
 30
0.0
 10
30.2333
 20
17.4991
 30
0.0
 10
30.2949
 20
17.4816
 30
0.0
 10
30.3579
 20
17.4645
 30
0.0
 10
30.3579
 20
17.4645
 30
0.0
 10
30.3579
 20
17.4645
 30
0.0
 10
30.8467
 20
17.3299
 30
0.0
 10
30.8467
 20
17.3299
 30
0.0
 10
30.8467
 20
17.3299
 30
0.0
 10
30.8467
 20
17.3299
 30
0.0
 10
31.1359
 20
17.5828
 30
0.0
 10
31.1359
 20
17.5828
 30
0.0
 10
31.1359
 20
17.5828
 30
0.0
 10
31.1359
 20
17.5828
 30
0.0
 10
30.0037
 20
17.8816
 30
0.0
 10
30.0037
 20
17.8816
 30
0.0
 10
30.0037
 20
17.8816
 30
0.0
 10
30.0037
 20
17.8816
 30
0.0
 10
29.8882
 20
18.9867
 30
0.0
 10
29.8882
 20
18.9867
 30
0.0
 10
29.8882
 20
18.9867
 30
0.0
 10
29.8882
 20
18.9867
 30
0.0
 10
29.6077
 20
18.7416
 30
0.0
 10
29.6077
 20
18.7416
 30
0.0
 10
29.6077
 20
18.7416
 30
0.0
 10
29.6077
 20
18.7416
 30
0.0
 10
29.675
 20
18.2695
 30
0.0
 10
29.675
 20
18.2695
 30
0.0
 10
29.675
 20
18.2695
 30
0.0
 10
29.6829
 20
18.2103
 30
0.0
 10
29.6918
 20
18.1509
 30
0.0
 10
29.7012
 20
18.093
 30
0.0
 10
29.7012
 20
18.093
 30
0.0
 10
29.7105
 20
18.0342
 30
0.0
 10
29.7217
 20
17.9744
 30
0.0
 10
29.7336
 20
17.9135
 30
0.0
 10
29.7336
 20
17.9135
 30
0.0
 10
29.7336
 20
17.9135
 30
0.0
 10
29.7278
 20
17.9084
 30
0.0
 10
29.7278
 20
17.9084
 30
0.0
 10
29.7278
 20
17.9084
 30
0.0
 10
29.6708
 20
17.9274
 30
0.0
 10
29.6142
 20
17.9449
 30
0.0
 10
29.5585
 20
17.9615
 30
0.0
 10
29.5585
 20
17.9615
 30
0.0
 10
29.5028
 20
17.978
 30
0.0
 10
29.4437
 20
17.9935
 30
0.0
 10
29.3824
 20
18.0086
 30
0.0
 10
29.3824
 20
18.0086
 30
0.0
 10
29.3824
 20
18.0086
 30
0.0
 10
28.9153
 20
18.1363
 30
0.0
 10
28.9153
 20
18.1363
 30
0.0
 10
28.9153
 20
18.1363
 30
0.0
 10
28.9153
 20
18.1363
 30
0.0
 10
28.6289
 20
17.886
 30
0.0
 10
28.6289
 20
17.886
 30
0.0
  0
SPLINE
  5
46
330
1F
100
AcDbEntity
  8
Standard layer
 62
   250
100
AcDbSpline
210
0.0
220
0.0
230
1.0
 70
    11
 71
     3
 72
   104
 73
   100
 74
     0
 42
0.0000000001
 43
0.0000000001
 40
0.0
 40
0.0
 40
0.0
 40
0.0
 40
0.0384615384615385
 40
0.0384615384615385
 40
0.0384615384615385
 40
0.0384615384615385
 40
0.0769230769230769
 40
0.0769230769230769
 40
0.0769230769230769
 40
0.0769230769230769
 40
0.1153846153846154
 40
0.1153846153846154
 40
0.1153846153846154
 40
0.1153846153846154
 40
0.1538461538461539
 40
0.1538461538461539
 40
0.1538461538461539
 40
0.1538461538461539
 40
0.1923076923076923
 40
0.1923076923076923
 40
0.1923076923076923
 40
0.1923076923076923
 40
0.2307692307692308
 40
0.2307692307692308
 40
0.2307692307692308
 40
0.2307692307692308
 40
0.2692307692307692
 40
0.2692307692307692
 40
0.2692307692307692
 40
0.2692307692307692
 40
0.3076923076923077
 40
0.3076923076923077
 40
0.3076923076923077
 40
0.3076923076923077
 40
0.3461538461538461
 40
0.3461538461538461
 40
0.3461538461538461
 40
0.3461538461538461
 40
0.3846153846153846
 40
0.3846153846153846
 40
0.3846153846153846
 40
0.3846153846153846
 40
0.4230769230769231
 40
0.4230769230769231
 40
0.4230769230769231
 40
0.4230769230769231
 40
0.4615384615384616
 40
0.4615384615384616
 40
0.4615384615384616
 40
0.4615384615384616
 40
0.5
 40
0.5
 40
0.5
 40
0.5
 40
0.5384615384615384
 40
0.5384615384615384
 40
0.5384615384615384
 40
0.5384615384615384
 40
0.5769230769230769
 40
0.5769230769230769
 40
0.5769230769230769
 40
0.5769230769230769
 40
0.6153846153846154
 40
0.6153846153846154
 40
0.6153846153846154
 40
0.6153846153846154
 40
0.6538461538461539
 40
0.6538461538461539
 40
0.6538461538461539
 40
0.6538461538461539
 40
0.6923076923076923
 40
0.6923076923076923
 40
0.6923076923076923
 40
0.6923076923076923
 40
0.7307692307692307
 40
0.7307692307692307
 40
0.7307692307692307
 40
0.7307692307692307
 40
0.7692307692307693
 40
0.7692307692307693
 40
0.7692307692307693
 40
0.7692307692307693
 40
0.8076923076923077
 40
0.8076923076923077
 40
0.8076923076923077
 40
0.8076923076923077
 40
0.8461538461538461
 40
0.8461538461538461
 40
0.8461538461538461
 40
0.8461538461538461
 40
0.8846153846153846
 40
0.8846153846153846
 40
0.8846153846153846
 40
0.8846153846153846
 40
0.9230769230769231
 40
0.9230769230769231
 40
0.9230769230769231
 40
0.9230769230769231
 40
1.0
 40
1.0
 40
1.0
 40
1.0
 10
32.2275
 20
18.3153
 30
0.0
 10
32.2275
 20
18.3153
 30
0.0
 10
32.1919
 20
18.7275
 30
0.0
 10
32.1919
 20
18.7275
 30
0.0
 10
32.1919
 20
18.7275
 30
0.0
 10
32.3072
 20
18.7381
 30
0.0
 10
32.4191
 20
18.7663
 30
0.0
 10
32.5262
 20
18.8127
 30
0.0
 10
32.5262
 20
18.8127
 30
0.0
 10
32.6339
 20
18.8595
 30
0.0
 10
32.734
 20
18.923
 30
0.0
 10
32.8265
 20
19.0039
 30
0.0
 10
32.8265
 20
19.0039
 30
0.0
 10
32.9215
 20
19.0868
 30
0.0
 10
33.0011
 20
19.1814
 30
0.0
 10
33.0651
 20
19.2862
 30
0.0
 10
33.0651
 20
19.2862
 30
0.0
 10
33.1289
 20
19.391
 30
0.0
 10
33.1745
 20
19.5039
 30
0.0
 10
33.201
 20
19.625
 30
0.0
 10
33.201
 20
19.625
 30
0.0
 10
33.2283
 20
19.7459
 30
0.0
 10
33.2337
 20
19.8726
 30
0.0
 10
33.2178
 20
20.0048
 30
0.0
 10
33.2178
 20
20.0048
 30
0.0
 10
33.2015
 20
20.1365
 30
0.0
 10
33.161
 20
20.2712
 30
0.0
 10
33.096
 20
20.4094
 30
0.0
 10
33.096
 20
20.4094
 30
0.0
 10
33.031
 20
20.5467
 30
0.0
 10
32.9389
 20
20.6844
 30
0.0
 10
32.8194
 20
20.8221
 30
0.0
 10
32.8194
 20
20.8221
 30
0.0
 10
32.7347
 20
20.919
 30
0.0
 10
32.6445
 20
21.0026
 30
0.0
 10
32.5479
 20
21.0728
 30
0.0
 10
32.5479
 20
21.0728
 30
0.0
 10
32.4514
 20
21.1439
 30
0.0
 10
32.3511
 20
21.2006
 30
0.0
 10
32.2477
 20
21.2432
 30
0.0
 10
32.2477
 20
21.2432
 30
0.0
 10
32.1438
 20
21.2856
 30
0.0
 10
32.0387
 20
21.3123
 30
0.0
 10
31.9318
 20
21.3246
 30
0.0
 10
31.9318
 20
21.3246
 30
0.0
 10
31.9318
 20
21.3246
 30
0.0
 10
31.8934
 20
21.7342
 30
0.0
 10
31.8934
 20
21.7342
 30
0.0
 10
31.8934
 20
21.7342
 30
0.0
 10
31.8934
 20
21.7342
 30
0.0
 10
31.6466
 20
21.704
 30
0.0
 10
31.6466
 20
21.704
 30
0.0
 10
31.6466
 20
21.704
 30
0.0
 10
31.6466
 20
21.704
 30
0.0
 10
31.6811
 20
21.3167
 30
0.0
 10
31.6811
 20
21.3167
 30
0.0
 10
31.6811
 20
21.3167
 30
0.0
 10
31.5645
 20
21.3075
 30
0.0
 10
31.4535
 20
21.2801
 30
0.0
 10
31.3478
 20
21.234
 30
0.0
 10
31.3478
 20
21.234
 30
0.0
 10
31.2415
 20
21.1876
 30
0.0
 10
31.1434
 20
21.1249
 30
0.0
 10
31.0523
 20
21.0453
 30
0.0
 10
31.0523
 20
21.0453
 30
0.0
 10
30.9227
 20
20.9313
 30
0.0
 10
30.8243
 20
20.8022
 30
0.0
 10
30.7558
 20
20.6573
 30
0.0
 10
30.7558
 20
20.6573
 30
0.0
 10
30.6879
 20
20.513
 30
0.0
 10
30.6529
 20
20.3595
 30
0.0
 10
30.6498
 20
20.1978
 30
0.0
 10
30.6498
 20
20.1978
 30
0.0
 10
30.6462
 20
20.0358
 30
0.0
 10
30.6774
 20
19.8724
 30
0.0
 10
30.7419
 20
19.7062
 30
0.0
 10
30.7419
 20
19.7062
 30
0.0
 10
30.8069
 20
19.5406
 30
0.0
 10
30.9065
 20
19.3794
 30
0.0
 10
31.0426
 20
19.2227
 30
0.0
 10
31.0426
 20
19.2227
 30
0.0
 10
31.1286
 20
19.1243
 30
0.0
 10
31.2215
 20
19.0397
 30
0.0
 10
31.3194
 20
18.9689
 30
0.0
 10
31.3194
 20
18.9689
 30
0.0
 10
31.4174
 20
18.8982
 30
0.0
 10
31.5189
 20
18.8419
 30
0.0
 10
31.6234
 20
18.8001
 30
0.0
 10
31.6234
 20
18.8001
 30
0.0
 10
31.7283
 20
18.7586
 30
0.0
 10
31.8342
 20
18.7318
 30
0.0
 10
31.9411
 20
18.7196
 30
0.0
 10
31.9411
 20
18.7196
 30
0.0
 10
31.9411
 20
18.7196
 30
0.0
 10
31.9822
 20
18.3071
 30
0.0
 10
31.9822
 20
18.3071
 30
0.0
 10
31.9822
 20
18.3071
 30
0.0
 10
31.9822
 20
18.3071
 30
0.0
 10
32.2275
 20
18.3153
 30
0.0
 10
32.2275
 20
18.3153
 30
0.0
  0
SPLINE
  5
47
330
1F
100
AcDbEntity
  8
Standard layer
 62
   250
100
AcDbSpline
210
0.0
220
0.0
230
1.0
 70
    11
 71
     3
 72
    52
 73
    48
 74
     0
 42
0.0000000001
 43
0.0000000001
 40
0.0
 40
0.0
 40
0.0
 40
0.0
 40
0.0769230769230769
 40
0.0769230769230769
 40
0.0769230769230769
 40
0.0769230769230769
 40
0.1538461538461539
 40
0.1538461538461539
 40
0.1538461538461539
 40
0.1538461538461539
 40
0.2307692307692308
 40
0.2307692307692308
 40
0.2307692307692308
 40
0.2307692307692308
 40
0.3076923076923077
 40
0.3076923076923077
 40
0.3076923076923077
 40
0.3076923076923077
 40
0.3846153846153846
 40
0.3846153846153846
 40
0.3846153846153846
 40
0.3846153846153846
 40
0.4615384615384616
 40
0.4615384615384616
 40
0.4615384615384616
 40
0.4615384615384616
 40
0.5384615384615384
 40
0.5384615384615384
 40
0.5384615384615384
 40
0.5384615384615384
 40
0.6153846153846154
 40
0.6153846153846154
 40
0.6153846153846154
 40
0.6153846153846154
 40
0.6923076923076923
 40
0.6923076923076923
 40
0.6923076923076923
 40
0.6923076923076923
 40
0.7692307692307693
 40
0.7692307692307693
 40
0.7692307692307693
 40
0.7692307692307693
 40
0.8461538461538461
 40
0.8461538461538461
 40
0.8461538461538461
 40
0.8461538461538461
 40
1.0
 40
1.0
 40
1.0
 40
1.0
 10
31.9012
 20
19.066
 30
0.0
 10
31.9012
 20
19.066
 30
0.0
 10
31.8979
 20
19.0579
 30
0.0
 10
31.8979
 20
19.0579
 30
0.0
 10
31.8979
 20
19.0579
 30
0.0
 10
31.8248
 20
19.0826
 30
0.0
 10
31.7539
 20
19.1126
 30
0.0
 10
31.6857
 20
19.1474
 30
0.0
 10
31.6857
 20
19.1474
 30
0.0
 10
31.617
 20
19.1828
 30
0.0
 10
31.5507
 20
19.2253
 30
0.0
 10
31.4853
 20
19.2763
 30
0.0
 10
31.4853
 20
19.2763
 30
0.0
 10
31.4204
 20
19.327
 30
0.0
 10
31.3559
 20
19.3891
 30
0.0
 10
31.2925
 20
19.4617
 30
0.0
 10
31.2925
 20
19.4617
 30
0.0
 10
31.2192
 20
19.5455
 30
0.0
 10
31.1573
 20
19.6339
 30
0.0
 10
31.105
 20
19.7281
 30
0.0
 10
31.105
 20
19.7281
 30
0.0
 10
31.0536
 20
19.8224
 30
0.0
 10
31.0147
 20
19.9189
 30
0.0
 10
30.9892
 20
20.017
 30
0.0
 10
30.9892
 20
20.017
 30
0.0
 10
30.9638
 20
20.1158
 30
0.0
 10
30.9538
 20
20.2136
 30
0.0
 10
30.9603
 20
20.3104
 30
0.0
 10
30.9603
 20
20.3104
 30
0.0
 10
30.9664
 20
20.4076
 30
0.0
 10
30.991
 20
20.5004
 30
0.0
 10
31.0336
 20
20.5892
 30
0.0
 10
31.0336
 20
20.5892
 30
0.0
 10
31.0763
 20
20.6789
 30
0.0
 10
31.1405
 20
20.7607
 30
0.0
 10
31.2253
 20
20.8358
 30
0.0
 10
31.2253
 20
20.8358
 30
0.0
 10
31.3002
 20
20.9003
 30
0.0
 10
31.379
 20
20.9478
 30
0.0
 10
31.4617
 20
20.9771
 30
0.0
 10
31.4617
 20
20.9771
 30
0.0
 10
31.5443
 20
21.0072
 30
0.0
 10
31.6292
 20
21.0222
 30
0.0
 10
31.7163
 20
21.0227
 30
0.0
 10
31.7163
 20
21.0227
 30
0.0
 10
31.7163
 20
21.0227
 30
0.0
 10
31.9012
 20
19.066
 30
0.0
 10
31.9012
 20
19.066
 30
0.0
  0
SPLINE
  5
48
330
1F
100
AcDbEntity
  8
Standard layer
 62
   250
100
AcDbSpline
210
0.0
220
0.0
230
1.0
 70
    11
 71
     3
 72
    48
 73
    44
 74
     0
 42
0.0000000001
 43
0.0000000001
 40
0.0
 40
0.0
 40
0.0
 40
0.0
 40
0.0833333333333333
 40
0.0833333333333333
 40
0.0833333333333333
 40
0.0833333333333333
 40
0.1666666666666667
 40
0.1666666666666667
 40
0.1666666666666667
 40
0.1666666666666667
 40
0.25
 40
0.25
 40
0.25
 40
0.25
 40
0.3333333333333333
 40
0.3333333333333333
 40
0.3333333333333333
 40
0.3333333333333333
 40
0.4166666666666667
 40
0.4166666666666667
 40
0.4166666666666667
 40
0.4166666666666667
 40
0.5
 40
0.5
 40
0.5
 40
0.5
 40
0.5833333333333334
 40
0.5833333333333334
 40
0.5833333333333334
 40
0.5833333333333334
 40
0.6666666666666666
 40
0.6666666666666666
 40
0.6666666666666666
 40
0.6666666666666666
 40
0.75
 40
0.75
 40
0.75
 40
0.75
 40
0.8333333333333334
 40
0.8333333333333334
 40
0.8333333333333334
 40
0.8333333333333334
 40
1.0
 40
1.0
 40
1.0
 40
1.0
 10
31.9715
 20
20.9726
 30
0.0
 10
31.9715
 20
20.9726
 30
0.0
 10
31.9802
 20
20.9802
 30
0.0
 10
31.9802
 20
20.9802
 30
0.0
 10
31.9802
 20
20.9802
 30
0.0
 10
32.1049
 20
20.9398
 30
0.0
 10
32.2154
 20
20.8852
 30
0.0
 10
32.312
 20
20.8168
 30
0.0
 10
32.312
 20
20.8168
 30
0.0
 10
32.4083
 20
20.7489
 30
0.0
 10
32.4935
 20
20.6722
 30
0.0
 10
32.567
 20
20.5861
 30
0.0
 10
32.567
 20
20.5861
 30
0.0
 10
32.6445
 20
20.4975
 30
0.0
 10
32.7093
 20
20.4046
 30
0.0
 10
32.7624
 20
20.3076
 30
0.0
 10
32.7624
 20
20.3076
 30
0.0
 10
32.8155
 20
20.2105
 30
0.0
 10
32.8542
 20
20.1121
 30
0.0
 10
32.8791
 20
20.0128
 30
0.0
 10
32.8791
 20
20.0128
 30
0.0
 10
32.9036
 20
19.913
 30
0.0
 10
32.9127
 20
19.8153
 30
0.0
 10
32.9053
 20
19.7195
 30
0.0
 10
32.9053
 20
19.7195
 30
0.0
 10
32.8979
 20
19.6229
 30
0.0
 10
32.8734
 20
19.531
 30
0.0
 10
32.8309
 20
19.4441
 30
0.0
 10
32.8309
 20
19.4441
 30
0.0
 10
32.7883
 20
19.3571
 30
0.0
 10
32.7262
 20
19.2778
 30
0.0
 10
32.6449
 20
19.2058
 30
0.0
 10
32.6449
 20
19.2058
 30
0.0
 10
32.5655
 20
19.1364
 30
0.0
 10
32.4852
 20
19.0877
 30
0.0
 10
32.4054
 20
19.0601
 30
0.0
 10
32.4054
 20
19.0601
 30
0.0
 10
32.3251
 20
19.032
 30
0.0
 10
32.2414
 20
19.0207
 30
0.0
 10
32.1541
 20
19.0242
 30
0.0
 10
32.1541
 20
19.0242
 30
0.0
 10
32.1541
 20
19.0242
 30
0.0
 10
31.9715
 20
20.9726
 30
0.0
 10
31.9715
 20
20.9726
 30
0.0
  0
SPLINE
  5
49
330
1F
100
AcDbEntity
  8
Standard layer
 62
   250
100
AcDbSpline
210
0.0
220
0.0
230
1.0
 70
    11
 71
     3
 72
   132
 73
   128
 74
     0
 42
0.0000000001
 43
0.0000000001
 40
0.0
 40
0.0
 40
0.0
 40
0.0
 40
0.0303030303030303
 40
0.0303030303030303
 40
0.0303030303030303
 40
0.0303030303030303
 40
0.0606060606060606
 40
0.0606060606060606
 40
0.0606060606060606
 40
0.0606060606060606
 40
0.0909090909090909
 40
0.0909090909090909
 40
0.0909090909090909
 40
0.0909090909090909
 40
0.1212121212121212
 40
0.1212121212121212
 40
0.1212121212121212
 40
0.1212121212121212
 40
0.1515151515151515
 40
0.1515151515151515
 40
0.1515151515151515
 40
0.1515151515151515
 40
0.1818181818181818
 40
0.1818181818181818
 40
0.1818181818181818
 40
0.1818181818181818
 40
0.2121212121212121
 40
0.2121212121212121
 40
0.2121212121212121
 40
0.2121212121212121
 40
0.2424242424242424
 40
0.2424242424242424
 40
0.2424242424242424
 40
0.2424242424242424
 40
0.2727272727272727
 40
0.2727272727272727
 40
0.2727272727272727
 40
0.2727272727272727
 40
0.303030303030303
 40
0.303030303030303
 40
0.303030303030303
 40
0.303030303030303
 40
0.3333333333333333
 40
0.3333333333333333
 40
0.3333333333333333
 40
0.3333333333333333
 40
0.3636363636363636
 40
0.3636363636363636
 40
0.3636363636363636
 40
0.3636363636363636
 40
0.3939393939393939
 40
0.3939393939393939
 40
0.3939393939393939
 40
0.3939393939393939
 40
0.4242424242424243
 40
0.4242424242424243
 40
0.4242424242424243
 40
0.4242424242424243
 40
0.4545454545454545
 40
0.4545454545454545
 40
0.4545454545454545
 40
0.4545454545454545
 40
0.4848484848484849
 40
0.4848484848484849
 40
0.4848484848484849
 40
0.4848484848484849
 40
0.5151515151515151
 40
0.5151515151515151
 40
0.5151515151515151
 40
0.5151515151515151
 40
0.5454545454545454
 40
0.5454545454545454
 40
0.5454545454545454
 40
0.5454545454545454
 40
0.5757575757575758
 40
0.5757575757575758
 40
0.5757575757575758
 40
0.5757575757575758
 40
0.6060606060606061
 40
0.6060606060606061
 40
0.6060606060606061
 40
0.6060606060606061
 40
0.6363636363636364
 40
0.6363636363636364
 40
0.6363636363636364
 40
0.6363636363636364
 40
0.6666666666666666
 40
0.6666666666666666
 40
0.6666666666666666
 40
0.6666666666666666
 40
0.696969696969697
 40
0.696969696969697
 40
0.696969696969697
 40
0.696969696969697
 40
0.7272727272727273
 40
0.7272727272727273
 40
0.7272727272727273
 40
0.7272727272727273
 40
0.7575757575757576
 40
0.7575757575757576
 40
0.7575757575757576
 40
0.7575757575757576
 40
0.7878787878787878
 40
0.7878787878787878
 40
0.7878787878787878
 40
0.7878787878787878
 40
0.8181818181818182
 40
0.8181818181818182
 40
0.8181818181818182
 40
0.8181818181818182
 40
0.8484848484848485
 40
0.8484848484848485
 40
0.8484848484848485
 40
0.8484848484848485
 40
0.8787878787878788
 40
0.8787878787878788
 40
0.8787878787878788
 40
0.8787878787878788
 40
0.9090909090909091
 40
0.9090909090909091
 40
0.9090909090909091
 40
0.9090909090909091
 40
0.9393939393939394
 40
0.9393939393939394
 40
0.9393939393939394
 40
0.9393939393939394
 40
1.0
 40
1.0
 40
1.0
 40
1.0
 10
33.4086
 20
22.9194
 30
0.0
 10
33.4086
 20
22.9194
 30
0.0
 10
32.4999
 20
22.1252
 30
0.0
 10
32.4999
 20
22.1252
 30
0.0
 10
32.4999
 20
22.1252
 30
0.0
 10
32.4999
 20
22.1252
 30
0.0
 10
33.174
 20
21.1063
 30
0.0
 10
33.174
 20
21.1063
 30
0.0
 10
33.174
 20
21.1063
 30
0.0
 10
33.2048
 20
21.1419
 30
0.0
 10
33.2403
 20
21.1798
 30
0.0
 10
33.2812
 20
21.2216
 30
0.0
 10
33.2812
 20
21.2216
 30
0.0
 10
33.3216
 20
21.2628
 30
0.0
 10
33.3696
 20
21.3082
 30
0.0
 10
33.4246
 20
21.3563
 30
0.0
 10
33.4246
 20
21.3563
 30
0.0
 10
33.5506
 20
21.4656
 30
0.0
 10
33.6691
 20
21.5374
 30
0.0
 10
33.7797
 20
21.5722
 30
0.0
 10
33.7797
 20
21.5722
 30
0.0
 10
33.8911
 20
21.6068
 30
0.0
 10
33.993
 20
21.6101
 30
0.0
 10
34.086
 20
21.5814
 30
0.0
 10
34.086
 20
21.5814
 30
0.0
 10
34.1794
 20
21.5522
 30
0.0
 10
34.2618
 20
21.4963
 30
0.0
 10
34.3332
 20
21.4135
 30
0.0
 10
34.3332
 20
21.4135
 30
0.0
 10
34.3894
 20
21.3502
 30
0.0
 10
34.4276
 20
21.283
 30
0.0
 10
34.448
 20
21.2115
 30
0.0
 10
34.448
 20
21.2115
 30
0.0
 10
34.4693
 20
21.1399
 30
0.0
 10
34.4741
 20
21.0685
 30
0.0
 10
34.4642
 20
20.9963
 30
0.0
 10
34.4642
 20
20.9963
 30
0.0
 10
34.4539
 20
20.9245
 30
0.0
 10
34.4301
 20
20.8556
 30
0.0
 10
34.3926
 20
20.7894
 30
0.0
 10
34.3926
 20
20.7894
 30
0.0
 10
34.3551
 20
20.7232
 30
0.0
 10
34.3067
 20
20.6636
 30
0.0
 10
34.2463
 20
20.6108
 30
0.0
 10
34.2463
 20
20.6108
 30
0.0
 10
34.1869
 20
20.5598
 30
0.0
 10
34.1267
 20
20.5166
 30
0.0
 10
34.0648
 20
20.4823
 30
0.0
 10
34.0648
 20
20.4823
 30
0.0
 10
34.0034
 20
20.4474
 30
0.0
 10
33.9451
 20
20.4198
 30
0.0
 10
33.8897
 20
20.3997
 30
0.0
 10
33.8897
 20
20.3997
 30
0.0
 10
33.8343
 20
20.3795
 30
0.0
 10
33.7861
 20
20.3658
 30
0.0
 10
33.7454
 20
20.3585
 30
0.0
 10
33.7454
 20
20.3585
 30
0.0
 10
33.7454
 20
20.3585
 30
0.0
 10
33.8522
 20
20.1065
 30
0.0
 10
33.8522
 20
20.1065
 30
0.0
 10
33.8522
 20
20.1065
 30
0.0
 10
33.9012
 20
20.1142
 30
0.0
 10
33.9569
 20
20.1302
 30
0.0
 10
34.0198
 20
20.1534
 30
0.0
 10
34.0198
 20
20.1534
 30
0.0
 10
34.0824
 20
20.1772
 30
0.0
 10
34.1483
 20
20.2099
 30
0.0
 10
34.218
 20
20.2511
 30
0.0
 10
34.218
 20
20.2511
 30
0.0
 10
34.2882
 20
20.2927
 30
0.0
 10
34.358
 20
20.3435
 30
0.0
 10
34.4276
 20
20.4034
 30
0.0
 10
34.4276
 20
20.4034
 30
0.0
 10
34.5309
 20
20.4946
 30
0.0
 10
34.6108
 20
20.5937
 30
0.0
 10
34.669
 20
20.7011
 30
0.0
 10
34.669
 20
20.7011
 30
0.0
 10
34.7271
 20
20.8086
 30
0.0
 10
34.762
 20
20.9191
 30
0.0
 10
34.7737
 20
21.0324
 30
0.0
 10
34.7737
 20
21.0324
 30
0.0
 10
34.786
 20
21.1462
 30
0.0
 10
34.7746
 20
21.2573
 30
0.0
 10
34.7407
 20
21.366
 30
0.0
 10
34.7407
 20
21.366
 30
0.0
 10
34.7063
 20
21.4751
 30
0.0
 10
34.6485
 20
21.5767
 30
0.0
 10
34.5677
 20
21.67
 30
0.0
 10
34.5677
 20
21.67
 30
0.0
 10
34.4983
 20
21.7485
 30
0.0
 10
34.4234
 20
21.8085
 30
0.0
 10
34.3442
 20
21.85
 30
0.0
 10
34.3442
 20
21.85
 30
0.0
 10
34.265
 20
21.8916
 30
0.0
 10
34.1856
 20
21.9175
 30
0.0
 10
34.1047
 20
21.9276
 30
0.0
 10
34.1047
 20
21.9276
 30
0.0
 10
34.0237
 20
21.9375
 30
0.0
 10
33.946
 20
21.934
 30
0.0
 10
33.8721
 20
21.9175
 30
0.0
 10
33.8721
 20
21.9175
 30
0.0
 10
33.7817
 20
21.9021
 30
0.0
 10
33.6948
 20
21.8725
 30
0.0
 10
33.6112
 20
21.8278
 30
0.0
 10
33.6112
 20
21.8278
 30
0.0
 10
33.5275
 20
21.783
 30
0.0
 10
33.4482
 20
21.7282
 30
0.0
 10
33.3736
 20
21.6622
 30
0.0
 10
33.3736
 20
21.6622
 30
0.0
 10
33.3395
 20
21.6325
 30
0.0
 10
33.3108
 20
21.6064
 30
0.0
 10
33.2882
 20
21.5841
 30
0.0
 10
33.2882
 20
21.5841
 30
0.0
 10
33.2656
 20
21.5618
 30
0.0
 10
33.2453
 20
21.5397
 30
0.0
 10
33.2265
 20
21.5181
 30
0.0
 10
33.2265
 20
21.5181
 30
0.0
 10
33.2265
 20
21.5181
 30
0.0
 10
32.873
 20
22.0699
 30
0.0
 10
32.873
 20
22.0699
 30
0.0
 10
32.873
 20
22.0699
 30
0.0
 10
32.873
 20
22.0699
 30
0.0
 10
33.5976
 20
22.7033
 30
0.0
 10
33.5976
 20
22.7033
 30
0.0
 10
33.5976
 20
22.7033
 30
0.0
 10
33.5976
 20
22.7033
 30
0.0
 10
33.4086
 20
22.9194
 30
0.0
 10
33.4086
 20
22.9194
 30
0.0
  0
SPLINE
  5
4A
330
1F
100
AcDbEntity
  8
Standard layer
 62
   250
100
AcDbSpline
210
0.0
220
0.0
230
1.0
 70
    11
 71
     3
 72
   104
 73
   100
 74
     0
 42
0.0000000001
 43
0.0000000001
 40
0.0
 40
0.0
 40
0.0
 40
0.0
 40
0.0384615384615385
 40
0.0384615384615385
 40
0.0384615384615385
 40
0.0384615384615385
 40
0.0769230769230769
 40
0.0769230769230769
 40
0.0769230769230769
 40
0.0769230769230769
 40
0.1153846153846154
 40
0.1153846153846154
 40
0.1153846153846154
 40
0.1153846153846154
 40
0.1538461538461539
 40
0.1538461538461539
 40
0.1538461538461539
 40
0.1538461538461539
 40
0.1923076923076923
 40
0.1923076923076923
 40
0.1923076923076923
 40
0.1923076923076923
 40
0.2307692307692308
 40
0.2307692307692308
 40
0.2307692307692308
 40
0.2307692307692308
 40
0.2692307692307692
 40
0.2692307692307692
 40
0.2692307692307692
 40
0.2692307692307692
 40
0.3076923076923077
 40
0.3076923076923077
 40
0.3076923076923077
 40
0.3076923076923077
 40
0.3461538461538461
 40
0.3461538461538461
 40
0.3461538461538461
 40
0.3461538461538461
 40
0.3846153846153846
 40
0.3846153846153846
 40
0.3846153846153846
 40
0.3846153846153846
 40
0.4230769230769231
 40
0.4230769230769231
 40
0.4230769230769231
 40
0.4230769230769231
 40
0.4615384615384616
 40
0.4615384615384616
 40
0.4615384615384616
 40
0.4615384615384616
 40
0.5
 40
0.5
 40
0.5
 40
0.5
 40
0.5384615384615384
 40
0.5384615384615384
 40
0.5384615384615384
 40
0.5384615384615384
 40
0.5769230769230769
 40
0.5769230769230769
 40
0.5769230769230769
 40
0.5769230769230769
 40
0.6153846153846154
 40
0.6153846153846154
 40
0.6153846153846154
 40
0.6153846153846154
 40
0.6538461538461539
 40
0.6538461538461539
 40
0.6538461538461539
 40
0.6538461538461539
 40
0.6923076923076923
 40
0.6923076923076923
 40
0.6923076923076923
 40
0.6923076923076923
 40
0.7307692307692307
 40
0.7307692307692307
 40
0.7307692307692307
 40
0.7307692307692307
 40
0.7692307692307693
 40
0.7692307692307693
 40
0.7692307692307693
 40
0.7692307692307693
 40
0.8076923076923077
 40
0.8076923076923077
 40
0.8076923076923077
 40
0.8076923076923077
 40
0.8461538461538461
 40
0.8461538461538461
 40
0.8461538461538461
 40
0.8461538461538461
 40
0.8846153846153846
 40
0.8846153846153846
 40
0.8846153846153846
 40
0.8846153846153846
 40
0.9230769230769231
 40
0.9230769230769231
 40
0.9230769230769231
 40
0.9230769230769231
 40
1.0
 40
1.0
 40
1.0
 40
1.0
 10
19.9142
 20
24.9865
 30
0.0
 10
19.9142
 20
24.9865
 30
0.0
 10
19.8339
 20
25.3924
 30
0.0
 10
19.8339
 20
25.3924
 30
0.0
 10
19.8339
 20
25.3924
 30
0.0
 10
19.9473
 20
25.4155
 30
0.0
 10
20.0555
 20
25.4558
 30
0.0
 10
20.1569
 20
25.5136
 30
0.0
 10
20.1569
 20
25.5136
 30
0.0
 10
20.2589
 20
25.5719
 30
0.0
 10
20.3514
 20
25.6458
 30
0.0
 10
20.4346
 20
25.7363
 30
0.0
 10
20.4346
 20
25.7363
 30
0.0
 10
20.5199
 20
25.8292
 30
0.0
 10
20.5888
 20
25.9319
 30
0.0
 10
20.6409
 20
26.043
 30
0.0
 10
20.6409
 20
26.043
 30
0.0
 10
20.6929
 20
26.1541
 30
0.0
 10
20.726
 20
26.2713
 30
0.0
 10
20.7391
 20
26.3945
 30
0.0
 10
20.7391
 20
26.3945
 30
0.0
 10
20.7531
 20
26.5178
 30
0.0
 10
20.7446
 20
26.6443
 30
0.0
 10
20.7144
 20
26.7739
 30
0.0
 10
20.7144
 20
26.7739
 30
0.0
 10
20.6838
 20
26.9031
 30
0.0
 10
20.6289
 20
27.0326
 30
0.0
 10
20.5492
 20
27.1629
 30
0.0
 10
20.5492
 20
27.1629
 30
0.0
 10
20.4696
 20
27.2923
 30
0.0
 10
20.3631
 20
27.4191
 30
0.0
 10
20.2293
 20
27.543
 30
0.0
 10
20.2293
 20
27.543
 30
0.0
 10
20.1345
 20
27.6301
 30
0.0
 10
20.0358
 20
27.7033
 30
0.0
 10
19.932
 20
27.7625
 30
0.0
 10
19.932
 20
27.7625
 30
0.0
 10
19.8284
 20
27.8227
 30
0.0
 10
19.7226
 20
27.8681
 30
0.0
 10
19.6151
 20
27.8993
 30
0.0
 10
19.6151
 20
27.8993
 30
0.0
 10
19.5071
 20
27.93
 30
0.0
 10
19.3998
 20
27.9451
 30
0.0
 10
19.2922
 20
27.9457
 30
0.0
 10
19.2922
 20
27.9457
 30
0.0
 10
19.2922
 20
27.9457
 30
0.0
 10
19.2094
 20
28.3486
 30
0.0
 10
19.2094
 20
28.3486
 30
0.0
 10
19.2094
 20
28.3486
 30
0.0
 10
19.2094
 20
28.3486
 30
0.0
 10
18.9673
 20
28.2917
 30
0.0
 10
18.9673
 20
28.2917
 30
0.0
 10
18.9673
 20
28.2917
 30
0.0
 10
18.9673
 20
28.2917
 30
0.0
 10
19.0438
 20
27.9105
 30
0.0
 10
19.0438
 20
27.9105
 30
0.0
 10
19.0438
 20
27.9105
 30
0.0
 10
18.929
 20
27.8887
 30
0.0
 10
18.8216
 20
27.8493
 30
0.0
 10
18.7216
 20
27.792
 30
0.0
 10
18.7216
 20
27.792
 30
0.0
 10
18.621
 20
27.7343
 30
0.0
 10
18.5303
 20
27.6613
 30
0.0
 10
18.4484
 20
27.5722
 30
0.0
 10
18.4484
 20
27.5722
 30
0.0
 10
18.332
 20
27.4447
 30
0.0
 10
18.2482
 20
27.3056
 30
0.0
 10
18.1959
 20
27.1542
 30
0.0
 10
18.1959
 20
27.1542
 30
0.0
 10
18.1442
 20
27.0033
 30
0.0
 10
18.1261
 20
26.8469
 30
0.0
 10
18.1407
 20
26.6859
 30
0.0
 10
18.1407
 20
26.6859
 30
0.0
 10
18.1548
 20
26.5245
 30
0.0
 10
18.2036
 20
26.3654
 30
0.0
 10
18.2858
 20
26.2073
 30
0.0
 10
18.2858
 20
26.2073
 30
0.0
 10
18.3684
 20
26.0497
 30
0.0
 10
18.485
 20
25.9003
 30
0.0
 10
18.6374
 20
25.7594
 30
0.0
 10
18.6374
 20
25.7594
 30
0.0
 10
18.7337
 20
25.6709
 30
0.0
 10
18.8352
 20
25.5969
 30
0.0
 10
18.9402
 20
25.5373
 30
0.0
 10
18.9402
 20
25.5373
 30
0.0
 10
19.0453
 20
25.4777
 30
0.0
 10
19.1524
 20
25.4328
 30
0.0
 10
19.2608
 20
25.4026
 30
0.0
 10
19.2608
 20
25.4026
 30
0.0
 10
19.3696
 20
25.3728
 30
0.0
 10
19.4778
 20
25.3577
 30
0.0
 10
19.5854
 20
25.3572
 30
0.0
 10
19.5854
 20
25.3572
 30
0.0
 10
19.5854
 20
25.3572
 30
0.0
 10
19.6712
 20
24.9517
 30
0.0
 10
19.6712
 20
24.9517
 30
0.0
 10
19.6712
 20
24.9517
 30
0.0
 10
19.6712
 20
24.9517
 30
0.0
 10
19.9142
 20
24.9865
 30
0.0
 10
19.9142
 20
24.9865
 30
0.0
  0
SPLINE
  5
4B
330
1F
100
AcDbEntity
  8
Standard layer
 62
   250
100
AcDbSpline
210
0.0
220
0.0
230
1.0
 70
    11
 71
     3
 72
    52
 73
    48
 74
     0
 42
0.0000000001
 43
0.0000000001
 40
0.0
 40
0.0
 40
0.0
 40
0.0
 40
0.0769230769230769
 40
0.0769230769230769
 40
0.0769230769230769
 40
0.0769230769230769
 40
0.1538461538461539
 40
0.1538461538461539
 40
0.1538461538461539
 40
0.1538461538461539
 40
0.2307692307692308
 40
0.2307692307692308
 40
0.2307692307692308
 40
0.2307692307692308
 40
0.3076923076923077
 40
0.3076923076923077
 40
0.3076923076923077
 40
0.3076923076923077
 40
0.3846153846153846
 40
0.3846153846153846
 40
0.3846153846153846
 40
0.3846153846153846
 40
0.4615384615384616
 40
0.4615384615384616
 40
0.4615384615384616
 40
0.4615384615384616
 40
0.5384615384615384
 40
0.5384615384615384
 40
0.5384615384615384
 40
0.5384615384615384
 40
0.6153846153846154
 40
0.6153846153846154
 40
0.6153846153846154
 40
0.6153846153846154
 40
0.6923076923076923
 40
0.6923076923076923
 40
0.6923076923076923
 40
0.6923076923076923
 40
0.7692307692307693
 40
0.7692307692307693
 40
0.7692307692307693
 40
0.7692307692307693
 40
0.8461538461538461
 40
0.8461538461538461
 40
0.8461538461538461
 40
0.8461538461538461
 40
1.0
 40
1.0
 40
1.0
 40
1.0
 10
19.508
 20
25.6972
 30
0.0
 10
19.508
 20
25.6972
 30
0.0
 10
19.5056
 20
25.6888
 30
0.0
 10
19.5056
 20
25.6888
 30
0.0
 10
19.5056
 20
25.6888
 30
0.0
 10
19.4302
 20
25.7054
 30
0.0
 10
19.3565
 20
25.7275
 30
0.0
 10
19.2849
 20
25.7546
 30
0.0
 10
19.2849
 20
25.7546
 30
0.0
 10
19.2128
 20
25.7823
 30
0.0
 10
19.1422
 20
25.8173
 30
0.0
 10
19.0717
 20
25.8609
 30
0.0
 10
19.0717
 20
25.8609
 30
0.0
 10
19.0016
 20
25.9043
 30
0.0
 10
18.9307
 20
25.9589
 30
0.0
 10
18.8598
 20
26.0242
 30
0.0
 10
18.8598
 20
26.0242
 30
0.0
 10
18.7778
 20
26.0995
 30
0.0
 10
18.7067
 20
26.1806
 30
0.0
 10
18.6444
 20
26.2686
 30
0.0
 10
18.6444
 20
26.2686
 30
0.0
 10
18.583
 20
26.3567
 30
0.0
 10
18.5338
 20
26.4484
 30
0.0
 10
18.4977
 20
26.5431
 30
0.0
 10
18.4977
 20
26.5431
 30
0.0
 10
18.4617
 20
26.6385
 30
0.0
 10
18.4412
 20
26.7347
 30
0.0
 10
18.4371
 20
26.8316
 30
0.0
 10
18.4371
 20
26.8316
 30
0.0
 10
18.4325
 20
26.9289
 30
0.0
 10
18.4468
 20
27.0238
 30
0.0
 10
18.4795
 20
27.1167
 30
0.0
 10
18.4795
 20
27.1167
 30
0.0
 10
18.5122
 20
27.2105
 30
0.0
 10
18.5671
 20
27.2989
 30
0.0
 10
18.6431
 20
27.3827
 30
0.0
 10
18.6431
 20
27.3827
 30
0.0
 10
18.7106
 20
27.4551
 30
0.0
 10
18.7837
 20
27.5109
 30
0.0
 10
18.8627
 20
27.549
 30
0.0
 10
18.8627
 20
27.549
 30
0.0
 10
18.9416
 20
27.588
 30
0.0
 10
19.0244
 20
27.6121
 30
0.0
 10
19.1109
 20
27.6222
 30
0.0
 10
19.1109
 20
27.6222
 30
0.0
 10
19.1109
 20
27.6222
 30
0.0
 10
19.508
 20
25.6972
 30
0.0
 10
19.508
 20
25.6972
 30
0.0
  0
SPLINE
  5
4C
330
1F
100
AcDbEntity
  8
Standard layer
 62
   250
100
AcDbSpline
210
0.0
220
0.0
230
1.0
 70
    11
 71
     3
 72
    48
 73
    44
 74
     0
 42
0.0000000001
 43
0.0000000001
 40
0.0
 40
0.0
 40
0.0
 40
0.0
 40
0.0833333333333333
 40
0.0833333333333333
 40
0.0833333333333333
 40
0.0833333333333333
 40
0.1666666666666667
 40
0.1666666666666667
 40
0.1666666666666667
 40
0.1666666666666667
 40
0.25
 40
0.25
 40
0.25
 40
0.25
 40
0.3333333333333333
 40
0.3333333333333333
 40
0.3333333333333333
 40
0.3333333333333333
 40
0.4166666666666667
 40
0.4166666666666667
 40
0.4166666666666667
 40
0.4166666666666667
 40
0.5
 40
0.5
 40
0.5
 40
0.5
 40
0.5833333333333334
 40
0.5833333333333334
 40
0.5833333333333334
 40
0.5833333333333334
 40
0.6666666666666666
 40
0.6666666666666666
 40
0.6666666666666666
 40
0.6666666666666666
 40
0.75
 40
0.75
 40
0.75
 40
0.75
 40
0.8333333333333334
 40
0.8333333333333334
 40
0.8333333333333334
 40
0.8333333333333334
 40
1.0
 40
1.0
 40
1.0
 40
1.0
 10
19.37
 20
27.6001
 30
0.0
 10
19.37
 20
27.6001
 30
0.0
 10
19.3779
 20
27.6086
 30
0.0
 10
19.3779
 20
27.6086
 30
0.0
 10
19.3779
 20
27.6086
 30
0.0
 10
19.5062
 20
27.5821
 30
0.0
 10
19.622
 20
27.5398
 30
0.0
 10
19.7255
 20
27.4824
 30
0.0
 10
19.7255
 20
27.4824
 30
0.0
 10
19.8286
 20
27.4254
 30
0.0
 10
19.9216
 20
27.3584
 30
0.0
 10
20.0041
 20
27.2808
 30
0.0
 10
20.0041
 20
27.2808
 30
0.0
 10
20.0908
 20
27.2012
 30
0.0
 10
20.1653
 20
27.1159
 30
0.0
 10
20.2287
 20
27.0253
 30
0.0
 10
20.2287
 20
27.0253
 30
0.0
 10
20.292
 20
26.9346
 30
0.0
 10
20.3413
 20
26.841
 30
0.0
 10
20.3769
 20
26.745
 30
0.0
 10
20.3769
 20
26.745
 30
0.0
 10
20.4121
 20
26.6485
 30
0.0
 10
20.4317
 20
26.5524
 30
0.0
 10
20.4349
 20
26.4563
 30
0.0
 10
20.4349
 20
26.4563
 30
0.0
 10
20.438
 20
26.3594
 30
0.0
 10
20.4237
 20
26.2655
 30
0.0
 10
20.3909
 20
26.1744
 30
0.0
 10
20.3909
 20
26.1744
 30
0.0
 10
20.3581
 20
26.0833
 30
0.0
 10
20.3049
 20
25.9977
 30
0.0
 10
20.232
 20
25.9172
 30
0.0
 10
20.232
 20
25.9172
 30
0.0
 10
20.1607
 20
25.8396
 30
0.0
 10
20.0861
 20
25.7825
 30
0.0
 10
20.0098
 20
25.7463
 30
0.0
 10
20.0098
 20
25.7463
 30
0.0
 10
19.9331
 20
25.7096
 30
0.0
 10
19.8511
 20
25.6893
 30
0.0
 10
19.7639
 20
25.6833
 30
0.0
 10
19.7639
 20
25.6833
 30
0.0
 10
19.7639
 20
25.6833
 30
0.0
 10
19.37
 20
27.6001
 30
0.0
 10
19.37
 20
27.6001
 30
0.0
  0
SPLINE
  5
4D
330
1F
100
AcDbEntity
  8
Standard layer
 62
   250
100
AcDbSpline
210
0.0
220
0.0
230
1.0
 70
    11
 71
     3
 72
    48
 73
    44
 74
     0
 42
0.0000000001
 43
0.0000000001
 40
0.0
 40
0.0
 40
0.0
 40
0.0
 40
0.0833333333333333
 40
0.0833333333333333
 40
0.0833333333333333
 40
0.0833333333333333
 40
0.1666666666666667
 40
0.1666666666666667
 40
0.1666666666666667
 40
0.1666666666666667
 40
0.25
 40
0.25
 40
0.25
 40
0.25
 40
0.3333333333333333
 40
0.3333333333333333
 40
0.3333333333333333
 40
0.3333333333333333
 40
0.4166666666666667
 40
0.4166666666666667
 40
0.4166666666666667
 40
0.4166666666666667
 40
0.5
 40
0.5
 40
0.5
 40
0.5
 40
0.5833333333333334
 40
0.5833333333333334
 40
0.5833333333333334
 40
0.5833333333333334
 40
0.6666666666666666
 40
0.6666666666666666
 40
0.6666666666666666
 40
0.6666666666666666
 40
0.75
 40
0.75
 40
0.75
 40
0.75
 40
0.8333333333333334
 40
0.8333333333333334
 40
0.8333333333333334
 40
0.8333333333333334
 40
1.0
 40
1.0
 40
1.0
 40
1.0
 10
22.3568
 20
27.8909
 30
0.0
 10
22.3568
 20
27.8909
 30
0.0
 10
21.8482
 20
28.3583
 30
0.0
 10
21.8482
 20
28.3583
 30
0.0
 10
21.8482
 20
28.3583
 30
0.0
 10
21.8482
 20
28.3583
 30
0.0
 10
22.0872
 20
28.6183
 30
0.0
 10
22.0872
 20
28.6183
 30
0.0
 10
22.0872
 20
28.6183
 30
0.0
 10
22.0872
 20
28.6183
 30
0.0
 10
21.8929
 20
28.7969
 30
0.0
 10
21.8929
 20
28.7969
 30
0.0
 10
21.8929
 20
28.7969
 30
0.0
 10
21.8929
 20
28.7969
 30
0.0
 10
21.6539
 20
28.5369
 30
0.0
 10
21.6539
 20
28.5369
 30
0.0
 10
21.6539
 20
28.5369
 30
0.0
 10
21.6539
 20
28.5369
 30
0.0
 10
20.4997
 20
29.5977
 30
0.0
 10
20.4997
 20
29.5977
 30
0.0
 10
20.4997
 20
29.5977
 30
0.0
 10
20.4997
 20
29.5977
 30
0.0
 10
20.2502
 20
29.3263
 30
0.0
 10
20.2502
 20
29.3263
 30
0.0
 10
20.2502
 20
29.3263
 30
0.0
 10
20.2502
 20
29.3263
 30
0.0
 10
20.6744
 20
27.408
 30
0.0
 10
20.6744
 20
27.408
 30
0.0
 10
20.6744
 20
27.408
 30
0.0
 10
20.6744
 20
27.408
 30
0.0
 10
20.8373
 20
27.2583
 30
0.0
 10
20.8373
 20
27.2583
 30
0.0
 10
20.8373
 20
27.2583
 30
0.0
 10
20.8373
 20
27.2583
 30
0.0
 10
21.6303
 20
28.1211
 30
0.0
 10
21.6303
 20
28.1211
 30
0.0
 10
21.6303
 20
28.1211
 30
0.0
 10
21.6303
 20
28.1211
 30
0.0
 10
22.1388
 20
27.6538
 30
0.0
 10
22.1388
 20
27.6538
 30
0.0
 10
22.1388
 20
27.6538
 30
0.0
 10
22.1388
 20
27.6538
 30
0.0
 10
22.3568
 20
27.8909
 30
0.0
 10
22.3568
 20
27.8909
 30
0.0
  0
SPLINE
  5
4E
330
1F
100
AcDbEntity
  8
Standard layer
 62
   250
100
AcDbSpline
210
0.0
220
0.0
230
1.0
 70
    11
 71
     3
 72
    36
 73
    32
 74
     0
 42
0.0000000001
 43
0.0000000001
 40
0.0
 40
0.0
 40
0.0
 40
0.0
 40
0.1111111111111111
 40
0.1111111111111111
 40
0.1111111111111111
 40
0.1111111111111111
 40
0.2222222222222222
 40
0.2222222222222222
 40
0.2222222222222222
 40
0.2222222222222222
 40
0.3333333333333333
 40
0.3333333333333333
 40
0.3333333333333333
 40
0.3333333333333333
 40
0.4444444444444444
 40
0.4444444444444444
 40
0.4444444444444444
 40
0.4444444444444444
 40
0.5555555555555556
 40
0.5555555555555556
 40
0.5555555555555556
 40
0.5555555555555556
 40
0.6666666666666666
 40
0.6666666666666666
 40
0.6666666666666666
 40
0.6666666666666666
 40
0.7777777777777778
 40
0.7777777777777778
 40
0.7777777777777778
 40
0.7777777777777778
 40
1.0
 40
1.0
 40
1.0
 40
1.0
 10
20.8767
 20
27.6912
 30
0.0
 10
20.8767
 20
27.6912
 30
0.0
 10
20.871
 20
27.6965
 30
0.0
 10
20.871
 20
27.6965
 30
0.0
 10
20.871
 20
27.6965
 30
0.0
 10
20.871
 20
27.6965
 30
0.0
 10
20.657
 20
28.7311
 30
0.0
 10
20.657
 20
28.7311
 30
0.0
 10
20.657
 20
28.7311
 30
0.0
 10
20.6378
 20
28.7952
 30
0.0
 10
20.6182
 20
28.8598
 30
0.0
 10
20.5976
 20
28.9245
 30
0.0
 10
20.5976
 20
28.9245
 30
0.0
 10
20.5761
 20
28.989
 30
0.0
 10
20.5521
 20
29.0603
 30
0.0
 10
20.5245
 20
29.1374
 30
0.0
 10
20.5245
 20
29.1374
 30
0.0
 10
20.5245
 20
29.1374
 30
0.0
 10
20.5325
 20
29.146
 30
0.0
 10
20.5325
 20
29.146
 30
0.0
 10
20.5325
 20
29.146
 30
0.0
 10
20.6244
 20
29.0509
 30
0.0
 10
20.7188
 20
28.9588
 30
0.0
 10
20.816
 20
28.8696
 30
0.0
 10
20.816
 20
28.8696
 30
0.0
 10
20.816
 20
28.8696
 30
0.0
 10
21.436
 20
28.2997
 30
0.0
 10
21.436
 20
28.2997
 30
0.0
 10
21.436
 20
28.2997
 30
0.0
 10
21.436
 20
28.2997
 30
0.0
 10
20.8767
 20
27.6912
 30
0.0
 10
20.8767
 20
27.6912
 30
0.0
  0
SPLINE
  5
4F
330
1F
100
AcDbEntity
  8
Standard layer
 62
   250
100
AcDbSpline
210
0.0
220
0.0
230
1.0
 70
    11
 71
     3
 72
   124
 73
   120
 74
     0
 42
0.0000000001
 43
0.0000000001
 40
0.0
 40
0.0
 40
0.0
 40
0.0
 40
0.032258064516129
 40
0.032258064516129
 40
0.032258064516129
 40
0.032258064516129
 40
0.0645161290322581
 40
0.0645161290322581
 40
0.0645161290322581
 40
0.0645161290322581
 40
0.0967741935483871
 40
0.0967741935483871
 40
0.0967741935483871
 40
0.0967741935483871
 40
0.1290322580645161
 40
0.1290322580645161
 40
0.1290322580645161
 40
0.1290322580645161
 40
0.1612903225806452
 40
0.1612903225806452
 40
0.1612903225806452
 40
0.1612903225806452
 40
0.1935483870967742
 40
0.1935483870967742
 40
0.1935483870967742
 40
0.1935483870967742
 40
0.2258064516129032
 40
0.2258064516129032
 40
0.2258064516129032
 40
0.2258064516129032
 40
0.2580645161290323
 40
0.2580645161290323
 40
0.2580645161290323
 40
0.2580645161290323
 40
0.2903225806451613
 40
0.2903225806451613
 40
0.2903225806451613
 40
0.2903225806451613
 40
0.3225806451612903
 40
0.3225806451612903
 40
0.3225806451612903
 40
0.3225806451612903
 40
0.3548387096774194
 40
0.3548387096774194
 40
0.3548387096774194
 40
0.3548387096774194
 40
0.3870967741935484
 40
0.3870967741935484
 40
0.3870967741935484
 40
0.3870967741935484
 40
0.4193548387096774
 40
0.4193548387096774
 40
0.4193548387096774
 40
0.4193548387096774
 40
0.4516129032258064
 40
0.4516129032258064
 40
0.4516129032258064
 40
0.4516129032258064
 40
0.4838709677419355
 40
0.4838709677419355
 40
0.4838709677419355
 40
0.4838709677419355
 40
0.5161290322580645
 40
0.5161290322580645
 40
0.5161290322580645
 40
0.5161290322580645
 40
0.5483870967741935
 40
0.5483870967741935
 40
0.5483870967741935
 40
0.5483870967741935
 40
0.5806451612903226
 40
0.5806451612903226
 40
0.5806451612903226
 40
0.5806451612903226
 40
0.6129032258064516
 40
0.6129032258064516
 40
0.6129032258064516
 40
0.6129032258064516
 40
0.6451612903225806
 40
0.6451612903225806
 40
0.6451612903225806
 40
0.6451612903225806
 40
0.6774193548387096
 40
0.6774193548387096
 40
0.6774193548387096
 40
0.6774193548387096
 40
0.7096774193548387
 40
0.7096774193548387
 40
0.7096774193548387
 40
0.7096774193548387
 40
0.7419354838709677
 40
0.7419354838709677
 40
0.7419354838709677
 40
0.7419354838709677
 40
0.7741935483870968
 40
0.7741935483870968
 40
0.7741935483870968
 40
0.7741935483870968
 40
0.8064516129032258
 40
0.8064516129032258
 40
0.8064516129032258
 40
0.8064516129032258
 40
0.8387096774193549
 40
0.8387096774193549
 40
0.8387096774193549
 40
0.8387096774193549
 40
0.8709677419354839
 40
0.8709677419354839
 40
0.8709677419354839
 40
0.8709677419354839
 40
0.9032258064516129
 40
0.9032258064516129
 40
0.9032258064516129
 40
0.9032258064516129
 40
0.9354838709677419
 40
0.9354838709677419
 40
0.9354838709677419
 40
0.9354838709677419
 40
1.0
 40
1.0
 40
1.0
 40
1.0
 10
23.8614
 20
29.528
 30
0.0
 10
23.8614
 20
29.528
 30
0.0
 10
23.6528
 20
29.7197
 30
0.0
 10
23.6528
 20
29.7197
 30
0.0
 10
23.6528
 20
29.7197
 30
0.0
 10
23.6528
 20
29.7197
 30
0.0
 10
22.8887
 20
28.8883
 30
0.0
 10
22.8887
 20
28.8883
 30
0.0
 10
22.8887
 20
28.8883
 30
0.0
 10
22.8887
 20
28.8883
 30
0.0
 10
22.883
 20
28.8935
 30
0.0
 10
22.883
 20
28.8935
 30
0.0
 10
22.883
 20
28.8935
 30
0.0
 10
22.883
 20
28.8935
 30
0.0
 10
22.8798
 20
29.1653
 30
0.0
 10
22.8798
 20
29.1653
 30
0.0
 10
22.8798
 20
29.1653
 30
0.0
 10
22.8761
 20
29.3496
 30
0.0
 10
22.8684
 20
29.5201
 30
0.0
 10
22.8568
 20
29.6756
 30
0.0
 10
22.8568
 20
29.6756
 30
0.0
 10
22.8453
 20
29.8313
 30
0.0
 10
22.8251
 20
29.9737
 30
0.0
 10
22.7972
 20
30.102
 30
0.0
 10
22.7972
 20
30.102
 30
0.0
 10
22.7698
 20
30.2308
 30
0.0
 10
22.7292
 20
30.3463
 30
0.0
 10
22.6768
 20
30.4498
 30
0.0
 10
22.6768
 20
30.4498
 30
0.0
 10
22.6244
 20
30.5524
 30
0.0
 10
22.5556
 20
30.6429
 30
0.0
 10
22.4708
 20
30.7217
 30
0.0
 10
22.4708
 20
30.7217
 30
0.0
 10
22.4036
 20
30.7834
 30
0.0
 10
22.3284
 20
30.8333
 30
0.0
 10
22.2444
 20
30.8701
 30
0.0
 10
22.2444
 20
30.8701
 30
0.0
 10
22.1604
 20
30.9069
 30
0.0
 10
22.0713
 20
30.9255
 30
0.0
 10
21.9779
 20
30.9271
 30
0.0
 10
21.9779
 20
30.9271
 30
0.0
 10
21.884
 20
30.9291
 30
0.0
 10
21.7888
 20
30.9077
 30
0.0
 10
21.6922
 20
30.8638
 30
0.0
 10
21.6922
 20
30.8638
 30
0.0
 10
21.5952
 20
30.8203
 30
0.0
 10
21.5006
 20
30.749
 30
0.0
 10
21.4083
 20
30.6494
 30
0.0
 10
21.4083
 20
30.6494
 30
0.0
 10
21.344
 20
30.5786
 30
0.0
 10
21.2903
 20
30.504
 30
0.0
 10
21.2484
 20
30.4248
 30
0.0
 10
21.2484
 20
30.4248
 30
0.0
 10
21.2064
 20
30.3457
 30
0.0
 10
21.1745
 20
30.2661
 30
0.0
 10
21.1532
 20
30.1856
 30
0.0
 10
21.1532
 20
30.1856
 30
0.0
 10
21.1319
 20
30.1059
 30
0.0
 10
21.1196
 20
30.0285
 30
0.0
 10
21.1163
 20
29.9533
 30
0.0
 10
21.1163
 20
29.9533
 30
0.0
 10
21.1163
 20
29.9533
 30
0.0
 10
21.367
 20
29.8705
 30
0.0
 10
21.367
 20
29.8705
 30
0.0
 10
21.367
 20
29.8705
 30
0.0
 10
21.369
 20
29.9214
 30
0.0
 10
21.3762
 20
29.978
 30
0.0
 10
21.3891
 20
30.0398
 30
0.0
 10
21.3891
 20
30.0398
 30
0.0
 10
21.4016
 20
30.1022
 30
0.0
 10
21.4228
 20
30.1644
 30
0.0
 10
21.4517
 20
30.2283
 30
0.0
 10
21.4517
 20
30.2283
 30
0.0
 10
21.481
 20
30.2918
 30
0.0
 10
21.521
 20
30.3526
 30
0.0
 10
21.5723
 20
30.4092
 30
0.0
 10
21.5723
 20
30.4092
 30
0.0
 10
21.6361
 20
30.4778
 30
0.0
 10
21.6995
 20
30.5267
 30
0.0
 10
21.7624
 20
30.556
 30
0.0
 10
21.7624
 20
30.556
 30
0.0
 10
21.8253
 20
30.5842
 30
0.0
 10
21.8865
 20
30.5973
 30
0.0
 10
21.9461
 20
30.5943
 30
0.0
 10
21.9461
 20
30.5943
 30
0.0
 10
22.0063
 20
30.5909
 30
0.0
 10
22.0637
 20
30.5759
 30
0.0
 10
22.1184
 20
30.5485
 30
0.0
 10
22.1184
 20
30.5485
 30
0.0
 10
22.1731
 20
30.521
 30
0.0
 10
22.224
 20
30.4857
 30
0.0
 10
22.2712
 20
30.4415
 30
0.0
 10
22.2712
 20
30.4415
 30
0.0
 10
22.3407
 20
30.3776
 30
0.0
 10
22.3965
 20
30.3007
 30
0.0
 10
22.4393
 20
30.2105
 30
0.0
 10
22.4393
 20
30.2105
 30
0.0
 10
22.4825
 20
30.1199
 30
0.0
 10
22.5154
 20
30.0123
 30
0.0
 10
22.5386
 20
29.8865
 30
0.0
 10
22.5386
 20
29.8865
 30
0.0
 10
22.5616
 20
29.7607
 30
0.0
 10
22.578
 20
29.6131
 30
0.0
 10
22.5874
 20
29.4437
 30
0.0
 10
22.5874
 20
29.4437
 30
0.0
 10
22.5973
 20
29.2747
 30
0.0
 10
22.6037
 20
29.0791
 30
0.0
 10
22.6072
 20
28.8572
 30
0.0
 10
22.6072
 20
28.8572
 30
0.0
 10
22.6072
 20
28.8572
 30
0.0
 10
22.6174
 20
28.4841
 30
0.0
 10
22.6174
 20
28.4841
 30
0.0
 10
22.6174
 20
28.4841
 30
0.0
 10
22.6174
 20
28.4841
 30
0.0
 10
22.7717
 20
28.3423
 30
0.0
 10
22.7717
 20
28.3423
 30
0.0
 10
22.7717
 20
28.3423
 30
0.0
 10
22.7717
 20
28.3423
 30
0.0
 10
23.8614
 20
29.528
 30
0.0
 10
23.8614
 20
29.528
 30
0.0
  0
SPLINE
  5
50
330
1F
100
AcDbEntity
  8
Standard layer
 62
   250
100
AcDbSpline
210
0.0
220
0.0
230
1.0
 70
    11
 71
     3
 72
   104
 73
   100
 74
     0
 42
0.0000000001
 43
0.0000000001
 40
0.0
 40
0.0
 40
0.0
 40
0.0
 40
0.0384615384615385
 40
0.0384615384615385
 40
0.0384615384615385
 40
0.0384615384615385
 40
0.0769230769230769
 40
0.0769230769230769
 40
0.0769230769230769
 40
0.0769230769230769
 40
0.1153846153846154
 40
0.1153846153846154
 40
0.1153846153846154
 40
0.1153846153846154
 40
0.1538461538461539
 40
0.1538461538461539
 40
0.1538461538461539
 40
0.1538461538461539
 40
0.1923076923076923
 40
0.1923076923076923
 40
0.1923076923076923
 40
0.1923076923076923
 40
0.2307692307692308
 40
0.2307692307692308
 40
0.2307692307692308
 40
0.2307692307692308
 40
0.2692307692307692
 40
0.2692307692307692
 40
0.2692307692307692
 40
0.2692307692307692
 40
0.3076923076923077
 40
0.3076923076923077
 40
0.3076923076923077
 40
0.3076923076923077
 40
0.3461538461538461
 40
0.3461538461538461
 40
0.3461538461538461
 40
0.3461538461538461
 40
0.3846153846153846
 40
0.3846153846153846
 40
0.3846153846153846
 40
0.3846153846153846
 40
0.4230769230769231
 40
0.4230769230769231
 40
0.4230769230769231
 40
0.4230769230769231
 40
0.4615384615384616
 40
0.4615384615384616
 40
0.4615384615384616
 40
0.4615384615384616
 40
0.5
 40
0.5
 40
0.5
 40
0.5
 40
0.5384615384615384
 40
0.5384615384615384
 40
0.5384615384615384
 40
0.5384615384615384
 40
0.5769230769230769
 40
0.5769230769230769
 40
0.5769230769230769
 40
0.5769230769230769
 40
0.6153846153846154
 40
0.6153846153846154
 40
0.6153846153846154
 40
0.6153846153846154
 40
0.6538461538461539
 40
0.6538461538461539
 40
0.6538461538461539
 40
0.6538461538461539
 40
0.6923076923076923
 40
0.6923076923076923
 40
0.6923076923076923
 40
0.6923076923076923
 40
0.7307692307692307
 40
0.7307692307692307
 40
0.7307692307692307
 40
0.7307692307692307
 40
0.7692307692307693
 40
0.7692307692307693
 40
0.7692307692307693
 40
0.7692307692307693
 40
0.8076923076923077
 40
0.8076923076923077
 40
0.8076923076923077
 40
0.8076923076923077
 40
0.8461538461538461
 40
0.8461538461538461
 40
0.8461538461538461
 40
0.8461538461538461
 40
0.8846153846153846
 40
0.8846153846153846
 40
0.8846153846153846
 40
0.8846153846153846
 40
0.9230769230769231
 40
0.9230769230769231
 40
0.9230769230769231
 40
0.9230769230769231
 40
1.0
 40
1.0
 40
1.0
 40
1.0
 10
10.5214
 20
29.3522
 30
0.0
 10
10.5214
 20
29.3522
 30
0.0
 10
10.4411
 20
29.7581
 30
0.0
 10
10.4411
 20
29.7581
 30
0.0
 10
10.4411
 20
29.7581
 30
0.0
 10
10.5545
 20
29.7812
 30
0.0
 10
10.6627
 20
29.8215
 30
0.0
 10
10.7641
 20
29.8793
 30
0.0
 10
10.7641
 20
29.8793
 30
0.0
 10
10.8661
 20
29.9376
 30
0.0
 10
10.9586
 20
30.0115
 30
0.0
 10
11.0418
 20
30.102
 30
0.0
 10
11.0418
 20
30.102
 30
0.0
 10
11.1271
 20
30.1949
 30
0.0
 10
11.196
 20
30.2976
 30
0.0
 10
11.2481
 20
30.4087
 30
0.0
 10
11.2481
 20
30.4087
 30
0.0
 10
11.3001
 20
30.5198
 30
0.0
 10
11.3332
 20
30.637
 30
0.0
 10
11.3463
 20
30.7602
 30
0.0
 10
11.3463
 20
30.7602
 30
0.0
 10
11.3603
 20
30.8835
 30
0.0
 10
11.3518
 20
31.01
 30
0.0
 10
11.3216
 20
31.1396
 30
0.0
 10
11.3216
 20
31.1396
 30
0.0
 10
11.291
 20
31.2688
 30
0.0
 10
11.2361
 20
31.3983
 30
0.0
 10
11.1564
 20
31.5286
 30
0.0
 10
11.1564
 20
31.5286
 30
0.0
 10
11.0768
 20
31.658
 30
0.0
 10
10.9703
 20
31.7848
 30
0.0
 10
10.8365
 20
31.9087
 30
0.0
 10
10.8365
 20
31.9087
 30
0.0
 10
10.7417
 20
31.9958
 30
0.0
 10
10.643
 20
32.069
 30
0.0
 10
10.5392
 20
32.1282
 30
0.0
 10
10.5392
 20
32.1282
 30
0.0
 10
10.4356
 20
32.1884
 30
0.0
 10
10.3298
 20
32.2338
 30
0.0
 10
10.2223
 20
32.265
 30
0.0
 10
10.2223
 20
32.265
 30
0.0
 10
10.1143
 20
32.2957
 30
0.0
 10
10.007
 20
32.3108
 30
0.0
 10
9.8994
 20
32.3114
 30
0.0
 10
9.8994
 20
32.3114
 30
0.0
 10
9.8994
 20
32.3114
 30
0.0
 10
9.8166
 20
32.7143
 30
0.0
 10
9.8166
 20
32.7143
 30
0.0
 10
9.8166
 20
32.7143
 30
0.0
 10
9.8166
 20
32.7143
 30
0.0
 10
9.5745
 20
32.6574
 30
0.0
 10
9.5745
 20
32.6574
 30
0.0
 10
9.5745
 20
32.6574
 30
0.0
 10
9.5745
 20
32.6574
 30
0.0
 10
9.651
 20
32.2762
 30
0.0
 10
9.651
 20
32.2762
 30
0.0
 10
9.651
 20
32.2762
 30
0.0
 10
9.5362
 20
32.2544
 30
0.0
 10
9.4288
 20
32.215
 30
0.0
 10
9.3288
 20
32.1577
 30
0.0
 10
9.3288
 20
32.1577
 30
0.0
 10
9.2282
 20
32.1
 30
0.0
 10
9.1375
 20
32.027
 30
0.0
 10
9.0556
 20
31.9379
 30
0.0
 10
9.0556
 20
31.9379
 30
0.0
 10
8.9392
 20
31.8104
 30
0.0
 10
8.8554
 20
31.6713
 30
0.0
 10
8.8031
 20
31.5199
 30
0.0
 10
8.8031
 20
31.5199
 30
0.0
 10
8.7514
 20
31.369
 30
0.0
 10
8.7333
 20
31.2126
 30
0.0
 10
8.7479
 20
31.0516
 30
0.0
 10
8.7479
 20
31.0516
 30
0.0
 10
8.762
 20
30.8902
 30
0.0
 10
8.8108
 20
30.7311
 30
0.0
 10
8.893
 20
30.573
 30
0.0
 10
8.893
 20
30.573
 30
0.0
 10
8.9756
 20
30.4154
 30
0.0
 10
9.0922
 20
30.266
 30
0.0
 10
9.2446
 20
30.1251
 30
0.0
 10
9.2446
 20
30.1251
 30
0.0
 10
9.3409
 20
30.0366
 30
0.0
 10
9.4424
 20
29.9626
 30
0.0
 10
9.5474
 20
29.903
 30
0.0
 10
9.5474
 20
29.903
 30
0.0
 10
9.6525
 20
29.8434
 30
0.0
 10
9.7596
 20
29.7985
 30
0.0
 10
9.868
 20
29.7683
 30
0.0
 10
9.868
 20
29.7683
 30
0.0
 10
9.9768
 20
29.7385
 30
0.0
 10
10.085
 20
29.7234
 30
0.0
 10
10.1926
 20
29.7229
 30
0.0
 10
10.1926
 20
29.7229
 30
0.0
 10
10.1926
 20
29.7229
 30
0.0
 10
10.2784
 20
29.3174
 30
0.0
 10
10.2784
 20
29.3174
 30
0.0
 10
10.2784
 20
29.3174
 30
0.0
 10
10.2784
 20
29.3174
 30
0.0
 10
10.5214
 20
29.3522
 30
0.0
 10
10.5214
 20
29.3522
 30
0.0
  0
SPLINE
  5
51
330
1F
100
AcDbEntity
  8
Standard layer
 62
   250
100
AcDbSpline
210
0.0
220
0.0
230
1.0
 70
    11
 71
     3
 72
    52
 73
    48
 74
     0
 42
0.0000000001
 43
0.0000000001
 40
0.0
 40
0.0
 40
0.0
 40
0.0
 40
0.0769230769230769
 40
0.0769230769230769
 40
0.0769230769230769
 40
0.0769230769230769
 40
0.1538461538461539
 40
0.1538461538461539
 40
0.1538461538461539
 40
0.1538461538461539
 40
0.2307692307692308
 40
0.2307692307692308
 40
0.2307692307692308
 40
0.2307692307692308
 40
0.3076923076923077
 40
0.3076923076923077
 40
0.3076923076923077
 40
0.3076923076923077
 40
0.3846153846153846
 40
0.3846153846153846
 40
0.3846153846153846
 40
0.3846153846153846
 40
0.4615384615384616
 40
0.4615384615384616
 40
0.4615384615384616
 40
0.4615384615384616
 40
0.5384615384615384
 40
0.5384615384615384
 40
0.5384615384615384
 40
0.5384615384615384
 40
0.6153846153846154
 40
0.6153846153846154
 40
0.6153846153846154
 40
0.6153846153846154
 40
0.6923076923076923
 40
0.6923076923076923
 40
0.6923076923076923
 40
0.6923076923076923
 40
0.7692307692307693
 40
0.7692307692307693
 40
0.7692307692307693
 40
0.7692307692307693
 40
0.8461538461538461
 40
0.8461538461538461
 40
0.8461538461538461
 40
0.8461538461538461
 40
1.0
 40
1.0
 40
1.0
 40
1.0
 10
10.1152
 20
30.0629
 30
0.0
 10
10.1152
 20
30.0629
 30
0.0
 10
10.1128
 20
30.0545
 30
0.0
 10
10.1128
 20
30.0545
 30
0.0
 10
10.1128
 20
30.0545
 30
0.0
 10
10.0374
 20
30.0711
 30
0.0
 10
9.9637
 20
30.0932
 30
0.0
 10
9.8921
 20
30.1203
 30
0.0
 10
9.8921
 20
30.1203
 30
0.0
 10
9.82
 20
30.148
 30
0.0
 10
9.7494
 20
30.183
 30
0.0
 10
9.6789
 20
30.2266
 30
0.0
 10
9.6789
 20
30.2266
 30
0.0
 10
9.6088
 20
30.27
 30
0.0
 10
9.5379
 20
30.3246
 30
0.0
 10
9.467
 20
30.3899
 30
0.0
 10
9.467
 20
30.3899
 30
0.0
 10
9.385
 20
30.4652
 30
0.0
 10
9.3139
 20
30.5463
 30
0.0
 10
9.2516
 20
30.6343
 30
0.0
 10
9.2516
 20
30.6343
 30
0.0
 10
9.1902
 20
30.7224
 30
0.0
 10
9.141
 20
30.8141
 30
0.0
 10
9.1049
 20
30.9088
 30
0.0
 10
9.1049
 20
30.9088
 30
0.0
 10
9.0689
 20
31.0042
 30
0.0
 10
9.0484
 20
31.1004
 30
0.0
 10
9.0443
 20
31.1973
 30
0.0
 10
9.0443
 20
31.1973
 30
0.0
 10
9.0397
 20
31.2946
 30
0.0
 10
9.054
 20
31.3895
 30
0.0
 10
9.0867
 20
31.4824
 30
0.0
 10
9.0867
 20
31.4824
 30
0.0
 10
9.1194
 20
31.5762
 30
0.0
 10
9.1743
 20
31.6646
 30
0.0
 10
9.2503
 20
31.7484
 30
0.0
 10
9.2503
 20
31.7484
 30
0.0
 10
9.3178
 20
31.8208
 30
0.0
 10
9.3909
 20
31.8766
 30
0.0
 10
9.4699
 20
31.9147
 30
0.0
 10
9.4699
 20
31.9147
 30
0.0
 10
9.5488
 20
31.9537
 30
0.0
 10
9.6316
 20
31.9778
 30
0.0
 10
9.7181
 20
31.9879
 30
0.0
 10
9.7181
 20
31.9879
 30
0.0
 10
9.7181
 20
31.9879
 30
0.0
 10
10.1152
 20
30.0629
 30
0.0
 10
10.1152
 20
30.0629
 30
0.0
  0
SPLINE
  5
52
330
1F
100
AcDbEntity
  8
Standard layer
 62
   250
100
AcDbSpline
210
0.0
220
0.0
230
1.0
 70
    11
 71
     3
 72
    48
 73
    44
 74
     0
 42
0.0000000001
 43
0.0000000001
 40
0.0
 40
0.0
 40
0.0
 40
0.0
 40
0.0833333333333333
 40
0.0833333333333333
 40
0.0833333333333333
 40
0.0833333333333333
 40
0.1666666666666667
 40
0.1666666666666667
 40
0.1666666666666667
 40
0.1666666666666667
 40
0.25
 40
0.25
 40
0.25
 40
0.25
 40
0.3333333333333333
 40
0.3333333333333333
 40
0.3333333333333333
 40
0.3333333333333333
 40
0.4166666666666667
 40
0.4166666666666667
 40
0.4166666666666667
 40
0.4166666666666667
 40
0.5
 40
0.5
 40
0.5
 40
0.5
 40
0.5833333333333334
 40
0.5833333333333334
 40
0.5833333333333334
 40
0.5833333333333334
 40
0.6666666666666666
 40
0.6666666666666666
 40
0.6666666666666666
 40
0.6666666666666666
 40
0.75
 40
0.75
 40
0.75
 40
0.75
 40
0.8333333333333334
 40
0.8333333333333334
 40
0.8333333333333334
 40
0.8333333333333334
 40
1.0
 40
1.0
 40
1.0
 40
1.0
 10
9.9772
 20
31.9658
 30
0.0
 10
9.9772
 20
31.9658
 30
0.0
 10
9.9851
 20
31.9743
 30
0.0
 10
9.9851
 20
31.9743
 30
0.0
 10
9.9851
 20
31.9743
 30
0.0
 10
10.1134
 20
31.9478
 30
0.0
 10
10.2292
 20
31.9055
 30
0.0
 10
10.3327
 20
31.8481
 30
0.0
 10
10.3327
 20
31.8481
 30
0.0
 10
10.4358
 20
31.7911
 30
0.0
 10
10.5288
 20
31.7241
 30
0.0
 10
10.6113
 20
31.6465
 30
0.0
 10
10.6113
 20
31.6465
 30
0.0
 10
10.698
 20
31.5669
 30
0.0
 10
10.7725
 20
31.4816
 30
0.0
 10
10.8359
 20
31.391
 30
0.0
 10
10.8359
 20
31.391
 30
0.0
 10
10.8992
 20
31.3003
 30
0.0
 10
10.9485
 20
31.2067
 30
0.0
 10
10.9841
 20
31.1107
 30
0.0
 10
10.9841
 20
31.1107
 30
0.0
 10
11.0193
 20
31.0142
 30
0.0
 10
11.0389
 20
30.9181
 30
0.0
 10
11.0421
 20
30.822
 30
0.0
 10
11.0421
 20
30.822
 30
0.0
 10
11.0452
 20
30.7251
 30
0.0
 10
11.0309
 20
30.6312
 30
0.0
 10
10.9981
 20
30.5401
 30
0.0
 10
10.9981
 20
30.5401
 30
0.0
 10
10.9653
 20
30.449
 30
0.0
 10
10.9121
 20
30.3634
 30
0.0
 10
10.8392
 20
30.2829
 30
0.0
 10
10.8392
 20
30.2829
 30
0.0
 10
10.7679
 20
30.2053
 30
0.0
 10
10.6933
 20
30.1482
 30
0.0
 10
10.617
 20
30.112
 30
0.0
 10
10.617
 20
30.112
 30
0.0
 10
10.5403
 20
30.0753
 30
0.0
 10
10.4583
 20
30.055
 30
0.0
 10
10.3711
 20
30.049
 30
0.0
 10
10.3711
 20
30.049
 30
0.0
 10
10.3711
 20
30.049
 30
0.0
 10
9.9772
 20
31.9658
 30
0.0
 10
9.9772
 20
31.9658
 30
0.0
  0
SPLINE
  5
53
330
1F
100
AcDbEntity
  8
Standard layer
 62
   250
100
AcDbSpline
210
0.0
220
0.0
230
1.0
 70
    11
 71
     3
 72
    36
 73
    32
 74
     0
 42
0.0000000001
 43
0.0000000001
 40
0.0
 40
0.0
 40
0.0
 40
0.0
 40
0.1111111111111111
 40
0.1111111111111111
 40
0.1111111111111111
 40
0.1111111111111111
 40
0.2222222222222222
 40
0.2222222222222222
 40
0.2222222222222222
 40
0.2222222222222222
 40
0.3333333333333333
 40
0.3333333333333333
 40
0.3333333333333333
 40
0.3333333333333333
 40
0.4444444444444444
 40
0.4444444444444444
 40
0.4444444444444444
 40
0.4444444444444444
 40
0.5555555555555556
 40
0.5555555555555556
 40
0.5555555555555556
 40
0.5555555555555556
 40
0.6666666666666666
 40
0.6666666666666666
 40
0.6666666666666666
 40
0.6666666666666666
 40
0.7777777777777778
 40
0.7777777777777778
 40
0.7777777777777778
 40
0.7777777777777778
 40
1.0
 40
1.0
 40
1.0
 40
1.0
 10
10.2062
 20
32.9834
 30
0.0
 10
10.2062
 20
32.9834
 30
0.0
 10
10.4148
 20
32.7917
 30
0.0
 10
10.4148
 20
32.7917
 30
0.0
 10
10.4148
 20
32.7917
 30
0.0
 10
10.4148
 20
32.7917
 30
0.0
 10
11.2498
 20
33.7003
 30
0.0
 10
11.2498
 20
33.7003
 30
0.0
 10
11.2498
 20
33.7003
 30
0.0
 10
11.2498
 20
33.7003
 30
0.0
 10
11.2555
 20
33.6951
 30
0.0
 10
11.2555
 20
33.6951
 30
0.0
 10
11.2555
 20
33.6951
 30
0.0
 10
11.2555
 20
33.6951
 30
0.0
 10
12.1579
 20
31.3795
 30
0.0
 10
12.1579
 20
31.3795
 30
0.0
 10
12.1579
 20
31.3795
 30
0.0
 10
12.1579
 20
31.3795
 30
0.0
 10
12.3968
 20
31.6395
 30
0.0
 10
12.3968
 20
31.6395
 30
0.0
 10
12.3968
 20
31.6395
 30
0.0
 10
12.3968
 20
31.6395
 30
0.0
 10
11.4485
 20
34.0026
 30
0.0
 10
11.4485
 20
34.0026
 30
0.0
 10
11.4485
 20
34.0026
 30
0.0
 10
11.4485
 20
34.0026
 30
0.0
 10
11.2828
 20
34.1548
 30
0.0
 10
11.2828
 20
34.1548
 30
0.0
 10
11.2828
 20
34.1548
 30
0.0
 10
11.2828
 20
34.1548
 30
0.0
 10
10.2062
 20
32.9834
 30
0.0
 10
10.2062
 20
32.9834
 30
0.0
  0
SPLINE
  5
54
330
1F
100
AcDbEntity
  8
Standard layer
 62
   250
370
     9
100
AcDbSpline
210
0.0
220
0.0
230
1.0
 70
    11
 71
     3
 72
    32
 73
    28
 74
     0
 42
0.0000000001
 43
0.0000000001
 40
0.0
 40
0.0
 40
0.0
 40
0.0
 40
0.125
 40
0.125
 40
0.125
 40
0.125
 40
0.25
 40
0.25
 40
0.25
 40
0.25
 40
0.375
 40
0.375
 40
0.375
 40
0.375
 40
0.5
 40
0.5
 40
0.5
 40
0.5
 40
0.625
 40
0.625
 40
0.625
 40
0.625
 40
0.75
 40
0.75
 40
0.75
 40
0.75
 40
1.0
 40
1.0
 40
1.0
 40
1.0
 10
-26.6967
 20
-20.2567
 30
0.0
 10
-26.6967
 20
-20.2567
 30
0.0
 10
-26.6967
 20
-20.2567
 30
0.0
 10
-26.6967
 20
-20.2567
 30
0.0
 10
-26.6967
 20
-20.2567
 30
0.0
 10
-26.6967
 20
-20.2567
 30
0.0
 10
-26.6967
 20
-20.2567
 30
0.0
 10
-26.6967
 20
-20.2567
 30
0.0
 10
-26.6967
 20
-20.2567
 30
0.0
 10
-26.6967
 20
-20.2567
 30
0.0
 10
-27.9695
 20
-20.7001
 30
0.0
 10
-27.9695
 20
-20.7001
 30
0.0
 10
-27.9695
 20
-20.7001
 30
0.0
 10
-27.9695
 20
-20.7001
 30
0.0
 10
-26.6967
 20
-21.1435
 30
0.0
 10
-26.6967
 20
-21.1435
 30
0.0
 10
-26.6967
 20
-21.1435
 30
0.0
 10
-26.6967
 20
-21.1435
 30
0.0
 10
-26.6967
 20
-21.1435
 30
0.0
 10
-26.6967
 20
-21.1435
 30
0.0
 10
-26.6967
 20
-21.1435
 30
0.0
 10
-26.6967
 20
-21.1435
 30
0.0
 10
-26.6967
 20
-21.1435
 30
0.0
 10
-26.6967
 20
-21.1435
 30
0.0
 10
-26.6967
 20
-21.1435
 30
0.0
 10
-26.6967
 20
-21.1435
 30
0.0
 10
-26.6967
 20
-20.2567
 30
0.0
 10
-26.6967
 20
-20.2567
 30
0.0
  0
SPLINE
  5
55
330
1F
100
AcDbEntity
  8
Standard layer
 62
   250
370
     9
100
AcDbSpline
210
0.0
220
0.0
230
1.0
 70
    11
 71
     3
 72
    32
 73
    28
 74
     0
 42
0.0000000001
 43
0.0000000001
 40
0.0
 40
0.0
 40
0.0
 40
0.0
 40
0.125
 40
0.125
 40
0.125
 40
0.125
 40
0.25
 40
0.25
 40
0.25
 40
0.25
 40
0.375
 40
0.375
 40
0.375
 40
0.375
 40
0.5
 40
0.5
 40
0.5
 40
0.5
 40
0.625
 40
0.625
 40
0.625
 40
0.625
 40
0.75
 40
0.75
 40
0.75
 40
0.75
 40
1.0
 40
1.0
 40
1.0
 40
1.0
 10
23.723
 20
10.5932
 30
0.0
 10
23.723
 20
10.5932
 30
0.0
 10
23.723
 20
10.5932
 30
0.0
 10
23.723
 20
10.5932
 30
0.0
 10
23.723
 20
10.5932
 30
0.0
 10
23.723
 20
10.5932
 30
0.0
 10
23.723
 20
10.5932
 30
0.0
 10
23.723
 20
10.5932
 30
0.0
 10
23.723
 20
10.5932
 30
0.0
 10
23.723
 20
10.5932
 30
0.0
 10
22.9725
 20
9.4736
 30
0.0
 10
22.9725
 20
9.4736
 30
0.0
 10
22.9725
 20
9.4736
 30
0.0
 10
22.9725
 20
9.4736
 30
0.0
 10
24.2561
 20
9.8845
 30
0.0
 10
24.2561
 20
9.8845
 30
0.0
 10
24.2561
 20
9.8845
 30
0.0
 10
24.2561
 20
9.8845
 30
0.0
 10
24.2561
 20
9.8845
 30
0.0
 10
24.2561
 20
9.8845
 30
0.0
 10
24.2561
 20
9.8845
 30
0.0
 10
24.2561
 20
9.8845
 30
0.0
 10
24.2561
 20
9.8845
 30
0.0
 10
24.2561
 20
9.8845
 30
0.0
 10
24.2561
 20
9.8845
 30
0.0
 10
24.2561
 20
9.8845
 30
0.0
 10
23.723
 20
10.5932
 30
0.0
 10
23.723
 20
10.5932
 30
0.0
  0
SPLINE
  5
56
330
1F
100
AcDbEntity
  8
Standard layer
 62
   250
370
     9
100
AcDbSpline
210
0.0
220
0.0
230
1.0
 70
    11
 71
     3
 72
    32
 73
    28
 74
     0
 42
0.0000000001
 43
0.0000000001
 40
0.0
 40
0.0
 40
0.0
 40
0.0
 40
0.125
 40
0.125
 40
0.125
 40
0.125
 40
0.25
 40
0.25
 40
0.25
 40
0.25
 40
0.375
 40
0.375
 40
0.375
 40
0.375
 40
0.5
 40
0.5
 40
0.5
 40
0.5
 40
0.625
 40
0.625
 40
0.625
 40
0.625
 40
0.75
 40
0.75
 40
0.75
 40
0.75
 40
1.0
 40
1.0
 40
1.0
 40
1.0
 10
19.5972
 20
24.2866
 30
0.0
 10
19.5972
 20
24.2866
 30
0.0
 10
19.5972
 20
24.2866
 30
0.0
 10
19.5972
 20
24.2866
 30
0.0
 10
19.5972
 20
24.2866
 30
0.0
 10
19.5972
 20
24.2866
 30
0.0
 10
19.5972
 20
24.2866
 30
0.0
 10
19.5972
 20
24.2866
 30
0.0
 10
19.5972
 20
24.2866
 30
0.0
 10
19.5972
 20
24.2866
 30
0.0
 10
18.9976
 20
23.0795
 30
0.0
 10
18.9976
 20
23.0795
 30
0.0
 10
18.9976
 20
23.0795
 30
0.0
 10
18.9976
 20
23.0795
 30
0.0
 10
20.2174
 20
23.6528
 30
0.0
 10
20.2174
 20
23.6528
 30
0.0
 10
20.2174
 20
23.6528
 30
0.0
 10
20.2174
 20
23.6528
 30
0.0
 10
20.2174
 20
23.6528
 30
0.0
 10
20.2174
 20
23.6528
 30
0.0
 10
20.2174
 20
23.6528
 30
0.0
 10
20.2174
 20
23.6528
 30
0.0
 10
20.2174
 20
23.6528
 30
0.0
 10
20.2174
 20
23.6528
 30
0.0
 10
20.2174
 20
23.6528
 30
0.0
 10
20.2174
 20
23.6528
 30
0.0
 10
19.5972
 20
24.2866
 30
0.0
 10
19.5972
 20
24.2866
 30
0.0
  0
SPLINE
  5
57
330
1F
100
AcDbEntity
  8
Standard layer
 62
   250
370
     9
100
AcDbSpline
210
0.0
220
0.0
230
1.0
 70
    11
 71
     3
 72
    32
 73
    28
 74
     0
 42
0.0000000001
 43
0.0000000001
 40
0.0
 40
0.0
 40
0.0
 40
0.0
 40
0.125
 40
0.125
 40
0.125
 40
0.125
 40
0.25
 40
0.25
 40
0.25
 40
0.25
 40
0.375
 40
0.375
 40
0.375
 40
0.375
 40
0.5
 40
0.5
 40
0.5
 40
0.5
 40
0.625
 40
0.625
 40
0.625
 40
0.625
 40
0.75
 40
0.75
 40
0.75
 40
0.75
 40
1.0
 40
1.0
 40
1.0
 40
1.0
 10
7.724
 20
26.2379
 30
0.0
 10
7.724
 20
26.2379
 30
0.0
 10
7.724
 20
26.2379
 30
0.0
 10
7.724
 20
26.2379
 30
0.0
 10
7.724
 20
26.2379
 30
0.0
 10
7.724
 20
26.2379
 30
0.0
 10
7.724
 20
26.2379
 30
0.0
 10
7.724
 20
26.2379
 30
0.0
 10
7.724
 20
26.2379
 30
0.0
 10
7.724
 20
26.2379
 30
0.0
 10
7.1244
 20
25.0308
 30
0.0
 10
7.1244
 20
25.0308
 30
0.0
 10
7.1244
 20
25.0308
 30
0.0
 10
7.1244
 20
25.0308
 30
0.0
 10
8.3442
 20
25.6041
 30
0.0
 10
8.3442
 20
25.6041
 30
0.0
 10
8.3442
 20
25.6041
 30
0.0
 10
8.3442
 20
25.6041
 30
0.0
 10
8.3442
 20
25.6041
 30
0.0
 10
8.3442
 20
25.6041
 30
0.0
 10
8.3442
 20
25.6041
 30
0.0
 10
8.3442
 20
25.6041
 30
0.0
 10
8.3442
 20
25.6041
 30
0.0
 10
8.3442
 20
25.6041
 30
0.0
 10
8.3442
 20
25.6041
 30
0.0
 10
8.3442
 20
25.6041
 30
0.0
 10
7.724
 20
26.2379
 30
0.0
 10
7.724
 20
26.2379
 30
0.0
  0
SPLINE
  5
58
330
1F
100
AcDbEntity
  8
Standard layer
 62
   250
370
     9
100
AcDbSpline
210
0.0
220
0.0
230
1.0
 70
    11
 71
     3
 72
    32
 73
    28
 74
     0
 42
0.0000000001
 43
0.0000000001
 40
0.0
 40
0.0
 40
0.0
 40
0.0
 40
0.125
 40
0.125
 40
0.125
 40
0.125
 40
0.25
 40
0.25
 40
0.25
 40
0.25
 40
0.375
 40
0.375
 40
0.375
 40
0.375
 40
0.5
 40
0.5
 40
0.5
 40
0.5
 40
0.625
 40
0.625
 40
0.625
 40
0.625
 40
0.75
 40
0.75
 40
0.75
 40
0.75
 40
1.0
 40
1.0
 40
1.0
 40
1.0
 10
35.5629
 20
-20.2796
 30
0.0
 10
35.5629
 20
-20.2796
 30
0.0
 10
35.5629
 20
-20.2796
 30
0.0
 10
35.5629
 20
-20.2796
 30
0.0
 10
35.5629
 20
-20.2796
 30
0.0
 10
35.5629
 20
-20.2796
 30
0.0
 10
35.5629
 20
-20.2796
 30
0.0
 10
35.5629
 20
-20.2796
 30
0.0
 10
35.5629
 20
-20.2796
 30
0.0
 10
35.5629
 20
-20.2796
 30
0.0
 10
36.8357
 20
-20.723
 30
0.0
 10
36.8357
 20
-20.723
 30
0.0
 10
36.8357
 20
-20.723
 30
0.0
 10
36.8357
 20
-20.723
 30
0.0
 10
35.5629
 20
-21.1664
 30
0.0
 10
35.5629
 20
-21.1664
 30
0.0
 10
35.5629
 20
-21.1664
 30
0.0
 10
35.5629
 20
-21.1664
 30
0.0
 10
35.5629
 20
-21.1664
 30
0.0
 10
35.5629
 20
-21.1664
 30
0.0
 10
35.5629
 20
-21.1664
 30
0.0
 10
35.5629
 20
-21.1664
 30
0.0
 10
35.5629
 20
-21.1664
 30
0.0
 10
35.5629
 20
-21.1664
 30
0.0
 10
35.5629
 20
-21.1664
 30
0.0
 10
35.5629
 20
-21.1664
 30
0.0
 10
35.5629
 20
-20.2796
 30
0.0
 10
35.5629
 20
-20.2796
 30
0.0
  0
SPLINE
  5
59
330
1F
100
AcDbEntity
  8
Standard layer
 62
   250
370
     9
100
AcDbSpline
210
0.0
220
0.0
230
1.0
 70
    11
 71
     3
 72
    32
 73
    28
 74
     0
 42
0.0000000001
 43
0.0000000001
 40
0.0
 40
0.0
 40
0.0
 40
0.0
 40
0.125
 40
0.125
 40
0.125
 40
0.125
 40
0.25
 40
0.25
 40
0.25
 40
0.25
 40
0.375
 40
0.375
 40
0.375
 40
0.375
 40
0.5
 40
0.5
 40
0.5
 40
0.5
 40
0.625
 40
0.625
 40
0.625
 40
0.625
 40
0.75
 40
0.75
 40
0.75
 40
0.75
 40
1.0
 40
1.0
 40
1.0
 40
1.0
 10
17.683
 20
5.644
 30
0.0
 10
17.683
 20
5.644
 30
0.0
 10
17.683
 20
5.644
 30
0.0
 10
17.683
 20
5.644
 30
0.0
 10
17.683
 20
5.644
 30
0.0
 10
17.683
 20
5.644
 30
0.0
 10
17.683
 20
5.644
 30
0.0
 10
17.683
 20
5.644
 30
0.0
 10
17.683
 20
5.644
 30
0.0
 10
17.683
 20
5.644
 30
0.0
 10
18.9666
 20
6.0549
 30
0.0
 10
18.9666
 20
6.0549
 30
0.0
 10
18.9666
 20
6.0549
 30
0.0
 10
18.9666
 20
6.0549
 30
0.0
 10
18.2161
 20
4.9353
 30
0.0
 10
18.2161
 20
4.9353
 30
0.0
 10
18.2161
 20
4.9353
 30
0.0
 10
18.2161
 20
4.9353
 30
0.0
 10
18.2161
 20
4.9353
 30
0.0
 10
18.2161
 20
4.9353
 30
0.0
 10
18.2161
 20
4.9353
 30
0.0
 10
18.2161
 20
4.9353
 30
0.0
 10
18.2161
 20
4.9353
 30
0.0
 10
18.2161
 20
4.9353
 30
0.0
 10
18.2161
 20
4.9353
 30
0.0
 10
18.2161
 20
4.9353
 30
0.0
 10
17.683
 20
5.644
 30
0.0
 10
17.683
 20
5.644
 30
0.0
  0
SPLINE
  5
5A
330
1F
100
AcDbEntity
  8
Standard layer
 62
   250
370
     9
100
AcDbSpline
210
0.0
220
0.0
230
1.0
 70
    11
 71
     3
 72
    32
 73
    28
 74
     0
 42
0.0000000001
 43
0.0000000001
 40
0.0
 40
0.0
 40
0.0
 40
0.0
 40
0.125
 40
0.125
 40
0.125
 40
0.125
 40
0.25
 40
0.25
 40
0.25
 40
0.25
 40
0.375
 40
0.375
 40
0.375
 40
0.375
 40
0.5
 40
0.5
 40
0.5
 40
0.5
 40
0.625
 40
0.625
 40
0.625
 40
0.625
 40
0.75
 40
0.75
 40
0.75
 40
0.75
 40
1.0
 40
1.0
 40
1.0
 40
1.0
 10
-11.3514
 20
-8.0912
 30
0.0
 10
-11.3514
 20
-8.0912
 30
0.0
 10
-11.3514
 20
-8.0912
 30
0.0
 10
-11.3514
 20
-8.0912
 30
0.0
 10
-11.3514
 20
-8.0912
 30
0.0
 10
-11.3514
 20
-8.0912
 30
0.0
 10
-11.3514
 20
-8.0912
 30
0.0
 10
-11.3514
 20
-8.0912
 30
0.0
 10
-11.3514
 20
-8.0912
 30
0.0
 10
-11.3514
 20
-8.0912
 30
0.0
 10
-10.1315
 20
-7.5179
 30
0.0
 10
-10.1315
 20
-7.5179
 30
0.0
 10
-10.1315
 20
-7.5179
 30
0.0
 10
-10.1315
 20
-7.5179
 30
0.0
 10
-10.7312
 20
-8.725
 30
0.0
 10
-10.7312
 20
-8.725
 30
0.0
 10
-10.7312
 20
-8.725
 30
0.0
 10
-10.7312
 20
-8.725
 30
0.0
 10
-10.7312
 20
-8.725
 30
0.0
 10
-10.7312
 20
-8.725
 30
0.0
 10
-10.7312
 20
-8.725
 30
0.0
 10
-10.7312
 20
-8.725
 30
0.0
 10
-10.7312
 20
-8.725
 30
0.0
 10
-10.7312
 20
-8.725
 30
0.0
 10
-10.7312
 20
-8.725
 30
0.0
 10
-10.7312
 20
-8.725
 30
0.0
 10
-11.3514
 20
-8.0912
 30
0.0
 10
-11.3514
 20
-8.0912
 30
0.0
  0
SPLINE
  5
5B
330
1F
100
AcDbEntity
  8
Standard layer
 62
   250
370
     9
100
AcDbSpline
210
0.0
220
0.0
230
1.0
 70
    11
 71
     3
 72
    32
 73
    28
 74
     0
 42
0.0000000001
 43
0.0000000001
 40
0.0
 40
0.0
 40
0.0
 40
0.0
 40
0.125
 40
0.125
 40
0.125
 40
0.125
 40
0.25
 40
0.25
 40
0.25
 40
0.25
 40
0.375
 40
0.375
 40
0.375
 40
0.375
 40
0.5
 40
0.5
 40
0.5
 40
0.5
 40
0.625
 40
0.625
 40
0.625
 40
0.625
 40
0.75
 40
0.75
 40
0.75
 40
0.75
 40
1.0
 40
1.0
 40
1.0
 40
1.0
 10
0.6706
 20
19.4998
 30
0.0
 10
0.6706
 20
19.4998
 30
0.0
 10
0.6706
 20
19.4998
 30
0.0
 10
0.6706
 20
19.4998
 30
0.0
 10
0.6706
 20
19.4998
 30
0.0
 10
0.6706
 20
19.4998
 30
0.0
 10
0.6706
 20
19.4998
 30
0.0
 10
0.6706
 20
19.4998
 30
0.0
 10
0.6706
 20
19.4998
 30
0.0
 10
0.6706
 20
19.4998
 30
0.0
 10
1.8905
 20
20.0731
 30
0.0
 10
1.8905
 20
20.0731
 30
0.0
 10
1.8905
 20
20.0731
 30
0.0
 10
1.8905
 20
20.0731
 30
0.0
 10
1.2908
 20
18.866
 30
0.0
 10
1.2908
 20
18.866
 30
0.0
 10
1.2908
 20
18.866
 30
0.0
 10
1.2908
 20
18.866
 30
0.0
 10
1.2908
 20
18.866
 30
0.0
 10
1.2908
 20
18.866
 30
0.0
 10
1.2908
 20
18.866
 30
0.0
 10
1.2908
 20
18.866
 30
0.0
 10
1.2908
 20
18.866
 30
0.0
 10
1.2908
 20
18.866
 30
0.0
 10
1.2908
 20
18.866
 30
0.0
 10
1.2908
 20
18.866
 30
0.0
 10
0.6706
 20
19.4998
 30
0.0
 10
0.6706
 20
19.4998
 30
0.0
  0
SPLINE
  5
5C
330
1F
100
AcDbEntity
  8
Standard layer
 62
   250
100
AcDbSpline
210
0.0
220
0.0
230
1.0
 70
    11
 71
     3
 72
    56
 73
    52
 74
     0
 42
0.0000000001
 43
0.0000000001
 40
0.0
 40
0.0
 40
0.0
 40
0.0
 40
0.0714285714285714
 40
0.0714285714285714
 40
0.0714285714285714
 40
0.0714285714285714
 40
0.1428571428571428
 40
0.1428571428571428
 40
0.1428571428571428
 40
0.1428571428571428
 40
0.2142857142857143
 40
0.2142857142857143
 40
0.2142857142857143
 40
0.2142857142857143
 40
0.2857142857142857
 40
0.2857142857142857
 40
0.2857142857142857
 40
0.2857142857142857
 40
0.3571428571428572
 40
0.3571428571428572
 40
0.3571428571428572
 40
0.3571428571428572
 40
0.4285714285714285
 40
0.4285714285714285
 40
0.4285714285714285
 40
0.4285714285714285
 40
0.5
 40
0.5
 40
0.5
 40
0.5
 40
0.5714285714285714
 40
0.5714285714285714
 40
0.5714285714285714
 40
0.5714285714285714
 40
0.6428571428571429
 40
0.6428571428571429
 40
0.6428571428571429
 40
0.6428571428571429
 40
0.7142857142857143
 40
0.7142857142857143
 40
0.7142857142857143
 40
0.7142857142857143
 40
0.7857142857142857
 40
0.7857142857142857
 40
0.7857142857142857
 40
0.7857142857142857
 40
0.8571428571428571
 40
0.8571428571428571
 40
0.8571428571428571
 40
0.8571428571428571
 40
1.0
 40
1.0
 40
1.0
 40
1.0
 10
-36.9704
 20
-28.7377
 30
0.0
 10
-36.9704
 20
-28.8664
 30
0.0
 10
-36.9419
 20
-28.9841
 30
0.0
 10
-36.885
 20
-29.0915
 30
0.0
 10
-36.885
 20
-29.0915
 30
0.0
 10
-36.8281
 20
-29.1988
 30
0.0
 10
-36.7447
 20
-29.2913
 30
0.0
 10
-36.6334
 20
-29.3702
 30
0.0
 10
-36.6334
 20
-29.3702
 30
0.0
 10
-36.5222
 20
-29.4491
 30
0.0
 10
-36.3851
 20
-29.5099
 30
0.0
 10
-36.2221
 20
-29.5533
 30
0.0
 10
-36.2221
 20
-29.5533
 30
0.0
 10
-36.0591
 20
-29.596
 30
0.0
 10
-35.8715
 20
-29.618
 30
0.0
 10
-35.6587
 20
-29.6186
 30
0.0
 10
-35.6587
 20
-29.6186
 30
0.0
 10
-35.38
 20
-29.6147
 30
0.0
 10
-35.1446
 20
-29.5779
 30
0.0
 10
-34.9518
 20
-29.5074
 30
0.0
 10
-34.9518
 20
-29.5074
 30
0.0
 10
-34.7591
 20
-29.4369
 30
0.0
 10
-34.6129
 20
-29.3392
 30
0.0
 10
-34.5133
 20
-29.215
 30
0.0
 10
-34.5133
 20
-29.215
 30
0.0
 10
-34.4137
 20
-29.0908
 30
0.0
 10
-34.3633
 20
-28.946
 30
0.0
 10
-34.3626
 20
-28.7804
 30
0.0
 10
-34.3626
 20
-28.7804
 30
0.0
 10
-34.3633
 20
-28.5948
 30
0.0
 10
-34.415
 20
-28.437
 30
0.0
 10
-34.5172
 20
-28.3063
 30
0.0
 10
-34.5172
 20
-28.3063
 30
0.0
 10
-34.6194
 20
-28.1757
 30
0.0
 10
-34.7694
 20
-28.0761
 30
0.0
 10
-34.9673
 20
-28.0075
 30
0.0
 10
-34.9673
 20
-28.0075
 30
0.0
 10
-35.1653
 20
-27.9383
 30
0.0
 10
-35.4071
 20
-27.904
 30
0.0
 10
-35.6937
 20
-27.9034
 30
0.0
 10
-35.6937
 20
-27.9034
 30
0.0
 10
-35.9621
 20
-27.904
 30
0.0
 10
-36.1917
 20
-27.937
 30
0.0
 10
-36.3818
 20
-28.0023
 30
0.0
 10
-36.3818
 20
-28.0023
 30
0.0
 10
-36.572
 20
-28.0677
 30
0.0
 10
-36.7175
 20
-28.1627
 30
0.0
 10
-36.8177
 20
-28.2869
 30
0.0
 10
-36.8177
 20
-28.2869
 30
0.0
 10
-36.9186
 20
-28.4111
 30
0.0
 10
-36.9697
 20
-28.5611
 30
0.0
 10
-36.9704
 20
-28.7377
 30
0.0
  0
SPLINE
  5
5D
330
1F
100
AcDbEntity
  8
Standard layer
 62
   250
100
AcDbSpline
210
0.0
220
0.0
230
1.0
 70
    11
 71
     3
 72
    56
 73
    52
 74
     0
 42
0.0000000001
 43
0.0000000001
 40
0.0
 40
0.0
 40
0.0
 40
0.0
 40
0.0714285714285714
 40
0.0714285714285714
 40
0.0714285714285714
 40
0.0714285714285714
 40
0.1428571428571428
 40
0.1428571428571428
 40
0.1428571428571428
 40
0.1428571428571428
 40
0.2142857142857143
 40
0.2142857142857143
 40
0.2142857142857143
 40
0.2142857142857143
 40
0.2857142857142857
 40
0.2857142857142857
 40
0.2857142857142857
 40
0.2857142857142857
 40
0.3571428571428572
 40
0.3571428571428572
 40
0.3571428571428572
 40
0.3571428571428572
 40
0.4285714285714285
 40
0.4285714285714285
 40
0.4285714285714285
 40
0.4285714285714285
 40
0.5
 40
0.5
 40
0.5
 40
0.5
 40
0.5714285714285714
 40
0.5714285714285714
 40
0.5714285714285714
 40
0.5714285714285714
 40
0.6428571428571429
 40
0.6428571428571429
 40
0.6428571428571429
 40
0.6428571428571429
 40
0.7142857142857143
 40
0.7142857142857143
 40
0.7142857142857143
 40
0.7142857142857143
 40
0.7857142857142857
 40
0.7857142857142857
 40
0.7857142857142857
 40
0.7857142857142857
 40
0.8571428571428571
 40
0.8571428571428571
 40
0.8571428571428571
 40
0.8571428571428571
 40
1.0
 40
1.0
 40
1.0
 40
1.0
 10
-36.7065
 20
-28.761
 30
0.0
 10
-36.7058
 20
-28.6717
 30
0.0
 10
-36.6819
 20
-28.5948
 30
0.0
 10
-36.6334
 20
-28.5301
 30
0.0
 10
-36.6334
 20
-28.5301
 30
0.0
 10
-36.5849
 20
-28.4654
 30
0.0
 10
-36.5157
 20
-28.4124
 30
0.0
 10
-36.4252
 20
-28.371
 30
0.0
 10
-36.4252
 20
-28.371
 30
0.0
 10
-36.3353
 20
-28.3296
 30
0.0
 10
-36.2266
 20
-28.2985
 30
0.0
 10
-36.1011
 20
-28.2785
 30
0.0
 10
-36.1011
 20
-28.2785
 30
0.0
 10
-35.975
 20
-28.2584
 30
0.0
 10
-35.834
 20
-28.2487
 30
0.0
 10
-35.6781
 20
-28.2487
 30
0.0
 10
-35.6781
 20
-28.2487
 30
0.0
 10
-35.4621
 20
-28.2487
 30
0.0
 10
-35.2758
 20
-28.2675
 30
0.0
 10
-35.1193
 20
-28.305
 30
0.0
 10
-35.1193
 20
-28.305
 30
0.0
 10
-34.9622
 20
-28.3419
 30
0.0
 10
-34.8412
 20
-28.3988
 30
0.0
 10
-34.7558
 20
-28.4745
 30
0.0
 10
-34.7558
 20
-28.4745
 30
0.0
 10
-34.6705
 20
-28.5501
 30
0.0
 10
-34.6278
 20
-28.6459
 30
0.0
 10
-34.6265
 20
-28.761
 30
0.0
 10
-34.6265
 20
-28.761
 30
0.0
 10
-34.6271
 20
-28.8651
 30
0.0
 10
-34.6672
 20
-28.955
 30
0.0
 10
-34.7474
 20
-29.032
 30
0.0
 10
-34.7474
 20
-29.032
 30
0.0
 10
-34.8276
 20
-29.1083
 30
0.0
 10
-34.9441
 20
-29.1672
 30
0.0
 10
-35.0967
 20
-29.2092
 30
0.0
 10
-35.0967
 20
-29.2092
 30
0.0
 10
-35.25
 20
-29.2512
 30
0.0
 10
-35.4356
 20
-29.2726
 30
0.0
 10
-35.6549
 20
-29.2732
 30
0.0
 10
-35.6549
 20
-29.2732
 30
0.0
 10
-35.8845
 20
-29.2726
 30
0.0
 10
-36.0765
 20
-29.2499
 30
0.0
 10
-36.2331
 20
-29.206
 30
0.0
 10
-36.2331
 20
-29.206
 30
0.0
 10
-36.3889
 20
-29.162
 30
0.0
 10
-36.5066
 20
-29.1018
 30
0.0
 10
-36.5868
 20
-29.0249
 30
0.0
 10
-36.5868
 20
-29.0249
 30
0.0
 10
-36.6664
 20
-28.9479
 30
0.0
 10
-36.7065
 20
-28.8599
 30
0.0
 10
-36.7065
 20
-28.761
 30
0.0
  0
SPLINE
  5
5E
330
1F
100
AcDbEntity
  8
Standard layer
 62
   250
100
AcDbSpline
210
0.0
220
0.0
230
1.0
 70
    11
 71
     3
 72
    44
 73
    40
 74
     0
 42
0.0000000001
 43
0.0000000001
 40
0.0
 40
0.0
 40
0.0
 40
0.0
 40
0.0909090909090909
 40
0.0909090909090909
 40
0.0909090909090909
 40
0.0909090909090909
 40
0.1818181818181818
 40
0.1818181818181818
 40
0.1818181818181818
 40
0.1818181818181818
 40
0.2727272727272727
 40
0.2727272727272727
 40
0.2727272727272727
 40
0.2727272727272727
 40
0.3636363636363636
 40
0.3636363636363636
 40
0.3636363636363636
 40
0.3636363636363636
 40
0.4545454545454545
 40
0.4545454545454545
 40
0.4545454545454545
 40
0.4545454545454545
 40
0.5454545454545454
 40
0.5454545454545454
 40
0.5454545454545454
 40
0.5454545454545454
 40
0.6363636363636364
 40
0.6363636363636364
 40
0.6363636363636364
 40
0.6363636363636364
 40
0.7272727272727273
 40
0.7272727272727273
 40
0.7272727272727273
 40
0.7272727272727273
 40
0.8181818181818182
 40
0.8181818181818182
 40
0.8181818181818182
 40
0.8181818181818182
 40
1.0
 40
1.0
 40
1.0
 40
1.0
 10
-33.9513
 20
-27.4649
 30
0.0
 10
-33.9978
 20
-27.4371
 30
0.0
 10
-34.0573
 20
-27.4074
 30
0.0
 10
-34.1291
 20
-27.3737
 30
0.0
 10
-34.1291
 20
-27.3737
 30
0.0
 10
-34.2016
 20
-27.3407
 30
0.0
 10
-34.2805
 20
-27.3071
 30
0.0
 10
-34.3678
 20
-27.2728
 30
0.0
 10
-34.3678
 20
-27.2728
 30
0.0
 10
-34.4545
 20
-27.2385
 30
0.0
 10
-34.5431
 20
-27.2056
 30
0.0
 10
-34.6336
 20
-27.1745
 30
0.0
 10
-34.6336
 20
-27.1745
 30
0.0
 10
-34.7242
 20
-27.1435
 30
0.0
 10
-34.8108
 20
-27.1163
 30
0.0
 10
-34.8943
 20
-27.0924
 30
0.0
 10
-34.8943
 20
-27.0924
 30
0.0
 10
-34.8943
 20
-27.0924
 30
0.0
 10
-34.8554
 20
-27.4727
 30
0.0
 10
-34.8554
 20
-27.4727
 30
0.0
 10
-34.8554
 20
-27.4727
 30
0.0
 10
-34.7837
 20
-27.4837
 30
0.0
 10
-34.7067
 20
-27.4979
 30
0.0
 10
-34.6233
 20
-27.5147
 30
0.0
 10
-34.6233
 20
-27.5147
 30
0.0
 10
-34.5398
 20
-27.5322
 30
0.0
 10
-34.4557
 20
-27.5516
 30
0.0
 10
-34.371
 20
-27.5729
 30
0.0
 10
-34.371
 20
-27.5729
 30
0.0
 10
-34.2856
 20
-27.5943
 30
0.0
 10
-34.2048
 20
-27.6163
 30
0.0
 10
-34.1278
 20
-27.6389
 30
0.0
 10
-34.1278
 20
-27.6389
 30
0.0
 10
-34.0509
 20
-27.6615
 30
0.0
 10
-33.983
 20
-27.6842
 30
0.0
 10
-33.9241
 20
-27.7055
 30
0.0
 10
-33.9241
 20
-27.7055
 30
0.0
 10
-33.9241
 20
-27.7055
 30
0.0
 10
-33.9513
 20
-27.4649
 30
0.0
 10
-33.9513
 20
-27.4649
 30
0.0
  0
SPLINE
  5
5F
330
1F
100
AcDbEntity
  8
Standard layer
 62
   250
100
AcDbSpline
210
0.0
220
0.0
230
1.0
 70
    11
 71
     3
 72
   124
 73
   120
 74
     0
 42
0.0000000001
 43
0.0000000001
 40
0.0
 40
0.0
 40
0.0
 40
0.0
 40
0.032258064516129
 40
0.032258064516129
 40
0.032258064516129
 40
0.032258064516129
 40
0.0645161290322581
 40
0.0645161290322581
 40
0.0645161290322581
 40
0.0645161290322581
 40
0.0967741935483871
 40
0.0967741935483871
 40
0.0967741935483871
 40
0.0967741935483871
 40
0.1290322580645161
 40
0.1290322580645161
 40
0.1290322580645161
 40
0.1290322580645161
 40
0.1612903225806452
 40
0.1612903225806452
 40
0.1612903225806452
 40
0.1612903225806452
 40
0.1935483870967742
 40
0.1935483870967742
 40
0.1935483870967742
 40
0.1935483870967742
 40
0.2258064516129032
 40
0.2258064516129032
 40
0.2258064516129032
 40
0.2258064516129032
 40
0.2580645161290323
 40
0.2580645161290323
 40
0.2580645161290323
 40
0.2580645161290323
 40
0.2903225806451613
 40
0.2903225806451613
 40
0.2903225806451613
 40
0.2903225806451613
 40
0.3225806451612903
 40
0.3225806451612903
 40
0.3225806451612903
 40
0.3225806451612903
 40
0.3548387096774194
 40
0.3548387096774194
 40
0.3548387096774194
 40
0.3548387096774194
 40
0.3870967741935484
 40
0.3870967741935484
 40
0.3870967741935484
 40
0.3870967741935484
 40
0.4193548387096774
 40
0.4193548387096774
 40
0.4193548387096774
 40
0.4193548387096774
 40
0.4516129032258064
 40
0.4516129032258064
 40
0.4516129032258064
 40
0.4516129032258064
 40
0.4838709677419355
 40
0.4838709677419355
 40
0.4838709677419355
 40
0.4838709677419355
 40
0.5161290322580645
 40
0.5161290322580645
 40
0.5161290322580645
 40
0.5161290322580645
 40
0.5483870967741935
 40
0.5483870967741935
 40
0.5483870967741935
 40
0.5483870967741935
 40
0.5806451612903226
 40
0.5806451612903226
 40
0.5806451612903226
 40
0.5806451612903226
 40
0.6129032258064516
 40
0.6129032258064516
 40
0.6129032258064516
 40
0.6129032258064516
 40
0.6451612903225806
 40
0.6451612903225806
 40
0.6451612903225806
 40
0.6451612903225806
 40
0.6774193548387096
 40
0.6774193548387096
 40
0.6774193548387096
 40
0.6774193548387096
 40
0.7096774193548387
 40
0.7096774193548387
 40
0.7096774193548387
 40
0.7096774193548387
 40
0.7419354838709677
 40
0.7419354838709677
 40
0.7419354838709677
 40
0.7419354838709677
 40
0.7741935483870968
 40
0.7741935483870968
 40
0.7741935483870968
 40
0.7741935483870968
 40
0.8064516129032258
 40
0.8064516129032258
 40
0.8064516129032258
 40
0.8064516129032258
 40
0.8387096774193549
 40
0.8387096774193549
 40
0.8387096774193549
 40
0.8387096774193549
 40
0.8709677419354839
 40
0.8709677419354839
 40
0.8709677419354839
 40
0.8709677419354839
 40
0.9032258064516129
 40
0.9032258064516129
 40
0.9032258064516129
 40
0.9032258064516129
 40
0.9354838709677419
 40
0.9354838709677419
 40
0.9354838709677419
 40
0.9354838709677419
 40
1.0
 40
1.0
 40
1.0
 40
1.0
 10
-35.7208
 20
-26.3201
 30
0.0
 10
-35.6768
 20
-26.4242
 30
0.0
 10
-35.6219
 20
-26.5135
 30
0.0
 10
-35.5572
 20
-26.5879
 30
0.0
 10
-35.5572
 20
-26.5879
 30
0.0
 10
-35.4919
 20
-26.6623
 30
0.0
 10
-35.4162
 20
-26.7198
 30
0.0
 10
-35.3302
 20
-26.7599
 30
0.0
 10
-35.3302
 20
-26.7599
 30
0.0
 10
-35.2442
 20
-26.8
 30
0.0
 10
-35.1478
 20
-26.8201
 30
0.0
 10
-35.0417
 20
-26.8207
 30
0.0
 10
-35.0417
 20
-26.8207
 30
0.0
 10
-34.9486
 20
-26.8201
 30
0.0
 10
-34.8619
 20
-26.8013
 30
0.0
 10
-34.7798
 20
-26.7625
 30
0.0
 10
-34.7798
 20
-26.7625
 30
0.0
 10
-34.6983
 20
-26.7243
 30
0.0
 10
-34.6265
 20
-26.6687
 30
0.0
 10
-34.5638
 20
-26.5956
 30
0.0
 10
-34.5638
 20
-26.5956
 30
0.0
 10
-34.5017
 20
-26.5226
 30
0.0
 10
-34.4525
 20
-26.434
 30
0.0
 10
-34.4169
 20
-26.3298
 30
0.0
 10
-34.4169
 20
-26.3298
 30
0.0
 10
-34.3814
 20
-26.225
 30
0.0
 10
-34.3633
 20
-26.1067
 30
0.0
 10
-34.3626
 20
-25.9747
 30
0.0
 10
-34.3626
 20
-25.9747
 30
0.0
 10
-34.3633
 20
-25.8538
 30
0.0
 10
-34.3807
 20
-25.7413
 30
0.0
 10
-34.415
 20
-25.6378
 30
0.0
 10
-34.415
 20
-25.6378
 30
0.0
 10
-34.4493
 20
-25.5343
 30
0.0
 10
-34.4991
 20
-25.4431
 30
0.0
 10
-34.5638
 20
-25.3655
 30
0.0
 10
-34.5638
 20
-25.3655
 30
0.0
 10
-34.6278
 20
-25.2879
 30
0.0
 10
-34.7048
 20
-25.2271
 30
0.0
 10
-34.7947
 20
-25.1838
 30
0.0
 10
-34.7947
 20
-25.1838
 30
0.0
 10
-34.8846
 20
-25.1398
 30
0.0
 10
-34.9848
 20
-25.1178
 30
0.0
 10
-35.096
 20
-25.1171
 30
0.0
 10
-35.096
 20
-25.1171
 30
0.0
 10
-35.1969
 20
-25.1178
 30
0.0
 10
-35.2888
 20
-25.1385
 30
0.0
 10
-35.3722
 20
-25.1792
 30
0.0
 10
-35.3722
 20
-25.1792
 30
0.0
 10
-35.455
 20
-25.22
 30
0.0
 10
-35.5281
 20
-25.2782
 30
0.0
 10
-35.5908
 20
-25.3539
 30
0.0
 10
-35.5908
 20
-25.3539
 30
0.0
 10
-35.6542
 20
-25.4295
 30
0.0
 10
-35.7066
 20
-25.5201
 30
0.0
 10
-35.748
 20
-25.6255
 30
0.0
 10
-35.748
 20
-25.6255
 30
0.0
 10
-35.748
 20
-25.6255
 30
0.0
 10
-35.7596
 20
-25.6255
 30
0.0
 10
-35.7596
 20
-25.6255
 30
0.0
 10
-35.7596
 20
-25.6255
 30
0.0
 10
-35.8081
 20
-25.5227
 30
0.0
 10
-35.8644
 20
-25.4405
 30
0.0
 10
-35.9291
 20
-25.3791
 30
0.0
 10
-35.9291
 20
-25.3791
 30
0.0
 10
-35.9931
 20
-25.3176
 30
0.0
 10
-36.0617
 20
-25.273
 30
0.0
 10
-36.1335
 20
-25.2458
 30
0.0
 10
-36.1335
 20
-25.2458
 30
0.0
 10
-36.2059
 20
-25.2193
 30
0.0
 10
-36.2777
 20
-25.2057
 30
0.0
 10
-36.3495
 20
-25.2064
 30
0.0
 10
-36.3495
 20
-25.2064
 30
0.0
 10
-36.4297
 20
-25.2064
 30
0.0
 10
-36.5073
 20
-25.2219
 30
0.0
 10
-36.581
 20
-25.253
 30
0.0
 10
-36.581
 20
-25.253
 30
0.0
 10
-36.6548
 20
-25.284
 30
0.0
 10
-36.7207
 20
-25.3299
 30
0.0
 10
-36.7796
 20
-25.3914
 30
0.0
 10
-36.7796
 20
-25.3914
 30
0.0
 10
-36.8378
 20
-25.4535
 30
0.0
 10
-36.8844
 20
-25.5304
 30
0.0
 10
-36.918
 20
-25.6223
 30
0.0
 10
-36.918
 20
-25.6223
 30
0.0
 10
-36.9523
 20
-25.7141
 30
0.0
 10
-36.9697
 20
-25.8215
 30
0.0
 10
-36.9704
 20
-25.9437
 30
0.0
 10
-36.9704
 20
-25.9437
 30
0.0
 10
-36.9697
 20
-26.0556
 30
0.0
 10
-36.9536
 20
-26.1597
 30
0.0
 10
-36.9219
 20
-26.2542
 30
0.0
 10
-36.9219
 20
-26.2542
 30
0.0
 10
-36.8895
 20
-26.3492
 30
0.0
 10
-36.8443
 20
-26.432
 30
0.0
 10
-36.7848
 20
-26.5032
 30
0.0
 10
-36.7848
 20
-26.5032
 30
0.0
 10
-36.7253
 20
-26.5737
 30
0.0
 10
-36.6548
 20
-26.6286
 30
0.0
 10
-36.5726
 20
-26.6681
 30
0.0
 10
-36.5726
 20
-26.6681
 30
0.0
 10
-36.4905
 20
-26.7069
 30
0.0
 10
-36.3993
 20
-26.7269
 30
0.0
 10
-36.299
 20
-26.7276
 30
0.0
 10
-36.299
 20
-26.7276
 30
0.0
 10
-36.2259
 20
-26.7276
 30
0.0
 10
-36.1548
 20
-26.714
 30
0.0
 10
-36.085
 20
-26.6855
 30
0.0
 10
-36.085
 20
-26.6855
 30
0.0
 10
-36.0151
 20
-26.6577
 30
0.0
 10
-35.9498
 20
-26.6138
 30
0.0
 10
-35.8896
 20
-26.5542
 30
0.0
 10
-35.8896
 20
-26.5542
 30
0.0
 10
-35.8295
 20
-26.4947
 30
0.0
 10
-35.7771
 20
-26.4184
 30
0.0
 10
-35.7325
 20
-26.324
 30
0.0
 10
-35.7325
 20
-26.324
 30
0.0
 10
-35.7325
 20
-26.324
 30
0.0
 10
-35.7208
 20
-26.3201
 30
0.0
 10
-35.7208
 20
-26.3201
 30
0.0
  0
SPLINE
  5
60
330
1F
100
AcDbEntity
  8
Standard layer
 62
   250
100
AcDbSpline
210
0.0
220
0.0
230
1.0
 70
    11
 71
     3
 72
    56
 73
    52
 74
     0
 42
0.0000000001
 43
0.0000000001
 40
0.0
 40
0.0
 40
0.0
 40
0.0
 40
0.0714285714285714
 40
0.0714285714285714
 40
0.0714285714285714
 40
0.0714285714285714
 40
0.1428571428571428
 40
0.1428571428571428
 40
0.1428571428571428
 40
0.1428571428571428
 40
0.2142857142857143
 40
0.2142857142857143
 40
0.2142857142857143
 40
0.2142857142857143
 40
0.2857142857142857
 40
0.2857142857142857
 40
0.2857142857142857
 40
0.2857142857142857
 40
0.3571428571428572
 40
0.3571428571428572
 40
0.3571428571428572
 40
0.3571428571428572
 40
0.4285714285714285
 40
0.4285714285714285
 40
0.4285714285714285
 40
0.4285714285714285
 40
0.5
 40
0.5
 40
0.5
 40
0.5
 40
0.5714285714285714
 40
0.5714285714285714
 40
0.5714285714285714
 40
0.5714285714285714
 40
0.6428571428571429
 40
0.6428571428571429
 40
0.6428571428571429
 40
0.6428571428571429
 40
0.7142857142857143
 40
0.7142857142857143
 40
0.7142857142857143
 40
0.7142857142857143
 40
0.7857142857142857
 40
0.7857142857142857
 40
0.7857142857142857
 40
0.7857142857142857
 40
0.8571428571428571
 40
0.8571428571428571
 40
0.8571428571428571
 40
0.8571428571428571
 40
1.0
 40
1.0
 40
1.0
 40
1.0
 10
-34.611
 20
-25.967
 30
0.0
 10
-34.6116
 20
-26.0478
 30
0.0
 10
-34.6246
 20
-26.1196
 30
0.0
 10
-34.6498
 20
-26.183
 30
0.0
 10
-34.6498
 20
-26.183
 30
0.0
 10
-34.6756
 20
-26.247
 30
0.0
 10
-34.7106
 20
-26.3007
 30
0.0
 10
-34.7552
 20
-26.3447
 30
0.0
 10
-34.7552
 20
-26.3447
 30
0.0
 10
-34.7992
 20
-26.388
 30
0.0
 10
-34.8503
 20
-26.421
 30
0.0
 10
-34.9072
 20
-26.443
 30
0.0
 10
-34.9072
 20
-26.443
 30
0.0
 10
-34.9641
 20
-26.4643
 30
0.0
 10
-35.0249
 20
-26.4741
 30
0.0
 10
-35.0883
 20
-26.4715
 30
0.0
 10
-35.0883
 20
-26.4715
 30
0.0
 10
-35.1691
 20
-26.4715
 30
0.0
 10
-35.2435
 20
-26.454
 30
0.0
 10
-35.3121
 20
-26.4191
 30
0.0
 10
-35.3121
 20
-26.4191
 30
0.0
 10
-35.3806
 20
-26.3848
 30
0.0
 10
-35.4408
 20
-26.3337
 30
0.0
 10
-35.4919
 20
-26.2664
 30
0.0
 10
-35.4919
 20
-26.2664
 30
0.0
 10
-35.543
 20
-26.1985
 30
0.0
 10
-35.5831
 20
-26.1157
 30
0.0
 10
-35.6122
 20
-26.0174
 30
0.0
 10
-35.6122
 20
-26.0174
 30
0.0
 10
-35.5805
 20
-25.903
 30
0.0
 10
-35.541
 20
-25.8046
 30
0.0
 10
-35.4932
 20
-25.7219
 30
0.0
 10
-35.4932
 20
-25.7219
 30
0.0
 10
-35.4459
 20
-25.6391
 30
0.0
 10
-35.3871
 20
-25.575
 30
0.0
 10
-35.3172
 20
-25.5304
 30
0.0
 10
-35.3172
 20
-25.5304
 30
0.0
 10
-35.2467
 20
-25.4858
 30
0.0
 10
-35.1614
 20
-25.4632
 30
0.0
 10
-35.0611
 20
-25.4625
 30
0.0
 10
-35.0611
 20
-25.4625
 30
0.0
 10
-34.9738
 20
-25.4632
 30
0.0
 10
-34.8962
 20
-25.4839
 30
0.0
 10
-34.8289
 20
-25.5252
 30
0.0
 10
-34.8289
 20
-25.5252
 30
0.0
 10
-34.7617
 20
-25.5666
 30
0.0
 10
-34.7086
 20
-25.6248
 30
0.0
 10
-34.6698
 20
-25.6999
 30
0.0
 10
-34.6698
 20
-25.6999
 30
0.0
 10
-34.631
 20
-25.7749
 30
0.0
 10
-34.6116
 20
-25.8641
 30
0.0
 10
-34.611
 20
-25.967
 30
0.0
  0
SPLINE
  5
61
330
1F
100
AcDbEntity
  8
Standard layer
 62
   250
100
AcDbSpline
210
0.0
220
0.0
230
1.0
 70
    11
 71
     3
 72
    56
 73
    52
 74
     0
 42
0.0000000001
 43
0.0000000001
 40
0.0
 40
0.0
 40
0.0
 40
0.0
 40
0.0714285714285714
 40
0.0714285714285714
 40
0.0714285714285714
 40
0.0714285714285714
 40
0.1428571428571428
 40
0.1428571428571428
 40
0.1428571428571428
 40
0.1428571428571428
 40
0.2142857142857143
 40
0.2142857142857143
 40
0.2142857142857143
 40
0.2142857142857143
 40
0.2857142857142857
 40
0.2857142857142857
 40
0.2857142857142857
 40
0.2857142857142857
 40
0.3571428571428572
 40
0.3571428571428572
 40
0.3571428571428572
 40
0.3571428571428572
 40
0.4285714285714285
 40
0.4285714285714285
 40
0.4285714285714285
 40
0.4285714285714285
 40
0.5
 40
0.5
 40
0.5
 40
0.5
 40
0.5714285714285714
 40
0.5714285714285714
 40
0.5714285714285714
 40
0.5714285714285714
 40
0.6428571428571429
 40
0.6428571428571429
 40
0.6428571428571429
 40
0.6428571428571429
 40
0.7142857142857143
 40
0.7142857142857143
 40
0.7142857142857143
 40
0.7142857142857143
 40
0.7857142857142857
 40
0.7857142857142857
 40
0.7857142857142857
 40
0.7857142857142857
 40
0.8571428571428571
 40
0.8571428571428571
 40
0.8571428571428571
 40
0.8571428571428571
 40
1.0
 40
1.0
 40
1.0
 40
1.0
 10
-36.7259
 20
-25.9631
 30
0.0
 10
-36.7253
 20
-25.8868
 30
0.0
 10
-36.7136
 20
-25.8215
 30
0.0
 10
-36.6903
 20
-25.7671
 30
0.0
 10
-36.6903
 20
-25.7671
 30
0.0
 10
-36.667
 20
-25.7128
 30
0.0
 10
-36.6354
 20
-25.6688
 30
0.0
 10
-36.5959
 20
-25.6345
 30
0.0
 10
-36.5959
 20
-25.6345
 30
0.0
 10
-36.5564
 20
-25.6009
 30
0.0
 10
-36.5125
 20
-25.5757
 30
0.0
 10
-36.464
 20
-25.5595
 30
0.0
 10
-36.464
 20
-25.5595
 30
0.0
 10
-36.4155
 20
-25.544
 30
0.0
 10
-36.3656
 20
-25.5362
 30
0.0
 10
-36.3146
 20
-25.5362
 30
0.0
 10
-36.3146
 20
-25.5362
 30
0.0
 10
-36.2382
 20
-25.5369
 30
0.0
 10
-36.1703
 20
-25.5537
 30
0.0
 10
-36.1108
 20
-25.5873
 30
0.0
 10
-36.1108
 20
-25.5873
 30
0.0
 10
-36.0507
 20
-25.621
 30
0.0
 10
-35.9996
 20
-25.6662
 30
0.0
 10
-35.9575
 20
-25.7244
 30
0.0
 10
-35.9575
 20
-25.7244
 30
0.0
 10
-35.9149
 20
-25.782
 30
0.0
 10
-35.8812
 20
-25.8473
 30
0.0
 10
-35.8566
 20
-25.9204
 30
0.0
 10
-35.8566
 20
-25.9204
 30
0.0
 10
-35.8825
 20
-26.0181
 30
0.0
 10
-35.9155
 20
-26.1028
 30
0.0
 10
-35.9556
 20
-26.1752
 30
0.0
 10
-35.9556
 20
-26.1752
 30
0.0
 10
-35.9963
 20
-26.2477
 30
0.0
 10
-36.0468
 20
-26.304
 30
0.0
 10
-36.1069
 20
-26.3434
 30
0.0
 10
-36.1069
 20
-26.3434
 30
0.0
 10
-36.1671
 20
-26.3829
 30
0.0
 10
-36.2389
 20
-26.4023
 30
0.0
 10
-36.3223
 20
-26.4016
 30
0.0
 10
-36.3223
 20
-26.4016
 30
0.0
 10
-36.396
 20
-26.4016
 30
0.0
 10
-36.4627
 20
-26.3848
 30
0.0
 10
-36.5235
 20
-26.3512
 30
0.0
 10
-36.5235
 20
-26.3512
 30
0.0
 10
-36.5843
 20
-26.3175
 30
0.0
 10
-36.6328
 20
-26.2677
 30
0.0
 10
-36.6696
 20
-26.2024
 30
0.0
 10
-36.6696
 20
-26.2024
 30
0.0
 10
-36.7065
 20
-26.1377
 30
0.0
 10
-36.7253
 20
-26.0575
 30
0.0
 10
-36.7259
 20
-25.9631
 30
0.0
  0
SPLINE
  5
62
330
1F
100
AcDbEntity
  8
Standard layer
 62
   250
100
AcDbSpline
210
0.0
220
0.0
230
1.0
 70
    11
 71
     3
 72
    36
 73
    32
 74
     0
 42
0.0000000001
 43
0.0000000001
 40
0.0
 40
0.0
 40
0.0
 40
0.0
 40
0.1111111111111111
 40
0.1111111111111111
 40
0.1111111111111111
 40
0.1111111111111111
 40
0.2222222222222222
 40
0.2222222222222222
 40
0.2222222222222222
 40
0.2222222222222222
 40
0.3333333333333333
 40
0.3333333333333333
 40
0.3333333333333333
 40
0.3333333333333333
 40
0.4444444444444444
 40
0.4444444444444444
 40
0.4444444444444444
 40
0.4444444444444444
 40
0.5555555555555556
 40
0.5555555555555556
 40
0.5555555555555556
 40
0.5555555555555556
 40
0.6666666666666666
 40
0.6666666666666666
 40
0.6666666666666666
 40
0.6666666666666666
 40
0.7777777777777778
 40
0.7777777777777778
 40
0.7777777777777778
 40
0.7777777777777778
 40
1.0
 40
1.0
 40
1.0
 40
1.0
 10
-38.2506
 20
7.1407
 30
0.0
 10
-38.2506
 20
7.1407
 30
0.0
 10
-37.9673
 20
7.1407
 30
0.0
 10
-37.9673
 20
7.1407
 30
0.0
 10
-37.9673
 20
7.1407
 30
0.0
 10
-37.9673
 20
7.1407
 30
0.0
 10
-37.9673
 20
8.3747
 30
0.0
 10
-37.9673
 20
8.3747
 30
0.0
 10
-37.9673
 20
8.3747
 30
0.0
 10
-37.9673
 20
8.3747
 30
0.0
 10
-37.9595
 20
8.3747
 30
0.0
 10
-37.9595
 20
8.3747
 30
0.0
 10
-37.9595
 20
8.3747
 30
0.0
 10
-37.9595
 20
8.3747
 30
0.0
 10
-35.7282
 20
7.2804
 30
0.0
 10
-35.7282
 20
7.2804
 30
0.0
 10
-35.7282
 20
7.2804
 30
0.0
 10
-35.7282
 20
7.2804
 30
0.0
 10
-35.7282
 20
7.6335
 30
0.0
 10
-35.7282
 20
7.6335
 30
0.0
 10
-35.7282
 20
7.6335
 30
0.0
 10
-35.7282
 20
7.6335
 30
0.0
 10
-38.0255
 20
8.7317
 30
0.0
 10
-38.0255
 20
8.7317
 30
0.0
 10
-38.0255
 20
8.7317
 30
0.0
 10
-38.0255
 20
8.7317
 30
0.0
 10
-38.2506
 20
8.7317
 30
0.0
 10
-38.2506
 20
8.7317
 30
0.0
 10
-38.2506
 20
8.7317
 30
0.0
 10
-38.2506
 20
8.7317
 30
0.0
 10
-38.2506
 20
7.1407
 30
0.0
 10
-38.2506
 20
7.1407
 30
0.0
  0
SPLINE
  5
63
330
1F
100
AcDbEntity
  8
Standard layer
 62
   250
370
     9
100
AcDbSpline
210
0.0
220
0.0
230
1.0
 70
    11
 71
     3
 72
    32
 73
    28
 74
     0
 42
0.0000000001
 43
0.0000000001
 40
0.0
 40
0.0
 40
0.0
 40
0.0
 40
0.125
 40
0.125
 40
0.125
 40
0.125
 40
0.25
 40
0.25
 40
0.25
 40
0.25
 40
0.375
 40
0.375
 40
0.375
 40
0.375
 40
0.5
 40
0.5
 40
0.5
 40
0.5
 40
0.625
 40
0.625
 40
0.625
 40
0.625
 40
0.75
 40
0.75
 40
0.75
 40
0.75
 40
1.0
 40
1.0
 40
1.0
 40
1.0
 10
-33.0036
 20
-33.5078
 30
0.0
 10
-33.0036
 20
-33.5078
 30
0.0
 10
-33.0036
 20
-33.5078
 30
0.0
 10
-33.0036
 20
-33.5078
 30
0.0
 10
-33.0036
 20
-33.5078
 30
0.0
 10
-33.0036
 20
-33.5078
 30
0.0
 10
-33.0036
 20
-33.5078
 30
0.0
 10
-33.0036
 20
-33.5078
 30
0.0
 10
-33.0036
 20
-33.5078
 30
0.0
 10
-33.0036
 20
-33.5078
 30
0.0
 10
-33.447
 20
-32.235
 30
0.0
 10
-33.447
 20
-32.235
 30
0.0
 10
-33.447
 20
-32.235
 30
0.0
 10
-33.447
 20
-32.235
 30
0.0
 10
-33.8904
 20
-33.5078
 30
0.0
 10
-33.8904
 20
-33.5078
 30
0.0
 10
-33.8904
 20
-33.5078
 30
0.0
 10
-33.8904
 20
-33.5078
 30
0.0
 10
-33.8904
 20
-33.5078
 30
0.0
 10
-33.8904
 20
-33.5078
 30
0.0
 10
-33.8904
 20
-33.5078
 30
0.0
 10
-33.8904
 20
-33.5078
 30
0.0
 10
-33.8904
 20
-33.5078
 30
0.0
 10
-33.8904
 20
-33.5078
 30
0.0
 10
-33.8904
 20
-33.5078
 30
0.0
 10
-33.8904
 20
-33.5078
 30
0.0
 10
-33.0036
 20
-33.5078
 30
0.0
 10
-33.0036
 20
-33.5078
 30
0.0
  0
SPLINE
  5
64
330
1F
100
AcDbEntity
  8
Standard layer
 62
   250
370
     9
100
AcDbSpline
210
0.0
220
0.0
230
1.0
 70
    11
 71
     3
 72
    32
 73
    28
 74
     0
 42
0.0000000001
 43
0.0000000001
 40
0.0
 40
0.0
 40
0.0
 40
0.0
 40
0.125
 40
0.125
 40
0.125
 40
0.125
 40
0.25
 40
0.25
 40
0.25
 40
0.25
 40
0.375
 40
0.375
 40
0.375
 40
0.375
 40
0.5
 40
0.5
 40
0.5
 40
0.5
 40
0.625
 40
0.625
 40
0.625
 40
0.625
 40
0.75
 40
0.75
 40
0.75
 40
0.75
 40
1.0
 40
1.0
 40
1.0
 40
1.0
 10
-34.7233
 20
2.9385
 30
0.0
 10
-34.7233
 20
2.9385
 30
0.0
 10
-34.7233
 20
2.9385
 30
0.0
 10
-34.7233
 20
2.9385
 30
0.0
 10
-34.7233
 20
2.9385
 30
0.0
 10
-34.7233
 20
2.9385
 30
0.0
 10
-34.7233
 20
2.9385
 30
0.0
 10
-34.7233
 20
2.9385
 30
0.0
 10
-34.7233
 20
2.9385
 30
0.0
 10
-34.7233
 20
2.9385
 30
0.0
 10
-35.1667
 20
4.2113
 30
0.0
 10
-35.1667
 20
4.2113
 30
0.0
 10
-35.1667
 20
4.2113
 30
0.0
 10
-35.1667
 20
4.2113
 30
0.0
 10
-35.6101
 20
2.9385
 30
0.0
 10
-35.6101
 20
2.9385
 30
0.0
 10
-35.6101
 20
2.9385
 30
0.0
 10
-35.6101
 20
2.9385
 30
0.0
 10
-35.6101
 20
2.9385
 30
0.0
 10
-35.6101
 20
2.9385
 30
0.0
 10
-35.6101
 20
2.9385
 30
0.0
 10
-35.6101
 20
2.9385
 30
0.0
 10
-35.6101
 20
2.9385
 30
0.0
 10
-35.6101
 20
2.9385
 30
0.0
 10
-35.6101
 20
2.9385
 30
0.0
 10
-35.6101
 20
2.9385
 30
0.0
 10
-34.7233
 20
2.9385
 30
0.0
 10
-34.7233
 20
2.9385
 30
0.0
  0
SPLINE
  5
65
330
1F
100
AcDbEntity
  8
Standard layer
 62
   250
370
     9
100
AcDbSpline
210
0.0
220
0.0
230
1.0
 70
    11
 71
     3
 72
    32
 73
    28
 74
     0
 42
0.0000000001
 43
0.0000000001
 40
0.0
 40
0.0
 40
0.0
 40
0.0
 40
0.125
 40
0.125
 40
0.125
 40
0.125
 40
0.25
 40
0.25
 40
0.25
 40
0.25
 40
0.375
 40
0.375
 40
0.375
 40
0.375
 40
0.5
 40
0.5
 40
0.5
 40
0.5
 40
0.625
 40
0.625
 40
0.625
 40
0.625
 40
0.75
 40
0.75
 40
0.75
 40
0.75
 40
1.0
 40
1.0
 40
1.0
 40
1.0
 10
-33.0376
 20
-30.0213
 30
0.0
 10
-33.0376
 20
-30.0213
 30
0.0
 10
-33.0376
 20
-30.0213
 30
0.0
 10
-33.0376
 20
-30.0213
 30
0.0
 10
-33.0376
 20
-30.0213
 30
0.0
 10
-33.0376
 20
-30.0213
 30
0.0
 10
-33.0376
 20
-30.0213
 30
0.0
 10
-33.0376
 20
-30.0213
 30
0.0
 10
-33.0376
 20
-30.0213
 30
0.0
 10
-33.0376
 20
-30.0213
 30
0.0
 10
-33.481
 20
-31.2941
 30
0.0
 10
-33.481
 20
-31.2941
 30
0.0
 10
-33.481
 20
-31.2941
 30
0.0
 10
-33.481
 20
-31.2941
 30
0.0
 10
-33.9244
 20
-30.0213
 30
0.0
 10
-33.9244
 20
-30.0213
 30
0.0
 10
-33.9244
 20
-30.0213
 30
0.0
 10
-33.9244
 20
-30.0213
 30
0.0
 10
-33.9244
 20
-30.0213
 30
0.0
 10
-33.9244
 20
-30.0213
 30
0.0
 10
-33.9244
 20
-30.0213
 30
0.0
 10
-33.9244
 20
-30.0213
 30
0.0
 10
-33.9244
 20
-30.0213
 30
0.0
 10
-33.9244
 20
-30.0213
 30
0.0
 10
-33.9244
 20
-30.0213
 30
0.0
 10
-33.9244
 20
-30.0213
 30
0.0
 10
-33.0376
 20
-30.0213
 30
0.0
 10
-33.0376
 20
-30.0213
 30
0.0
  0
SPLINE
  5
66
330
1F
100
AcDbEntity
  8
Standard layer
 62
   250
370
     9
100
AcDbSpline
210
0.0
220
0.0
230
1.0
 70
    11
 71
     3
 72
    32
 73
    28
 74
     0
 42
0.0000000001
 43
0.0000000001
 40
0.0
 40
0.0
 40
0.0
 40
0.0
 40
0.125
 40
0.125
 40
0.125
 40
0.125
 40
0.25
 40
0.25
 40
0.25
 40
0.25
 40
0.375
 40
0.375
 40
0.375
 40
0.375
 40
0.5
 40
0.5
 40
0.5
 40
0.5
 40
0.625
 40
0.625
 40
0.625
 40
0.625
 40
0.75
 40
0.75
 40
0.75
 40
0.75
 40
1.0
 40
1.0
 40
1.0
 40
1.0
 10
-34.7905
 20
12.5766
 30
0.0
 10
-34.7905
 20
12.5766
 30
0.0
 10
-34.7905
 20
12.5766
 30
0.0
 10
-34.7905
 20
12.5766
 30
0.0
 10
-34.7905
 20
12.5766
 30
0.0
 10
-34.7905
 20
12.5766
 30
0.0
 10
-34.7905
 20
12.5766
 30
0.0
 10
-34.7905
 20
12.5766
 30
0.0
 10
-34.7905
 20
12.5766
 30
0.0
 10
-34.7905
 20
12.5766
 30
0.0
 10
-35.2339
 20
11.3038
 30
0.0
 10
-35.2339
 20
11.3038
 30
0.0
 10
-35.2339
 20
11.3038
 30
0.0
 10
-35.2339
 20
11.3038
 30
0.0
 10
-35.6773
 20
12.5766
 30
0.0
 10
-35.6773
 20
12.5766
 30
0.0
 10
-35.6773
 20
12.5766
 30
0.0
 10
-35.6773
 20
12.5766
 30
0.0
 10
-35.6773
 20
12.5766
 30
0.0
 10
-35.6773
 20
12.5766
 30
0.0
 10
-35.6773
 20
12.5766
 30
0.0
 10
-35.6773
 20
12.5766
 30
0.0
 10
-35.6773
 20
12.5766
 30
0.0
 10
-35.6773
 20
12.5766
 30
0.0
 10
-35.6773
 20
12.5766
 30
0.0
 10
-35.6773
 20
12.5766
 30
0.0
 10
-34.7905
 20
12.5766
 30
0.0
 10
-34.7905
 20
12.5766
 30
0.0
  0
SPLINE
  5
67
330
1F
100
AcDbEntity
  8
Standard layer
 62
   250
370
    30
100
AcDbSpline
210
0.0
220
0.0
230
1.0
 70
    24
 71
     3
 72
     8
 73
     4
 74
     0
 42
0.0000000001
 43
0.0000000001
 40
0.0
 40
0.0
 40
0.0
 40
0.0
 40
1.0
 40
1.0
 40
1.0
 40
1.0
 10
-28.044
 20
9.2844
 30
0.0
 10
-28.044
 20
9.2844
 30
0.0
 10
-28.044
 20
6.2844
 30
0.0
 10
-28.044
 20
6.2844
 30
0.0
  0
SPLINE
  5
68
330
1F
100
AcDbEntity
  8
Standard layer
 62
   250
370
    30
100
AcDbSpline
210
0.0
220
0.0
230
1.0
 70
    24
 71
     3
 72
     8
 73
     4
 74
     0
 42
0.0000000001
 43
0.0000000001
 40
0.0
 40
0.0
 40
0.0
 40
0.0
 40
1.0
 40
1.0
 40
1.0
 40
1.0
 10
-12.044
 20
12.2844
 30
0.0
 10
-12.044
 20
12.2844
 30
0.0
 10
-12.044
 20
11.2844
 30
0.0
 10
-12.044
 20
11.2844
 30
0.0
  0
SPLINE
  5
69
330
1F
100
AcDbEntity
  8
Standard layer
 62
   250
370
    30
100
AcDbSpline
210
0.0
220
0.0
230
1.0
 70
    24
 71
     3
 72
     8
 73
     4
 74
     0
 42
0.0000000001
 43
0.0000000001
 40
0.0
 40
0.0
 40
0.0
 40
0.0
 40
1.0
 40
1.0
 40
1.0
 40
1.0
 10
-12.044
 20
4.2844
 30
0.0
 10
-12.044
 20
4.2844
 30
0.0
 10
-12.044
 20
3.2844
 30
0.0
 10
-12.044
 20
3.2844
 30
0.0
  0
SPLINE
  5
6A
330
1F
100
AcDbEntity
  8
Standard layer
 62
   250
370
    30
100
AcDbSpline
210
0.0
220
0.0
230
1.0
 70
    24
 71
     3
 72
     8
 73
     4
 74
     0
 42
0.0000000001
 43
0.0000000001
 40
0.0
 40
0.0
 40
0.0
 40
0.0
 40
1.0
 40
1.0
 40
1.0
 40
1.0
 10
-26.044
 20
4.2844
 30
0.0
 10
-26.044
 20
4.2844
 30
0.0
 10
-12.044
 20
4.2844
 30
0.0
 10
-12.044
 20
4.2844
 30
0.0
  0
SPLINE
  5
6B
330
1F
100
AcDbEntity
  8
Standard layer
 62
   250
370
    30
100
AcDbSpline
210
0.0
220
0.0
230
1.0
 70
    24
 71
     3
 72
     8
 73
     4
 74
     0
 42
0.0000000001
 43
0.0000000001
 40
0.0
 40
0.0
 40
0.0
 40
0.0
 40
1.0
 40
1.0
 40
1.0
 40
1.0
 10
20.956
 20
4.2844
 30
0.0
 10
20.956
 20
4.2844
 30
0.0
 10
34.956
 20
4.2844
 30
0.0
 10
34.956
 20
4.2844
 30
0.0
  0
SPLINE
  5
6C
330
1F
100
AcDbEntity
  8
Standard layer
 62
   250
370
    30
100
AcDbSpline
210
0.0
220
0.0
230
1.0
 70
    24
 71
     3
 72
     8
 73
     4
 74
     0
 42
0.0000000001
 43
0.0000000001
 40
0.0
 40
0.0
 40
0.0
 40
0.0
 40
1.0
 40
1.0
 40
1.0
 40
1.0
 10
34.956
 20
11.2844
 30
0.0
 10
34.956
 20
11.2844
 30
0.0
 10
20.956
 20
11.2844
 30
0.0
 10
20.956
 20
11.2844
 30
0.0
  0
SPLINE
  5
6D
330
1F
100
AcDbEntity
  8
Standard layer
 62
   250
370
    30
100
AcDbSpline
210
0.0
220
0.0
230
1.0
 70
    24
 71
     3
 72
     8
 73
     4
 74
     0
 42
0.0000000001
 43
0.0000000001
 40
0.0
 40
0.0
 40
0.0
 40
0.0
 40
1.0
 40
1.0
 40
1.0
 40
1.0
 10
-12.044
 20
11.2844
 30
0.0
 10
-12.044
 20
11.2844
 30
0.0
 10
-26.044
 20
11.2844
 30
0.0
 10
-26.044
 20
11.2844
 30
0.0
  0
SPLINE
  5
6E
330
1F
100
AcDbEntity
  8
Standard layer
 62
   250
370
    30
100
AcDbSpline
210
0.0
220
0.0
230
1.0
 70
    24
 71
     3
 72
     8
 73
     4
 74
     0
 42
0.0000000001
 43
0.0000000001
 40
0.0
 40
0.0
 40
0.0
 40
0.0
 40
1.0
 40
1.0
 40
1.0
 40
1.0
 10
20.956
 20
3.2844
 30
0.0
 10
20.956
 20
3.2844
 30
0.0
 10
20.956
 20
4.2844
 30
0.0
 10
20.956
 20
4.2844
 30
0.0
  0
SPLINE
  5
6F
330
1F
100
AcDbEntity
  8
Standard layer
 62
   250
370
    30
100
AcDbSpline
210
0.0
220
0.0
230
1.0
 70
    24
 71
     3
 72
     8
 73
     4
 74
     0
 42
0.0000000001
 43
0.0000000001
 40
0.0
 40
0.0
 40
0.0
 40
0.0
 40
1.0
 40
1.0
 40
1.0
 40
1.0
 10
20.956
 20
11.2844
 30
0.0
 10
20.956
 20
11.2844
 30
0.0
 10
20.956
 20
12.2844
 30
0.0
 10
20.956
 20
12.2844
 30
0.0
  0
SPLINE
  5
70
330
1F
100
AcDbEntity
  8
Standard layer
 62
   250
370
    30
100
AcDbSpline
210
0.0
220
0.0
230
1.0
 70
    24
 71
     3
 72
     8
 73
     4
 74
     0
 42
0.0000000001
 43
0.0000000001
 40
0.0
 40
0.0
 40
0.0
 40
0.0
 40
1.0
 40
1.0
 40
1.0
 40
1.0
 10
36.956
 20
6.2844
 30
0.0
 10
36.956
 20
6.2844
 30
0.0
 10
36.956
 20
9.2844
 30
0.0
 10
36.956
 20
9.2844
 30
0.0
  0
SPLINE
  5
71
330
1F
100
AcDbEntity
  8
Standard layer
 62
   250
370
    30
100
AcDbSpline
210
0.0
220
0.0
230
1.0
 70
    11
 71
     3
 72
    20
 73
    16
 74
     0
 42
0.0000000001
 43
0.0000000001
 40
0.0
 40
0.0
 40
0.0
 40
0.0
 40
0.2
 40
0.2
 40
0.2
 40
0.2
 40
0.4
 40
0.4
 40
0.4
 40
0.4
 40
0.6
 40
0.6
 40
0.6
 40
0.6
 40
1.0
 40
1.0
 40
1.0
 40
1.0
 10
3.706
 20
0.4232
 30
0.0
 10
3.706
 20
2.3562
 30
0.0
 10
2.139
 20
3.9232
 30
0.0
 10
0.206
 20
3.9232
 30
0.0
 10
0.206
 20
3.9232
 30
0.0
 10
-1.727
 20
3.9232
 30
0.0
 10
-3.294
 20
2.3562
 30
0.0
 10
-3.294
 20
0.4232
 30
0.0
 10
-3.294
 20
0.4232
 30
0.0
 10
-3.294
 20
-1.5098
 30
0.0
 10
-1.727
 20
-3.0768
 30
0.0
 10
0.206
 20
-3.0768
 30
0.0
 10
0.206
 20
-3.0768
 30
0.0
 10
2.139
 20
-3.0768
 30
0.0
 10
3.706
 20
-1.5098
 30
0.0
 10
3.706
 20
0.4232
 30
0.0
  0
SPLINE
  5
72
330
1F
100
AcDbEntity
  8
Standard layer
 62
   250
370
    30
100
AcDbSpline
210
0.0
220
0.0
230
1.0
 70
    11
 71
     3
 72
    20
 73
    16
 74
     0
 42
0.0000000001
 43
0.0000000001
 40
0.0
 40
0.0
 40
0.0
 40
0.0
 40
0.2
 40
0.2
 40
0.2
 40
0.2
 40
0.4
 40
0.4
 40
0.4
 40
0.4
 40
0.6
 40
0.6
 40
0.6
 40
0.6
 40
1.0
 40
1.0
 40
1.0
 40
1.0
 10
-4.794
 20
0.4232
 30
0.0
 10
-4.794
 20
2.3562
 30
0.0
 10
-6.361
 20
3.9232
 30
0.0
 10
-8.294
 20
3.9232
 30
0.0
 10
-8.294
 20
3.9232
 30
0.0
 10
-10.227
 20
3.9232
 30
0.0
 10
-11.794
 20
2.3562
 30
0.0
 10
-11.794
 20
0.4232
 30
0.0
 10
-11.794
 20
0.4232
 30
0.0
 10
-11.794
 20
-1.5098
 30
0.0
 10
-10.227
 20
-3.0768
 30
0.0
 10
-8.294
 20
-3.0768
 30
0.0
 10
-8.294
 20
-3.0768
 30
0.0
 10
-6.361
 20
-3.0768
 30
0.0
 10
-4.794
 20
-1.5098
 30
0.0
 10
-4.794
 20
0.4232
 30
0.0
  0
SPLINE
  5
73
330
1F
100
AcDbEntity
  8
Standard layer
 62
   250
370
    30
100
AcDbSpline
210
0.0
220
0.0
230
1.0
 70
     8
 71
     3
 72
     8
 73
     4
 74
     0
 42
0.0000000001
 43
0.0000000001
 40
0.0
 40
0.0
 40
0.0
 40
0.0
 40
1.0
 40
1.0
 40
1.0
 40
1.0
 10
-28.044
 20
6.2844
 30
0.0
 10
-28.044
 20
5.1799
 30
0.0
 10
-27.1486
 20
4.2844
 30
0.0
 10
-26.044
 20
4.2844
 30
0.0
  0
SPLINE
  5
74
330
1F
100
AcDbEntity
  8
Standard layer
 62
   250
370
    30
100
AcDbSpline
210
0.0
220
0.0
230
1.0
 70
    11
 71
     3
 72
    20
 73
    16
 74
     0
 42
0.0000000001
 43
0.0000000001
 40
0.0
 40
0.0
 40
0.0
 40
0.0
 40
0.2
 40
0.2
 40
0.2
 40
0.2
 40
0.4
 40
0.4
 40
0.4
 40
0.4
 40
0.6
 40
0.6
 40
0.6
 40
0.6
 40
1.0
 40
1.0
 40
1.0
 40
1.0
 10
-0.544
 20
7.7844
 30
0.0
 10
-0.544
 20
9.7174
 30
0.0
 10
-2.111
 20
11.2844
 30
0.0
 10
-4.044
 20
11.2844
 30
0.0
 10
-4.044
 20
11.2844
 30
0.0
 10
-5.977
 20
11.2844
 30
0.0
 10
-7.544
 20
9.7174
 30
0.0
 10
-7.544
 20
7.7844
 30
0.0
 10
-7.544
 20
7.7844
 30
0.0
 10
-7.544
 20
5.8514
 30
0.0
 10
-5.977
 20
4.2844
 30
0.0
 10
-4.044
 20
4.2844
 30
0.0
 10
-4.044
 20
4.2844
 30
0.0
 10
-2.111
 20
4.2844
 30
0.0
 10
-0.544
 20
5.8514
 30
0.0
 10
-0.544
 20
7.7844
 30
0.0
  0
SPLINE
  5
75
330
1F
100
AcDbEntity
  8
Standard layer
 62
   250
370
    30
100
AcDbSpline
210
0.0
220
0.0
230
1.0
 70
    11
 71
     3
 72
    20
 73
    16
 74
     0
 42
0.0000000001
 43
0.0000000001
 40
0.0
 40
0.0
 40
0.0
 40
0.0
 40
0.2
 40
0.2
 40
0.2
 40
0.2
 40
0.4
 40
0.4
 40
0.4
 40
0.4
 40
0.6
 40
0.6
 40
0.6
 40
0.6
 40
1.0
 40
1.0
 40
1.0
 40
1.0
 10
3.706
 20
15.1456
 30
0.0
 10
3.706
 20
17.0786
 30
0.0
 10
2.139
 20
18.6456
 30
0.0
 10
0.206
 20
18.6456
 30
0.0
 10
0.206
 20
18.6456
 30
0.0
 10
-1.727
 20
18.6456
 30
0.0
 10
-3.294
 20
17.0786
 30
0.0
 10
-3.294
 20
15.1456
 30
0.0
 10
-3.294
 20
15.1456
 30
0.0
 10
-3.294
 20
13.2127
 30
0.0
 10
-1.727
 20
11.6456
 30
0.0
 10
0.206
 20
11.6456
 30
0.0
 10
0.206
 20
11.6456
 30
0.0
 10
2.139
 20
11.6456
 30
0.0
 10
3.706
 20
13.2127
 30
0.0
 10
3.706
 20
15.1456
 30
0.0
  0
SPLINE
  5
76
330
1F
100
AcDbEntity
  8
Standard layer
 62
   250
370
    30
100
AcDbSpline
210
0.0
220
0.0
230
1.0
 70
    11
 71
     3
 72
    20
 73
    16
 74
     0
 42
0.0000000001
 43
0.0000000001
 40
0.0
 40
0.0
 40
0.0
 40
0.0
 40
0.2
 40
0.2
 40
0.2
 40
0.2
 40
0.4
 40
0.4
 40
0.4
 40
0.4
 40
0.6
 40
0.6
 40
0.6
 40
0.6
 40
1.0
 40
1.0
 40
1.0
 40
1.0
 10
-4.794
 20
15.1456
 30
0.0
 10
-4.794
 20
17.0786
 30
0.0
 10
-6.361
 20
18.6456
 30
0.0
 10
-8.294
 20
18.6456
 30
0.0
 10
-8.294
 20
18.6456
 30
0.0
 10
-10.227
 20
18.6456
 30
0.0
 10
-11.794
 20
17.0786
 30
0.0
 10
-11.794
 20
15.1456
 30
0.0
 10
-11.794
 20
15.1456
 30
0.0
 10
-11.794
 20
13.2127
 30
0.0
 10
-10.227
 20
11.6456
 30
0.0
 10
-8.294
 20
11.6456
 30
0.0
 10
-8.294
 20
11.6456
 30
0.0
 10
-6.361
 20
11.6456
 30
0.0
 10
-4.794
 20
13.2127
 30
0.0
 10
-4.794
 20
15.1456
 30
0.0
  0
SPLINE
  5
77
330
1F
100
AcDbEntity
  8
Standard layer
 62
   250
370
    30
100
AcDbSpline
210
0.0
220
0.0
230
1.0
 70
     8
 71
     3
 72
     8
 73
     4
 74
     0
 42
0.0000000001
 43
0.0000000001
 40
0.0
 40
0.0
 40
0.0
 40
0.0
 40
1.0
 40
1.0
 40
1.0
 40
1.0
 10
-13.7007
 20
5.9121
 30
0.0
 10
-13.2436
 20
5.5077
 30
0.0
 10
-12.6543
 20
5.2844
 30
0.0
 10
-12.044
 20
5.2844
 30
0.0
  0
SPLINE
  5
78
330
1F
100
AcDbEntity
  8
Standard layer
 62
   250
370
    30
100
AcDbSpline
210
0.0
220
0.0
230
1.0
 70
     8
 71
     3
 72
     8
 73
     4
 74
     0
 42
0.0000000001
 43
0.0000000001
 40
0.0
 40
0.0
 40
0.0
 40
0.0
 40
1.0
 40
1.0
 40
1.0
 40
1.0
 10
-12.044
 20
10.2844
 30
0.0
 10
-12.6543
 20
10.2844
 30
0.0
 10
-13.2436
 20
10.0612
 30
0.0
 10
-13.7007
 20
9.6567
 30
0.0
  0
SPLINE
  5
79
330
1F
100
AcDbEntity
  8
Standard layer
 62
   250
370
    30
100
AcDbSpline
210
0.0
220
0.0
230
1.0
 70
     8
 71
     3
 72
     8
 73
     4
 74
     0
 42
0.0000000001
 43
0.0000000001
 40
0.0
 40
0.0
 40
0.0
 40
0.0
 40
1.0
 40
1.0
 40
1.0
 40
1.0
 10
-26.044
 20
11.2844
 30
0.0
 10
-27.1486
 20
11.2844
 30
0.0
 10
-28.044
 20
10.389
 30
0.0
 10
-28.044
 20
9.2844
 30
0.0
  0
SPLINE
  5
7A
330
1F
100
AcDbEntity
  8
Standard layer
 62
   250
370
    30
100
AcDbSpline
210
0.0
220
0.0
230
1.0
 70
    11
 71
     3
 72
    20
 73
    16
 74
     0
 42
0.0000000001
 43
0.0000000001
 40
0.0
 40
0.0
 40
0.0
 40
0.0
 40
0.2
 40
0.2
 40
0.2
 40
0.2
 40
0.4
 40
0.4
 40
0.4
 40
0.4
 40
0.6
 40
0.6
 40
0.6
 40
0.6
 40
1.0
 40
1.0
 40
1.0
 40
1.0
 10
12.206
 20
0.4232
 30
0.0
 10
12.206
 20
2.3562
 30
0.0
 10
10.639
 20
3.9232
 30
0.0
 10
8.706
 20
3.9232
 30
0.0
 10
8.706
 20
3.9232
 30
0.0
 10
6.773
 20
3.9232
 30
0.0
 10
5.206
 20
2.3562
 30
0.0
 10
5.206
 20
0.4232
 30
0.0
 10
5.206
 20
0.4232
 30
0.0
 10
5.206
 20
-1.5098
 30
0.0
 10
6.773
 20
-3.0768
 30
0.0
 10
8.706
 20
-3.0768
 30
0.0
 10
8.706
 20
-3.0768
 30
0.0
 10
10.639
 20
-3.0768
 30
0.0
 10
12.206
 20
-1.5098
 30
0.0
 10
12.206
 20
0.4232
 30
0.0
  0
SPLINE
  5
7B
330
1F
100
AcDbEntity
  8
Standard layer
 62
   250
370
    30
100
AcDbSpline
210
0.0
220
0.0
230
1.0
 70
    11
 71
     3
 72
    20
 73
    16
 74
     0
 42
0.0000000001
 43
0.0000000001
 40
0.0
 40
0.0
 40
0.0
 40
0.0
 40
0.2
 40
0.2
 40
0.2
 40
0.2
 40
0.4
 40
0.4
 40
0.4
 40
0.4
 40
0.6
 40
0.6
 40
0.6
 40
0.6
 40
1.0
 40
1.0
 40
1.0
 40
1.0
 10
20.706
 20
0.4232
 30
0.0
 10
20.706
 20
2.3562
 30
0.0
 10
19.139
 20
3.9232
 30
0.0
 10
17.206
 20
3.9232
 30
0.0
 10
17.206
 20
3.9232
 30
0.0
 10
15.273
 20
3.9232
 30
0.0
 10
13.706
 20
2.3562
 30
0.0
 10
13.706
 20
0.4232
 30
0.0
 10
13.706
 20
0.4232
 30
0.0
 10
13.706
 20
-1.5098
 30
0.0
 10
15.273
 20
-3.0768
 30
0.0
 10
17.206
 20
-3.0768
 30
0.0
 10
17.206
 20
-3.0768
 30
0.0
 10
19.139
 20
-3.0768
 30
0.0
 10
20.706
 20
-1.5098
 30
0.0
 10
20.706
 20
0.4232
 30
0.0
  0
SPLINE
  5
7C
330
1F
100
AcDbEntity
  8
Standard layer
 62
   250
370
    30
100
AcDbSpline
210
0.0
220
0.0
230
1.0
 70
    11
 71
     3
 72
    20
 73
    16
 74
     0
 42
0.0000000001
 43
0.0000000001
 40
0.0
 40
0.0
 40
0.0
 40
0.0
 40
0.2
 40
0.2
 40
0.2
 40
0.2
 40
0.4
 40
0.4
 40
0.4
 40
0.4
 40
0.6
 40
0.6
 40
0.6
 40
0.6
 40
1.0
 40
1.0
 40
1.0
 40
1.0
 10
7.956
 20
-6.938
 30
0.0
 10
7.956
 20
-5.005
 30
0.0
 10
6.389
 20
-3.438
 30
0.0
 10
4.456
 20
-3.438
 30
0.0
 10
4.456
 20
-3.438
 30
0.0
 10
2.523
 20
-3.438
 30
0.0
 10
0.956
 20
-5.005
 30
0.0
 10
0.956
 20
-6.938
 30
0.0
 10
0.956
 20
-6.938
 30
0.0
 10
0.956
 20
-8.871
 30
0.0
 10
2.523
 20
-10.438
 30
0.0
 10
4.456
 20
-10.438
 30
0.0
 10
4.456
 20
-10.438
 30
0.0
 10
6.389
 20
-10.438
 30
0.0
 10
7.956
 20
-8.871
 30
0.0
 10
7.956
 20
-6.938
 30
0.0
  0
SPLINE
  5
7D
330
1F
100
AcDbEntity
  8
Standard layer
 62
   250
370
    30
100
AcDbSpline
210
0.0
220
0.0
230
1.0
 70
     8
 71
     3
 72
     8
 73
     4
 74
     0
 42
0.0000000001
 43
0.0000000001
 40
0.0
 40
0.0
 40
0.0
 40
0.0
 40
1.0
 40
1.0
 40
1.0
 40
1.0
 10
34.956
 20
4.2844
 30
0.0
 10
36.0605
 20
4.2844
 30
0.0
 10
36.956
 20
5.1799
 30
0.0
 10
36.956
 20
6.2844
 30
0.0
  0
SPLINE
  5
7E
330
1F
100
AcDbEntity
  8
Standard layer
 62
   250
370
    30
100
AcDbSpline
210
0.0
220
0.0
230
1.0
 70
    11
 71
     3
 72
    20
 73
    16
 74
     0
 42
0.0000000001
 43
0.0000000001
 40
0.0
 40
0.0
 40
0.0
 40
0.0
 40
0.2
 40
0.2
 40
0.2
 40
0.2
 40
0.4
 40
0.4
 40
0.4
 40
0.4
 40
0.6
 40
0.6
 40
0.6
 40
0.6
 40
1.0
 40
1.0
 40
1.0
 40
1.0
 10
7.956
 20
7.7844
 30
0.0
 10
7.956
 20
9.7174
 30
0.0
 10
6.389
 20
11.2844
 30
0.0
 10
4.456
 20
11.2844
 30
0.0
 10
4.456
 20
11.2844
 30
0.0
 10
2.523
 20
11.2844
 30
0.0
 10
0.956
 20
9.7174
 30
0.0
 10
0.956
 20
7.7844
 30
0.0
 10
0.956
 20
7.7844
 30
0.0
 10
0.956
 20
5.8514
 30
0.0
 10
2.523
 20
4.2844
 30
0.0
 10
4.456
 20
4.2844
 30
0.0
 10
4.456
 20
4.2844
 30
0.0
 10
6.389
 20
4.2844
 30
0.0
 10
7.956
 20
5.8514
 30
0.0
 10
7.956
 20
7.7844
 30
0.0
  0
SPLINE
  5
7F
330
1F
100
AcDbEntity
  8
Standard layer
 62
   250
370
    30
100
AcDbSpline
210
0.0
220
0.0
230
1.0
 70
    11
 71
     3
 72
    20
 73
    16
 74
     0
 42
0.0000000001
 43
0.0000000001
 40
0.0
 40
0.0
 40
0.0
 40
0.0
 40
0.2
 40
0.2
 40
0.2
 40
0.2
 40
0.4
 40
0.4
 40
0.4
 40
0.4
 40
0.6
 40
0.6
 40
0.6
 40
0.6
 40
1.0
 40
1.0
 40
1.0
 40
1.0
 10
16.456
 20
7.7844
 30
0.0
 10
16.456
 20
9.7174
 30
0.0
 10
14.889
 20
11.2844
 30
0.0
 10
12.956
 20
11.2844
 30
0.0
 10
12.956
 20
11.2844
 30
0.0
 10
11.023
 20
11.2844
 30
0.0
 10
9.456
 20
9.7174
 30
0.0
 10
9.456
 20
7.7844
 30
0.0
 10
9.456
 20
7.7844
 30
0.0
 10
9.456
 20
5.8514
 30
0.0
 10
11.023
 20
4.2844
 30
0.0
 10
12.956
 20
4.2844
 30
0.0
 10
12.956
 20
4.2844
 30
0.0
 10
14.889
 20
4.2844
 30
0.0
 10
16.456
 20
5.8514
 30
0.0
 10
16.456
 20
7.7844
 30
0.0
  0
SPLINE
  5
80
330
1F
100
AcDbEntity
  8
Standard layer
 62
   250
370
    30
100
AcDbSpline
210
0.0
220
0.0
230
1.0
 70
    11
 71
     3
 72
    20
 73
    16
 74
     0
 42
0.0000000001
 43
0.0000000001
 40
0.0
 40
0.0
 40
0.0
 40
0.0
 40
0.2
 40
0.2
 40
0.2
 40
0.2
 40
0.4
 40
0.4
 40
0.4
 40
0.4
 40
0.6
 40
0.6
 40
0.6
 40
0.6
 40
1.0
 40
1.0
 40
1.0
 40
1.0
 10
12.206
 20
15.1456
 30
0.0
 10
12.206
 20
17.0786
 30
0.0
 10
10.639
 20
18.6456
 30
0.0
 10
8.706
 20
18.6456
 30
0.0
 10
8.706
 20
18.6456
 30
0.0
 10
6.773
 20
18.6456
 30
0.0
 10
5.206
 20
17.0786
 30
0.0
 10
5.206
 20
15.1456
 30
0.0
 10
5.206
 20
15.1456
 30
0.0
 10
5.206
 20
13.2127
 30
0.0
 10
6.773
 20
11.6456
 30
0.0
 10
8.706
 20
11.6456
 30
0.0
 10
8.706
 20
11.6456
 30
0.0
 10
10.639
 20
11.6456
 30
0.0
 10
12.206
 20
13.2127
 30
0.0
 10
12.206
 20
15.1456
 30
0.0
  0
SPLINE
  5
81
330
1F
100
AcDbEntity
  8
Standard layer
 62
   250
370
    30
100
AcDbSpline
210
0.0
220
0.0
230
1.0
 70
    11
 71
     3
 72
    20
 73
    16
 74
     0
 42
0.0000000001
 43
0.0000000001
 40
0.0
 40
0.0
 40
0.0
 40
0.0
 40
0.2
 40
0.2
 40
0.2
 40
0.2
 40
0.4
 40
0.4
 40
0.4
 40
0.4
 40
0.6
 40
0.6
 40
0.6
 40
0.6
 40
1.0
 40
1.0
 40
1.0
 40
1.0
 10
7.956
 20
22.5069
 30
0.0
 10
7.956
 20
24.4399
 30
0.0
 10
6.389
 20
26.0069
 30
0.0
 10
4.456
 20
26.0069
 30
0.0
 10
4.456
 20
26.0069
 30
0.0
 10
2.523
 20
26.0069
 30
0.0
 10
0.956
 20
24.4399
 30
0.0
 10
0.956
 20
22.5069
 30
0.0
 10
0.956
 20
22.5069
 30
0.0
 10
0.956
 20
20.5739
 30
0.0
 10
2.523
 20
19.0069
 30
0.0
 10
4.456
 20
19.0069
 30
0.0
 10
4.456
 20
19.0069
 30
0.0
 10
6.389
 20
19.0069
 30
0.0
 10
7.956
 20
20.5739
 30
0.0
 10
7.956
 20
22.5069
 30
0.0
  0
SPLINE
  5
82
330
1F
100
AcDbEntity
  8
Standard layer
 62
   250
370
    30
100
AcDbSpline
210
0.0
220
0.0
230
1.0
 70
     8
 71
     3
 72
     8
 73
     4
 74
     0
 42
0.0000000001
 43
0.0000000001
 40
0.0
 40
0.0
 40
0.0
 40
0.0
 40
1.0
 40
1.0
 40
1.0
 40
1.0
 10
20.956
 20
5.2844
 30
0.0
 10
21.5663
 20
5.2844
 30
0.0
 10
22.1555
 20
5.5077
 30
0.0
 10
22.6126
 20
5.9121
 30
0.0
  0
SPLINE
  5
83
330
1F
100
AcDbEntity
  8
Standard layer
 62
   250
370
    30
100
AcDbSpline
210
0.0
220
0.0
230
1.0
 70
     8
 71
     3
 72
     8
 73
     4
 74
     0
 42
0.0000000001
 43
0.0000000001
 40
0.0
 40
0.0
 40
0.0
 40
0.0
 40
1.0
 40
1.0
 40
1.0
 40
1.0
 10
22.6126
 20
9.6567
 30
0.0
 10
22.1555
 20
10.0612
 30
0.0
 10
21.5663
 20
10.2844
 30
0.0
 10
20.956
 20
10.2844
 30
0.0
  0
SPLINE
  5
84
330
1F
100
AcDbEntity
  8
Standard layer
 62
   250
370
    30
100
AcDbSpline
210
0.0
220
0.0
230
1.0
 70
     8
 71
     3
 72
     8
 73
     4
 74
     0
 42
0.0000000001
 43
0.0000000001
 40
0.0
 40
0.0
 40
0.0
 40
0.0
 40
1.0
 40
1.0
 40
1.0
 40
1.0
 10
22.8715
 20
9.3909
 30
0.0
 10
23.7422
 20
8.3527
 30
0.0
 10
23.6274
 20
6.81
 30
0.0
 10
22.6126
 20
5.9121
 30
0.0
  0
SPLINE
  5
85
330
1F
100
AcDbEntity
  8
Standard layer
 62
   250
370
    30
100
AcDbSpline
210
0.0
220
0.0
230
1.0
 70
     8
 71
     3
 72
     8
 73
     4
 74
     0
 42
0.0000000001
 43
0.0000000001
 40
0.0
 40
0.0
 40
0.0
 40
0.0
 40
1.0
 40
1.0
 40
1.0
 40
1.0
 10
19.0405
 20
6.1779
 30
0.0
 10
19.5155
 20
5.6116
 30
0.0
 10
20.2168
 20
5.2844
 30
0.0
 10
20.956
 20
5.2844
 30
0.0
  0
SPLINE
  5
86
330
1F
100
AcDbEntity
  8
Standard layer
 62
   250
370
    30
100
AcDbSpline
210
0.0
220
0.0
230
1.0
 70
     8
 71
     3
 72
     8
 73
     4
 74
     0
 42
0.0000000001
 43
0.0000000001
 40
0.0
 40
0.0
 40
0.0
 40
0.0
 40
1.0
 40
1.0
 40
1.0
 40
1.0
 10
36.956
 20
9.2844
 30
0.0
 10
36.956
 20
10.389
 30
0.0
 10
36.0605
 20
11.2844
 30
0.0
 10
34.956
 20
11.2844
 30
0.0
  0
SPLINE
  5
87
330
1F
100
AcDbEntity
  8
Standard layer
 62
   250
370
    30
100
AcDbSpline
210
0.0
220
0.0
230
1.0
 70
     8
 71
     3
 72
     8
 73
     4
 74
     0
 42
0.0000000001
 43
0.0000000001
 40
0.0
 40
0.0
 40
0.0
 40
0.0
 40
1.0
 40
1.0
 40
1.0
 40
1.0
 10
-9.544
 20
7.7844
 30
0.0
 10
-9.544
 20
6.4037
 30
0.0
 10
-10.6633
 20
5.2844
 30
0.0
 10
-12.044
 20
5.2844
 30
0.0
  0
SPLINE
  5
88
330
1F
100
AcDbEntity
  8
Standard layer
 62
   250
370
    30
100
AcDbSpline
210
0.0
220
0.0
230
1.0
 70
     8
 71
     3
 72
     8
 73
     4
 74
     0
 42
0.0000000001
 43
0.0000000001
 40
0.0
 40
0.0
 40
0.0
 40
0.0
 40
1.0
 40
1.0
 40
1.0
 40
1.0
 10
-12.044
 20
10.2844
 30
0.0
 10
-10.6633
 20
10.2844
 30
0.0
 10
-9.544
 20
9.1651
 30
0.0
 10
-9.544
 20
7.7844
 30
0.0
  0
SPLINE
  5
89
330
1F
100
AcDbEntity
  8
Standard layer
 62
   250
370
    30
100
AcDbSpline
210
0.0
220
0.0
230
1.0
 70
     8
 71
     3
 72
     8
 73
     4
 74
     0
 42
0.0000000001
 43
0.0000000001
 40
0.0
 40
0.0
 40
0.0
 40
0.0
 40
1.0
 40
1.0
 40
1.0
 40
1.0
 10
-13.7007
 20
9.6567
 30
0.0
 10
-14.2369
 20
9.1822
 30
0.0
 10
-14.544
 20
8.5005
 30
0.0
 10
-14.544
 20
7.7844
 30
0.0
  0
SPLINE
  5
8A
330
1F
100
AcDbEntity
  8
Standard layer
 62
   250
370
    30
100
AcDbSpline
210
0.0
220
0.0
230
1.0
 70
     8
 71
     3
 72
     8
 73
     4
 74
     0
 42
0.0000000001
 43
0.0000000001
 40
0.0
 40
0.0
 40
0.0
 40
0.0
 40
1.0
 40
1.0
 40
1.0
 40
1.0
 10
-14.544
 20
7.7844
 30
0.0
 10
-14.544
 20
7.0683
 30
0.0
 10
-14.2369
 20
6.3866
 30
0.0
 10
-13.7007
 20
5.9121
 30
0.0
  0
SPLINE
  5
8B
330
1F
100
AcDbEntity
  8
Standard layer
 62
   250
370
    30
100
AcDbSpline
210
0.0
220
0.0
230
1.0
 70
     8
 71
     3
 72
     8
 73
     4
 74
     0
 42
0.0000000001
 43
0.0000000001
 40
0.0
 40
0.0
 40
0.0
 40
0.0
 40
1.0
 40
1.0
 40
1.0
 40
1.0
 10
23.456
 20
7.7844
 30
0.0
 10
23.456
 20
7.0683
 30
0.0
 10
23.1489
 20
6.3866
 30
0.0
 10
22.6126
 20
5.9121
 30
0.0
  0
SPLINE
  5
8C
330
1F
100
AcDbEntity
  8
Standard layer
 62
   250
370
    30
100
AcDbSpline
210
0.0
220
0.0
230
1.0
 70
     8
 71
     3
 72
     8
 73
     4
 74
     0
 42
0.0000000001
 43
0.0000000001
 40
0.0
 40
0.0
 40
0.0
 40
0.0
 40
1.0
 40
1.0
 40
1.0
 40
1.0
 10
22.6126
 20
9.6567
 30
0.0
 10
23.1489
 20
9.1822
 30
0.0
 10
23.456
 20
8.5005
 30
0.0
 10
23.456
 20
7.7844
 30
0.0
  0
SPLINE
  5
8D
330
1F
100
AcDbEntity
  8
Standard layer
 62
   250
370
    30
100
AcDbSpline
210
0.0
220
0.0
230
1.0
 70
     8
 71
     3
 72
     8
 73
     4
 74
     0
 42
0.0000000001
 43
0.0000000001
 40
0.0
 40
0.0
 40
0.0
 40
0.0
 40
1.0
 40
1.0
 40
1.0
 40
1.0
 10
20.956
 20
10.2844
 30
0.0
 10
19.5753
 20
10.2844
 30
0.0
 10
18.456
 20
9.1651
 30
0.0
 10
18.456
 20
7.7844
 30
0.0
  0
SPLINE
  5
8E
330
1F
100
AcDbEntity
  8
Standard layer
 62
   250
370
    30
100
AcDbSpline
210
0.0
220
0.0
230
1.0
 70
     8
 71
     3
 72
     8
 73
     4
 74
     0
 42
0.0000000001
 43
0.0000000001
 40
0.0
 40
0.0
 40
0.0
 40
0.0
 40
1.0
 40
1.0
 40
1.0
 40
1.0
 10
18.456
 20
7.7844
 30
0.0
 10
18.456
 20
6.4037
 30
0.0
 10
19.5753
 20
5.2844
 30
0.0
 10
20.956
 20
5.2844
 30
0.0
  0
SPLINE
  5
8F
330
1F
100
AcDbEntity
  8
Standard layer
 62
   250
370
    30
100
AcDbSpline
210
0.0
220
0.0
230
1.0
 70
    24
 71
     3
 72
     8
 73
     4
 74
     0
 42
0.0000000001
 43
0.0000000001
 40
0.0
 40
0.0
 40
0.0
 40
0.0
 40
1.0
 40
1.0
 40
1.0
 40
1.0
 10
22.3096
 20
3.2844
 30
0.0
 10
22.3096
 20
3.2844
 30
0.0
 10
20.956
 20
3.2844
 30
0.0
 10
20.956
 20
3.2844
 30
0.0
  0
SPLINE
  5
90
330
1F
100
AcDbEntity
  8
Standard layer
 62
   250
370
    30
100
AcDbSpline
210
0.0
220
0.0
230
1.0
 70
    24
 71
     3
 72
     8
 73
     4
 74
     0
 42
0.0000000001
 43
0.0000000001
 40
0.0
 40
0.0
 40
0.0
 40
0.0
 40
1.0
 40
1.0
 40
1.0
 40
1.0
 10
-12.044
 20
3.2844
 30
0.0
 10
-12.044
 20
3.2844
 30
0.0
 10
-13.3976
 20
3.2844
 30
0.0
 10
-13.3976
 20
3.2844
 30
0.0
  0
SPLINE
  5
91
330
1F
100
AcDbEntity
  8
Standard layer
 62
   250
370
    30
100
AcDbSpline
210
0.0
220
0.0
230
1.0
 70
    24
 71
     3
 72
     8
 73
     4
 74
     0
 42
0.0000000001
 43
0.0000000001
 40
0.0
 40
0.0
 40
0.0
 40
0.0
 40
1.0
 40
1.0
 40
1.0
 40
1.0
 10
-13.3976
 20
12.2844
 30
0.0
 10
-13.3976
 20
12.2844
 30
0.0
 10
-12.044
 20
12.2844
 30
0.0
 10
-12.044
 20
12.2844
 30
0.0
  0
SPLINE
  5
92
330
1F
100
AcDbEntity
  8
Standard layer
 62
   250
370
    30
100
AcDbSpline
210
0.0
220
0.0
230
1.0
 70
    24
 71
     3
 72
     8
 73
     4
 74
     0
 42
0.0000000001
 43
0.0000000001
 40
0.0
 40
0.0
 40
0.0
 40
0.0
 40
1.0
 40
1.0
 40
1.0
 40
1.0
 10
20.956
 20
12.2844
 30
0.0
 10
20.956
 20
12.2844
 30
0.0
 10
22.3096
 20
12.2844
 30
0.0
 10
22.3096
 20
12.2844
 30
0.0
  0
SPLINE
  5
93
330
1F
100
AcDbEntity
  8
Standard layer
 62
   250
370
    30
100
AcDbSpline
210
0.0
220
0.0
230
1.0
 70
     8
 71
     3
 72
     8
 73
     4
 74
     0
 42
0.0000000001
 43
0.0000000001
 40
0.0
 40
0.0
 40
0.0
 40
0.0
 40
1.0
 40
1.0
 40
1.0
 40
1.0
 10
-13.3976
 20
3.2844
 30
0.0
 10
-14.0501
 20
3.2844
 30
0.0
 10
-14.6617
 20
2.9661
 30
0.0
 10
-15.0359
 20
2.4315
 30
0.0
  0
SPLINE
  5
94
330
1F
100
AcDbEntity
  8
Standard layer
 62
   250
370
    30
100
AcDbSpline
210
0.0
220
0.0
230
1.0
 70
     8
 71
     3
 72
     8
 73
     4
 74
     0
 42
0.0000000001
 43
0.0000000001
 40
0.0
 40
0.0
 40
0.0
 40
0.0
 40
1.0
 40
1.0
 40
1.0
 40
1.0
 10
-15.0359
 20
2.4315
 30
0.0
 10
-15.4102
 20
1.8969
 30
0.0
 10
-15.5002
 20
1.2134
 30
0.0
 10
-15.2769
 20
0.6002
 30
0.0
  0
SPLINE
  5
95
330
1F
100
AcDbEntity
  8
Standard layer
 62
   250
370
    30
100
AcDbSpline
210
0.0
220
0.0
230
1.0
 70
     8
 71
     3
 72
     8
 73
     4
 74
     0
 42
0.0000000001
 43
0.0000000001
 40
0.0
 40
0.0
 40
0.0
 40
0.0
 40
1.0
 40
1.0
 40
1.0
 40
1.0
 10
-15.2769
 20
14.9686
 30
0.0
 10
-15.5002
 20
14.3555
 30
0.0
 10
-15.4102
 20
13.6719
 30
0.0
 10
-15.0359
 20
13.1374
 30
0.0
  0
SPLINE
  5
96
330
1F
100
AcDbEntity
  8
Standard layer
 62
   250
370
    30
100
AcDbSpline
210
0.0
220
0.0
230
1.0
 70
     8
 71
     3
 72
     8
 73
     4
 74
     0
 42
0.0000000001
 43
0.0000000001
 40
0.0
 40
0.0
 40
0.0
 40
0.0
 40
1.0
 40
1.0
 40
1.0
 40
1.0
 10
-15.0359
 20
13.1374
 30
0.0
 10
-14.6617
 20
12.6028
 30
0.0
 10
-14.0501
 20
12.2844
 30
0.0
 10
-13.3976
 20
12.2844
 30
0.0
  0
SPLINE
  5
97
330
1F
100
AcDbEntity
  8
Standard layer
 62
   250
370
    30
100
AcDbSpline
210
0.0
220
0.0
230
1.0
 70
     8
 71
     3
 72
     8
 73
     4
 74
     0
 42
0.0000000001
 43
0.0000000001
 40
0.0
 40
0.0
 40
0.0
 40
0.0
 40
1.0
 40
1.0
 40
1.0
 40
1.0
 10
23.9479
 20
2.4315
 30
0.0
 10
24.3222
 20
1.8969
 30
0.0
 10
24.4121
 20
1.2134
 30
0.0
 10
24.1889
 20
0.6002
 30
0.0
  0
SPLINE
  5
98
330
1F
100
AcDbEntity
  8
Standard layer
 62
   250
370
    30
100
AcDbSpline
210
0.0
220
0.0
230
1.0
 70
     8
 71
     3
 72
     8
 73
     4
 74
     0
 42
0.0000000001
 43
0.0000000001
 40
0.0
 40
0.0
 40
0.0
 40
0.0
 40
1.0
 40
1.0
 40
1.0
 40
1.0
 10
22.3096
 20
3.2844
 30
0.0
 10
22.9621
 20
3.2844
 30
0.0
 10
23.5736
 20
2.9661
 30
0.0
 10
23.9479
 20
2.4315
 30
0.0
  0
SPLINE
  5
99
330
1F
100
AcDbEntity
  8
Standard layer
 62
   250
370
    30
100
AcDbSpline
210
0.0
220
0.0
230
1.0
 70
     8
 71
     3
 72
     8
 73
     4
 74
     0
 42
0.0000000001
 43
0.0000000001
 40
0.0
 40
0.0
 40
0.0
 40
0.0
 40
1.0
 40
1.0
 40
1.0
 40
1.0
 10
24.1889
 20
14.9686
 30
0.0
 10
21.1689
 20
23.2637
 30
0.0
 10
13.2837
 20
28.7844
 30
0.0
 10
4.456
 20
28.7844
 30
0.0
  0
SPLINE
  5
9A
330
1F
100
AcDbEntity
  8
Standard layer
 62
   250
370
    30
100
AcDbSpline
210
0.0
220
0.0
230
1.0
 70
     8
 71
     3
 72
     8
 73
     4
 74
     0
 42
0.0000000001
 43
0.0000000001
 40
0.0
 40
0.0
 40
0.0
 40
0.0
 40
1.0
 40
1.0
 40
1.0
 40
1.0
 10
4.456
 20
28.7844
 30
0.0
 10
-4.3717
 20
28.7844
 30
0.0
 10
-12.2569
 20
23.2637
 30
0.0
 10
-15.2769
 20
14.9686
 30
0.0
  0
SPLINE
  5
9B
330
1F
100
AcDbEntity
  8
Standard layer
 62
   250
370
    30
100
AcDbSpline
210
0.0
220
0.0
230
1.0
 70
     8
 71
     3
 72
     8
 73
     4
 74
     0
 42
0.0000000001
 43
0.0000000001
 40
0.0
 40
0.0
 40
0.0
 40
0.0
 40
1.0
 40
1.0
 40
1.0
 40
1.0
 10
-15.2769
 20
0.6002
 30
0.0
 10
-12.2569
 20
-7.6948
 30
0.0
 10
-4.3717
 20
-13.2156
 30
0.0
 10
4.456
 20
-13.2156
 30
0.0
  0
SPLINE
  5
9C
330
1F
100
AcDbEntity
  8
Standard layer
 62
   250
370
    30
100
AcDbSpline
210
0.0
220
0.0
230
1.0
 70
     8
 71
     3
 72
     8
 73
     4
 74
     0
 42
0.0000000001
 43
0.0000000001
 40
0.0
 40
0.0
 40
0.0
 40
0.0
 40
1.0
 40
1.0
 40
1.0
 40
1.0
 10
4.456
 20
-13.2156
 30
0.0
 10
13.2837
 20
-13.2156
 30
0.0
 10
21.1689
 20
-7.6948
 30
0.0
 10
24.1889
 20
0.6002
 30
0.0
  0
SPLINE
  5
9D
330
1F
100
AcDbEntity
  8
Standard layer
 62
   250
370
    30
100
AcDbSpline
210
0.0
220
0.0
230
1.0
 70
     8
 71
     3
 72
     8
 73
     4
 74
     0
 42
0.0000000001
 43
0.0000000001
 40
0.0
 40
0.0
 40
0.0
 40
0.0
 40
1.0
 40
1.0
 40
1.0
 40
1.0
 10
23.9479
 20
13.1374
 30
0.0
 10
23.5736
 20
12.6028
 30
0.0
 10
22.9621
 20
12.2844
 30
0.0
 10
22.3096
 20
12.2844
 30
0.0
  0
SPLINE
  5
9E
330
1F
100
AcDbEntity
  8
Standard layer
 62
   250
370
    30
100
AcDbSpline
210
0.0
220
0.0
230
1.0
 70
     8
 71
     3
 72
     8
 73
     4
 74
     0
 42
0.0000000001
 43
0.0000000001
 40
0.0
 40
0.0
 40
0.0
 40
0.0
 40
1.0
 40
1.0
 40
1.0
 40
1.0
 10
24.1889
 20
14.9686
 30
0.0
 10
24.4121
 20
14.3555
 30
0.0
 10
24.3222
 20
13.6719
 30
0.0
 10
23.9479
 20
13.1374
 30
0.0
  0
SPLINE
  5
9F
330
1F
100
AcDbEntity
  8
Standard layer
 62
   250
370
    30
100
AcDbSpline
210
0.0
220
0.0
230
1.0
 70
    24
 71
     3
 72
     8
 73
     4
 74
     0
 42
0.0000000001
 43
0.0000000001
 40
0.0
 40
0.0
 40
0.0
 40
0.0
 40
1.0
 40
1.0
 40
1.0
 40
1.0
 10
-28.044
 20
-32.164
 30
0.0
 10
-28.044
 20
-32.164
 30
0.0
 10
-28.044
 20
-31.364
 30
0.0
 10
-28.044
 20
-31.364
 30
0.0
  0
SPLINE
  5
A0
330
1F
100
AcDbEntity
  8
Standard layer
 62
   250
370
    30
100
AcDbSpline
210
0.0
220
0.0
230
1.0
 70
    24
 71
     3
 72
     8
 73
     4
 74
     0
 42
0.0000000001
 43
0.0000000001
 40
0.0
 40
0.0
 40
0.0
 40
0.0
 40
1.0
 40
1.0
 40
1.0
 40
1.0
 10
36.956
 20
-32.164
 30
0.0
 10
36.956
 20
-32.164
 30
0.0
 10
24.3095
 20
-32.164
 30
0.0
 10
24.3095
 20
-32.164
 30
0.0
  0
SPLINE
  5
A1
330
1F
100
AcDbEntity
  8
Standard layer
 62
   250
370
    30
100
AcDbSpline
210
0.0
220
0.0
230
1.0
 70
    24
 71
     3
 72
     8
 73
     4
 74
     0
 42
0.0000000001
 43
0.0000000001
 40
0.0
 40
0.0
 40
0.0
 40
0.0
 40
1.0
 40
1.0
 40
1.0
 40
1.0
 10
-15.3976
 20
-32.164
 30
0.0
 10
-15.3976
 20
-32.164
 30
0.0
 10
-28.044
 20
-32.164
 30
0.0
 10
-28.044
 20
-32.164
 30
0.0
  0
SPLINE
  5
A2
330
1F
100
AcDbEntity
  8
Standard layer
 62
   250
370
    30
100
AcDbSpline
210
0.0
220
0.0
230
1.0
 70
    24
 71
     3
 72
     8
 73
     4
 74
     0
 42
0.0000000001
 43
0.0000000001
 40
0.0
 40
0.0
 40
0.0
 40
0.0
 40
1.0
 40
1.0
 40
1.0
 40
1.0
 10
36.956
 20
-31.364
 30
0.0
 10
36.956
 20
-31.364
 30
0.0
 10
24.3096
 20
-31.364
 30
0.0
 10
24.3096
 20
-31.364
 30
0.0
  0
SPLINE
  5
A3
330
1F
100
AcDbEntity
  8
Standard layer
 62
   250
370
    30
100
AcDbSpline
210
0.0
220
0.0
230
1.0
 70
    24
 71
     3
 72
     8
 73
     4
 74
     0
 42
0.0000000001
 43
0.0000000001
 40
0.0
 40
0.0
 40
0.0
 40
0.0
 40
1.0
 40
1.0
 40
1.0
 40
1.0
 10
-15.3976
 20
-31.364
 30
0.0
 10
-15.3976
 20
-31.364
 30
0.0
 10
-28.044
 20
-31.364
 30
0.0
 10
-28.044
 20
-31.364
 30
0.0
  0
SPLINE
  5
A4
330
1F
100
AcDbEntity
  8
Standard layer
 62
   250
370
    30
100
AcDbSpline
210
0.0
220
0.0
230
1.0
 70
    24
 71
     3
 72
     8
 73
     4
 74
     0
 42
0.0000000001
 43
0.0000000001
 40
0.0
 40
0.0
 40
0.0
 40
0.0
 40
1.0
 40
1.0
 40
1.0
 40
1.0
 10
36.956
 20
-32.164
 30
0.0
 10
36.956
 20
-32.164
 30
0.0
 10
36.956
 20
-31.364
 30
0.0
 10
36.956
 20
-31.364
 30
0.0
  0
SPLINE
  5
A5
330
1F
100
AcDbEntity
  8
Standard layer
 62
   250
370
    30
100
AcDbSpline
210
0.0
220
0.0
230
1.0
 70
    24
 71
     3
 72
     8
 73
     4
 74
     0
 42
0.0000000001
 43
0.0000000001
 40
0.0
 40
0.0
 40
0.0
 40
0.0
 40
1.0
 40
1.0
 40
1.0
 40
1.0
 10
24.3095
 20
-32.164
 30
0.0
 10
24.3095
 20
-32.164
 30
0.0
 10
-15.3976
 20
-32.164
 30
0.0
 10
-15.3976
 20
-32.164
 30
0.0
  0
SPLINE
  5
A6
330
1F
100
AcDbEntity
  8
Standard layer
 62
   250
370
    30
100
AcDbSpline
210
0.0
220
0.0
230
1.0
 70
    24
 71
     3
 72
     8
 73
     4
 74
     0
 42
0.0000000001
 43
0.0000000001
 40
0.0
 40
0.0
 40
0.0
 40
0.0
 40
1.0
 40
1.0
 40
1.0
 40
1.0
 10
-15.3976
 20
-31.364
 30
0.0
 10
-15.3976
 20
-31.364
 30
0.0
 10
24.3095
 20
-31.364
 30
0.0
 10
24.3095
 20
-31.364
 30
0.0
  0
SPLINE
  5
A7
330
1F
100
AcDbEntity
  8
Standard layer
 62
   250
370
    15
100
AcDbSpline
210
0.0
220
0.0
230
1.0
 70
    24
 71
     3
 72
     8
 73
     4
 74
     0
 42
0.0000000001
 43
0.0000000001
 40
0.0
 40
0.0
 40
0.0
 40
0.0
 40
1.0
 40
1.0
 40
1.0
 40
1.0
 10
-35.1771
 20
2.0663
 30
0.0
 10
-35.1771
 20
2.0663
 30
0.0
 10
-35.1771
 20
13.4104
 30
0.0
 10
-35.1771
 20
13.4104
 30
0.0
  0
SPLINE
  5
A8
330
1F
100
AcDbEntity
  8
Standard layer
 62
   250
370
    15
100
AcDbSpline
210
0.0
220
0.0
230
1.0
 70
    24
 71
     3
 72
     8
 73
     4
 74
     0
 42
0.0000000001
 43
0.0000000001
 40
0.0
 40
0.0
 40
0.0
 40
0.0
 40
1.0
 40
1.0
 40
1.0
 40
1.0
 10
-28.044
 20
4.7946
 30
0.0
 10
-28.044
 20
4.7946
 30
0.0
 10
-28.044
 20
-21.7417
 30
0.0
 10
-28.044
 20
-21.7417
 30
0.0
  0
SPLINE
  5
A9
330
1F
100
AcDbEntity
  8
Standard layer
 62
   250
370
    15
100
AcDbSpline
210
0.0
220
0.0
230
1.0
 70
    24
 71
     3
 72
     8
 73
     4
 74
     0
 42
0.0000000001
 43
0.0000000001
 40
0.0
 40
0.0
 40
0.0
 40
0.0
 40
1.0
 40
1.0
 40
1.0
 40
1.0
 10
-28.044
 20
-20.7417
 30
0.0
 10
-28.044
 20
-20.7417
 30
0.0
 10
36.956
 20
-20.7417
 30
0.0
 10
36.956
 20
-20.7417
 30
0.0
  0
SPLINE
  5
AA
330
1F
100
AcDbEntity
  8
Standard layer
  6
New Line1
 62
   250
370
    15
100
AcDbSpline
210
0.0
220
0.0
230
1.0
 70
    24
 71
     3
 72
     8
 73
     4
 74
     0
 42
0.0000000001
 43
0.0000000001
 40
0.0
 40
0.0
 40
0.0
 40
0.0
 40
1.0
 40
1.0
 40
1.0
 40
1.0
 10
-29.1023
 20
7.7666
 30
0.0
 10
-29.1023
 20
7.7666
 30
0.0
 10
38.2506
 20
7.7666
 30
0.0
 10
38.2506
 20
7.7666
 30
0.0
  0
SPLINE
  5
AC
330
1F
100
AcDbEntity
  8
Standard layer
  6
New Line2
 62
   250
370
    15
100
AcDbSpline
210
0.0
220
0.0
230
1.0
 70
    24
 71
     3
 72
     8
 73
     4
 74
     0
 42
0.0000000001
 43
0.0000000001
 40
0.0
 40
0.0
 40
0.0
 40
0.0
 40
1.0
 40
1.0
 40
1.0
 40
1.0
 10
4.3761
 20
-14.4666
 30
0.0
 10
4.3761
 20
-14.4666
 30
0.0
 10
4.3761
 20
29.4534
 30
0.0
 10
4.3761
 20
29.4534
 30
0.0
  0
SPLINE
  5
AE
330
1F
100
AcDbEntity
  8
Standard layer
 62
   250
370
    15
100
AcDbSpline
210
0.0
220
0.0
230
1.0
 70
    24
 71
     3
 72
     8
 73
     4
 74
     0
 42
0.0000000001
 43
0.0000000001
 40
0.0
 40
0.0
 40
0.0
 40
0.0
 40
1.0
 40
1.0
 40
1.0
 40
1.0
 10
0.6974
 20
18.9214
 30
0.0
 10
0.6974
 20
18.9214
 30
0.0
 10
14.4305
 20
32.0216
 30
0.0
 10
14.4305
 20
32.0216
 30
0.0
  0
SPLINE
  5
AF
330
1F
100
AcDbEntity
  8
Standard layer
 62
   250
370
    15
100
AcDbSpline
210
0.0
220
0.0
230
1.0
 70
    24
 71
     3
 72
     8
 73
     4
 74
     0
 42
0.0000000001
 43
0.0000000001
 40
0.0
 40
0.0
 40
0.0
 40
0.0
 40
1.0
 40
1.0
 40
1.0
 40
1.0
 10
-27.3398
 20
4.2844
 30
0.0
 10
-27.3398
 20
4.2844
 30
0.0
 10
-35.6741
 20
4.2844
 30
0.0
 10
-35.6741
 20
4.2844
 30
0.0
  0
SPLINE
  5
B0
330
1F
100
AcDbEntity
  8
Standard layer
 62
   250
370
    15
100
AcDbSpline
210
0.0
220
0.0
230
1.0
 70
    24
 71
     3
 72
     8
 73
     4
 74
     0
 42
0.0000000001
 43
0.0000000001
 40
0.0
 40
0.0
 40
0.0
 40
0.0
 40
1.0
 40
1.0
 40
1.0
 40
1.0
 10
-11.8949
 20
-9.3691
 30
0.0
 10
-11.8949
 20
-9.3691
 30
0.0
 10
24.8493
 20
29.1788
 30
0.0
 10
24.8493
 20
29.1788
 30
0.0
  0
SPLINE
  5
B1
330
1F
100
AcDbEntity
  8
Standard layer
 62
   250
370
    15
100
AcDbSpline
210
0.0
220
0.0
230
1.0
 70
    24
 71
     3
 72
     8
 73
     4
 74
     0
 42
0.0000000001
 43
0.0000000001
 40
0.0
 40
0.0
 40
0.0
 40
0.0
 40
1.0
 40
1.0
 40
1.0
 40
1.0
 10
-27.439
 20
11.2844
 30
0.0
 10
-27.439
 20
11.2844
 30
0.0
 10
-35.7072
 20
11.2844
 30
0.0
 10
-35.7072
 20
11.2844
 30
0.0
  0
SPLINE
  5
B2
330
1F
100
AcDbEntity
  8
Standard layer
 62
   250
370
    15
100
AcDbSpline
210
0.0
220
0.0
230
1.0
 70
    24
 71
     3
 72
     8
 73
     4
 74
     0
 42
0.0000000001
 43
0.0000000001
 40
0.0
 40
0.0
 40
0.0
 40
0.0
 40
1.0
 40
1.0
 40
1.0
 40
1.0
 10
17.474
 20
4.8643
 30
0.0
 10
17.474
 20
4.8643
 30
0.0
 10
37.405
 20
21.5798
 30
0.0
 10
37.405
 20
21.5798
 30
0.0
  0
SPLINE
  5
B3
330
1F
100
AcDbEntity
  8
Standard layer
 62
   250
370
    15
100
AcDbSpline
210
0.0
220
0.0
230
1.0
 70
    24
 71
     3
 72
     8
 73
     4
 74
     0
 42
0.0000000001
 43
0.0000000001
 40
0.0
 40
0.0
 40
0.0
 40
0.0
 40
1.0
 40
1.0
 40
1.0
 40
1.0
 10
36.956
 20
4.4306
 30
0.0
 10
36.956
 20
4.4306
 30
0.0
 10
36.956
 20
-21.7417
 30
0.0
 10
36.956
 20
-21.7417
 30
0.0
  0
SPLINE
  5
B4
330
1F
100
AcDbEntity
  8
Standard layer
 62
   250
370
    15
100
AcDbSpline
210
0.0
220
0.0
230
1.0
 70
    24
 71
     3
 72
     8
 73
     4
 74
     0
 42
0.0000000001
 43
0.0000000001
 40
0.0
 40
0.0
 40
0.0
 40
0.0
 40
1.0
 40
1.0
 40
1.0
 40
1.0
 10
-33.4557
 20
-34.1547
 30
0.0
 10
-33.4557
 20
-34.1547
 30
0.0
 10
-33.4557
 20
-24.8281
 30
0.0
 10
-33.4557
 20
-24.8281
 30
0.0
  0
SPLINE
  5
B5
330
1F
100
AcDbEntity
  8
Standard layer
 62
   250
370
    15
100
AcDbSpline
210
0.0
220
0.0
230
1.0
 70
    24
 71
     3
 72
     8
 73
     4
 74
     0
 42
0.0000000001
 43
0.0000000001
 40
0.0
 40
0.0
 40
0.0
 40
0.0
 40
1.0
 40
1.0
 40
1.0
 40
1.0
 10
-28.3228
 20
-32.164
 30
0.0
 10
-28.3228
 20
-32.164
 30
0.0
 10
-34.4556
 20
-32.164
 30
0.0
 10
-34.4556
 20
-32.164
 30
0.0
  0
SPLINE
  5
B6
330
1F
100
AcDbEntity
  8
Standard layer
 62
   250
370
    15
100
AcDbSpline
210
0.0
220
0.0
230
1.0
 70
    24
 71
     3
 72
     8
 73
     4
 74
     0
 42
0.0000000001
 43
0.0000000001
 40
0.0
 40
0.0
 40
0.0
 40
0.0
 40
1.0
 40
1.0
 40
1.0
 40
1.0
 10
-28.4303
 20
-31.364
 30
0.0
 10
-28.4303
 20
-31.364
 30
0.0
 10
-34.4556
 20
-31.364
 30
0.0
 10
-34.4556
 20
-31.364
 30
0.0
  0
ENDSEC
  0
SECTION
  2
OBJECTS
  0
DICTIONARY
  5
C
330
0
100
AcDbDictionary
281
     1
  3
ACAD_GROUP
350
D
  3
ACAD_LAYOUT
350
1A
  3
ACAD_MATERIAL
350
3B
  3
ACAD_MLEADERSTYLE
350
B9
  3
ACAD_MLINESTYLE
350
17
  3
ACAD_PLOTSETTINGS
350
19
  3
ACAD_PLOTSTYLENAME
350
E
  3
ACAD_VISUALSTYLE
350
2A
  3
AcDbVariableDictionary
350
B7
  0
DICTIONARY
  5
D
102
{ACAD_REACTORS
330
C
102
}
330
C
100
AcDbDictionary
281
     1
  0
DICTIONARY
  5
1A
102
{ACAD_REACTORS
330
C
102
}
330
C
100
AcDbDictionary
281
     1
  3
Layout1
350
1E
  3
Layout2
350
26
  3
Model
350
22
  0
DICTIONARY
  5
3B
102
{ACAD_REACTORS
330
C
102
}
330
C
100
AcDbDictionary
281
     1
  3
ByBlock
350
3D
  3
ByLayer
350
3C
  3
Global
350
3E
  0
DICTIONARY
  5
B9
102
{ACAD_REACTORS
330
C
102
}
330
C
100
AcDbDictionary
281
     1
  0
DICTIONARY
  5
17
102
{ACAD_REACTORS
330
C
102
}
330
C
100
AcDbDictionary
281
     1
  3
Standard
350
18
  0
DICTIONARY
  5
19
102
{ACAD_REACTORS
330
C
102
}
330
C
100
AcDbDictionary
281
     1
  0
ACDBDICTIONARYWDFLT
  5
E
102
{ACAD_REACTORS
330
C
102
}
330
C
100
AcDbDictionary
281
     1
  3
Normal
350
F
100
AcDbDictionaryWithDefault
340
F
  0
DICTIONARY
  5
2A
102
{ACAD_REACTORS
330
C
102
}
330
C
100
AcDbDictionary
281
     1
  3
2dWireframe
350
2F
  3
3D Hidden
350
31
  3
3dWireframe
350
30
  3
Basic
350
32
  3
Brighten
350
36
  3
ColorChange
350
3A
  3
Conceptual
350
34
  3
Dim
350
35
  3
Facepattern
350
39
  3
Flat
350
2B
  3
FlatWithEdges
350
2C
  3
Gouraud
350
2D
  3
GouraudWithEdges
350
2E
  3
Linepattern
350
38
  3
Realistic
350
33
  3
Thicken
350
37
  0
DICTIONARY
  5
B7
102
{ACAD_REACTORS
330
C
102
}
330
C
100
AcDbDictionary
281
     1
  3
DIMASSOC
350
BA
  3
HIDETEXT
350
BB
  0
LAYOUT
  5
1E
102
{ACAD_REACTORS
330
1A
102
}
330
1A
100
AcDbPlotSettings
  1

  2
none_device
  4

  6

 40
0.0
 41
0.0
 42
0.0
 43
0.0
 44
0.0
 45
0.0
 46
0.0
 47
0.0
 48
0.0
 49
0.0
140
0.0
141
0.0
142
1.0
143
1.0
 70
   688
 72
     0
 73
     0
 74
     5
  7

 75
    16
147
1.0
148
0.0
149
0.0
100
AcDbLayout
  1
Layout1
 70
     1
 71
     1
 10
0.0
 20
0.0
 11
12.0
 21
9.0
 12
0.0
 22
0.0
 32
0.0
 14
1.000000000000000E+20
 24
1.000000000000000E+20
 34
1.000000000000000E+20
 15
-1.000000000000000E+20
 25
-1.000000000000000E+20
 35
-1.000000000000000E+20
146
0.0
 13
0.0
 23
0.0
 33
0.0
 16
1.0
 26
0.0
 36
0.0
 17
0.0
 27
1.0
 37
0.0
 76
     0
330
1B
  0
LAYOUT
  5
26
102
{ACAD_REACTORS
330
1A
102
}
330
1A
100
AcDbPlotSettings
  1

  2
none_device
  4

  6

 40
0.0
 41
0.0
 42
0.0
 43
0.0
 44
0.0
 45
0.0
 46
0.0
 47
0.0
 48
0.0
 49
0.0
140
0.0
141
0.0
142
1.0
143
1.0
 70
   688
 72
     0
 73
     0
 74
     5
  7

 75
    16
147
1.0
148
0.0
149
0.0
100
AcDbLayout
  1
Layout2
 70
     1
 71
     2
 10
0.0
 20
0.0
 11
0.0
 21
0.0
 12
0.0
 22
0.0
 32
0.0
 14
0.0
 24
0.0
 34
0.0
 15
0.0
 25
0.0
 35
0.0
146
0.0
 13
0.0
 23
0.0
 33
0.0
 16
1.0
 26
0.0
 36
0.0
 17
0.0
 27
1.0
 37
0.0
 76
     0
330
23
  0
LAYOUT
  5
22
102
{ACAD_REACTORS
330
1A
102
}
330
1A
100
AcDbPlotSettings
  1

  2
none_device
  4

  6

 40
0.0
 41
0.0
 42
0.0
 43
0.0
 44
0.0
 45
0.0
 46
0.0
 47
0.0
 48
0.0
 49
0.0
140
0.0
141
0.0
142
1.0
143
1.0
 70
  1712
 72
     0
 73
     0
 74
     0
  7

 75
     0
147
1.0
148
0.0
149
0.0
100
AcDbLayout
  1
Model
 70
     1
 71
     0
 10
0.0
 20
0.0
 11
12.0
 21
9.0
 12
0.0
 22
0.0
 32
0.0
 14
-38.2506
 24
-34.1547
 34
0.0
 15
38.2023
 25
34.1548
 35
0.0
146
0.0
 13
0.0
 23
0.0
 33
0.0
 16
1.0
 26
0.0
 36
0.0
 17
0.0
 27
1.0
 37
0.0
 76
     0
330
1F
331
29
  0
MATERIAL
  5
3D
102
{ACAD_REACTORS
330
3B
102
}
102
{ACAD_XDICTIONARY
360
DE
102
}
330
3B
100
AcDbMaterial
  1
ByBlock
  0
MATERIAL
  5
3C
102
{ACAD_REACTORS
330
3B
102
}
102
{ACAD_XDICTIONARY
360
DC
102
}
330
3B
100
AcDbMaterial
  1
ByLayer
  0
MATERIAL
  5
3E
102
{ACAD_REACTORS
330
3B
102
}
102
{ACAD_XDICTIONARY
360
E0
102
}
330
3B
100
AcDbMaterial
  1
Global
  0
MLINESTYLE
  5
18
102
{ACAD_REACTORS
330
17
102
}
330
17
100
AcDbMlineStyle
  2
Standard
 70
     0
  3

 62
   256
 51
90.0
 52
90.0
 71
     2
 49
0.5
 62
   256
  6
BYLAYER
 49
-0.5
 62
   256
  6
BYLAYER
  0
ACDBPLACEHOLDER
  5
F
102
{ACAD_REACTORS
330
E
102
}
330
E
  0
VISUALSTYLE
  5
2F
102
{ACAD_REACTORS
330
2A
102
}
102
{ACAD_XDICTIONARY
360
C4
102
}
330
2A
100
AcDbVisualStyle
  2
2dWireframe
 70
     4
 71
     0
 72
     2
 73
     0
 90
        0
 40
-0.6
 41
-30.0
 62
     5
 63
     7
 74
     1
 91
        4
 64
     7
 65
   257
 75
     1
175
     1
 42
1.0
 92
        0
 66
   257
 43
1.0
 76
     1
 77
     6
 78
     2
 67
     7
 79
     5
170
     0
171
     0
290
     0
174
     0
 93
        1
 44
0.0
173
     0
291
     0
 45
0.0
1001
ACAD
1000
AcDbSavedByObjectVersion
1070
     0
  0
VISUALSTYLE
  5
31
102
{ACAD_REACTORS
330
2A
102
}
102
{ACAD_XDICTIONARY
360
C8
102
}
330
2A
100
AcDbVisualStyle
  2
3D Hidden
 70
     6
 71
     1
 72
     2
 73
     2
 90
        0
 40
-0.6
 41
-30.0
 62
     5
 63
     7
 74
     2
 91
        2
 64
     7
 65
   257
 75
     2
175
     1
 42
40.0
 92
        0
 66
   257
 43
1.0
 76
     1
 77
     6
 78
     2
 67
     7
 79
     3
170
     0
171
     0
290
     0
174
     0
 93
        1
 44
0.0
173
     0
291
     0
 45
0.0
1001
ACAD
1000
AcDbSavedByObjectVersion
1070
     0
  0
VISUALSTYLE
  5
30
102
{ACAD_REACTORS
330
2A
102
}
102
{ACAD_XDICTIONARY
360
C6
102
}
330
2A
100
AcDbVisualStyle
  2
3dWireframe
 70
     5
 71
     0
 72
     2
 73
     0
 90
        0
 40
-0.6
 41
-30.0
 62
     5
 63
     7
 74
     1
 91
        4
 64
     7
 65
   257
 75
     1
175
     1
 42
1.0
 92
        0
 66
   257
 43
1.0
 76
     1
 77
     6
 78
     2
 67
     7
 79
     5
170
     0
171
     0
290
     0
174
     0
 93
        1
 44
0.0
173
     0
291
     0
 45
0.0
1001
ACAD
1000
AcDbSavedByObjectVersion
1070
     0
  0
VISUALSTYLE
  5
32
102
{ACAD_REACTORS
330
2A
102
}
102
{ACAD_XDICTIONARY
360
CA
102
}
330
2A
100
AcDbVisualStyle
  2
Basic
 70
     7
 71
     1
 72
     0
 73
     1
 90
        0
 40
-0.6
 41
-30.0
 62
     5
 63
     7
 74
     0
 91
        4
 64
     7
 65
   257
 75
     1
175
     1
 42
1.0
 92
        8
 66
     7
 43
1.0
 76
     1
 77
     6
 78
     2
 67
     7
 79
     5
170
     0
171
     0
290
     0
174
     0
 93
        1
 44
0.0
173
     0
291
     1
 45
0.0
1001
ACAD
1000
AcDbSavedByObjectVersion
1070
     0
  0
VISUALSTYLE
  5
36
102
{ACAD_REACTORS
330
2A
102
}
102
{ACAD_XDICTIONARY
360
D2
102
}
330
2A
100
AcDbVisualStyle
  2
Brighten
 70
    12
 71
     2
 72
     2
 73
     0
 90
        0
 40
-0.6
 41
-30.0
 62
     5
 63
     7
 74
     1
 91
        4
 64
     7
 65
   257
 75
     1
175
     1
 42
1.0
 92
        8
 66
     7
 43
1.0
 76
     1
 77
     6
 78
     2
 67
     7
 79
     5
170
     0
171
     0
290
     0
174
     0
 93
        1
 44
50.0
173
     0
291
     1
 45
0.0
1001
ACAD
1000
AcDbSavedByObjectVersion
1070
     0
  0
VISUALSTYLE
  5
3A
102
{ACAD_REACTORS
330
2A
102
}
102
{ACAD_XDICTIONARY
360
DA
102
}
330
2A
100
AcDbVisualStyle
  2
ColorChange
 70
    16
 71
     2
 72
     2
 73
     3
 90
        0
 40
-0.6
 41
-30.0
 62
     5
 63
     8
 74
     1
 91
        4
 64
     7
 65
   257
 75
     1
175
     1
 42
1.0
 92
        8
 66
     8
 43
1.0
 76
     1
 77
     6
 78
     2
 67
     7
 79
     5
170
     0
171
     0
290
     0
174
     0
 93
        1
 44
0.0
173
     0
291
     1
 45
0.0
1001
ACAD
1000
AcDbSavedByObjectVersion
1070
     0
  0
VISUALSTYLE
  5
34
102
{ACAD_REACTORS
330
2A
102
}
102
{ACAD_XDICTIONARY
360
CE
102
}
330
2A
100
AcDbVisualStyle
  2
Conceptual
 70
     9
 71
     3
 72
     2
 73
     0
 90
        0
 40
-0.6
 41
-30.0
 62
     5
 63
     7
 74
     2
 91
        2
 64
     7
 65
   257
 75
     1
175
     1
 42
40.0
 92
        8
 66
     7
 43
1.0
 76
     1
 77
     6
 78
     2
 67
     7
 79
     3
170
     0
171
     0
290
     0
174
     0
 93
        1
 44
0.0
173
     0
291
     0
 45
0.0
1001
ACAD
1000
AcDbSavedByObjectVersion
1070
     0
  0
VISUALSTYLE
  5
35
102
{ACAD_REACTORS
330
2A
102
}
102
{ACAD_XDICTIONARY
360
D0
102
}
330
2A
100
AcDbVisualStyle
  2
Dim
 70
    11
 71
     2
 72
     2
 73
     0
 90
        0
 40
-0.6
 41
-30.0
 62
     5
 63
     7
 74
     1
 91
        4
 64
     7
 65
   257
 75
     1
175
     1
 42
1.0
 92
        8
 66
     7
 43
1.0
 76
     1
 77
     6
 78
     2
 67
     7
 79
     5
170
     0
171
     0
290
     0
174
     0
 93
        1
 44
-50.0
173
     0
291
     1
 45
0.0
1001
ACAD
1000
AcDbSavedByObjectVersion
1070
     0
  0
VISUALSTYLE
  5
39
102
{ACAD_REACTORS
330
2A
102
}
102
{ACAD_XDICTIONARY
360
D8
102
}
330
2A
100
AcDbVisualStyle
  2
Facepattern
 70
    15
 71
     2
 72
     2
 73
     0
 90
        0
 40
-0.6
 41
-30.0
 62
     5
 63
     7
 74
     1
 91
        4
 64
     7
 65
   257
 75
     1
175
     1
 42
1.0
 92
        8
 66
     7
 43
1.0
 76
     1
 77
     6
 78
     2
 67
     7
 79
     5
170
     0
171
     0
290
     0
174
     0
 93
        1
 44
0.0
173
     0
291
     1
 45
0.0
1001
ACAD
1000
AcDbSavedByObjectVersion
1070
     0
  0
VISUALSTYLE
  5
2B
102
{ACAD_REACTORS
330
2A
102
}
102
{ACAD_XDICTIONARY
360
BC
102
}
330
2A
100
AcDbVisualStyle
  2
Flat
 70
     0
 71
     2
 72
     1
 73
     1
 90
        2
 40
-0.6
 41
30.0
 62
     5
 63
     7
 74
     0
 91
        4
 64
     7
 65
   257
 75
     1
175
     1
 42
1.0
 92
        8
 66
     7
 43
1.0
 76
     1
 77
     6
 78
     2
 67
     7
 79
     5
170
     0
171
     0
290
     0
174
     0
 93
       13
 44
0.0
173
     0
291
     1
 45
0.0
1001
ACAD
1000
AcDbSavedByObjectVersion
1070
     0
  0
VISUALSTYLE
  5
2C
102
{ACAD_REACTORS
330
2A
102
}
102
{ACAD_XDICTIONARY
360
BE
102
}
330
2A
100
AcDbVisualStyle
  2
FlatWithEdges
 70
     1
 71
     2
 72
     1
 73
     1
 90
        2
 40
-0.6
 41
30.0
 62
     5
 63
     7
 74
     1
 91
        4
 64
     7
 65
   257
 75
     1
175
     1
 42
1.0
 92
        0
 66
   257
 43
1.0
 76
     1
 77
     6
 78
     2
 67
     7
 79
     5
170
     0
171
     0
290
     0
174
     0
 93
       13
 44
0.0
173
     0
291
     1
 45
0.0
1001
ACAD
1000
AcDbSavedByObjectVersion
1070
     0
  0
VISUALSTYLE
  5
2D
102
{ACAD_REACTORS
330
2A
102
}
102
{ACAD_XDICTIONARY
360
C0
102
}
330
2A
100
AcDbVisualStyle
  2
Gouraud
 70
     2
 71
     2
 72
     2
 73
     1
 90
        2
 40
-0.6
 41
30.0
 62
     5
 63
     7
 74
     0
 91
        4
 64
     7
 65
   257
 75
     1
175
     1
 42
1.0
 92
        0
 66
     7
 43
1.0
 76
     1
 77
     6
 78
     2
 67
     7
 79
     5
170
     0
171
     0
290
     0
174
     0
 93
       13
 44
0.0
173
     0
291
     1
 45
0.0
1001
ACAD
1000
AcDbSavedByObjectVersion
1070
     0
  0
VISUALSTYLE
  5
2E
102
{ACAD_REACTORS
330
2A
102
}
102
{ACAD_XDICTIONARY
360
C2
102
}
330
2A
100
AcDbVisualStyle
  2
GouraudWithEdges
 70
     3
 71
     2
 72
     2
 73
     1
 90
        2
 40
-0.6
 41
30.0
 62
     5
 63
     7
 74
     1
 91
        4
 64
     7
 65
   257
 75
     1
175
     1
 42
1.0
 92
        0
 66
   257
 43
1.0
 76
     1
 77
     6
 78
     2
 67
     7
 79
     5
170
     0
171
     0
290
     0
174
     0
 93
       13
 44
0.0
173
     0
291
     1
 45
0.0
1001
ACAD
1000
AcDbSavedByObjectVersion
1070
     0
  0
VISUALSTYLE
  5
38
102
{ACAD_REACTORS
330
2A
102
}
102
{ACAD_XDICTIONARY
360
D6
102
}
330
2A
100
AcDbVisualStyle
  2
Linepattern
 70
    14
 71
     2
 72
     2
 73
     0
 90
        0
 40
-0.6
 41
-30.0
 62
     5
 63
     7
 74
     1
 91
        4
 64
     7
 65
   257
 75
     7
175
     7
 42
1.0
 92
        8
 66
     7
 43
1.0
 76
     1
 77
     6
 78
     2
 67
     7
 79
     5
170
     0
171
     0
290
     0
174
     0
 93
        1
 44
0.0
173
     0
291
     1
 45
0.0
1001
ACAD
1000
AcDbSavedByObjectVersion
1070
     0
  0
VISUALSTYLE
  5
33
102
{ACAD_REACTORS
330
2A
102
}
102
{ACAD_XDICTIONARY
360
CC
102
}
330
2A
100
AcDbVisualStyle
  2
Realistic
 70
     8
 71
     2
 72
     2
 73
     0
 90
        0
 40
-0.6
 41
-30.0
 62
     5
 63
     7
 74
     1
 91
        0
 64
     7
 65
   257
 75
     1
175
     1
 42
1.0
 92
        8
 66
     8
 43
1.0
 76
     1
 77
     6
 78
     2
 67
     7
 79
     5
170
     0
171
     0
290
     0
174
     0
 93
       13
 44
0.0
173
     0
291
     0
 45
0.0
1001
ACAD
1000
AcDbSavedByObjectVersion
1070
     0
  0
VISUALSTYLE
  5
37
102
{ACAD_REACTORS
330
2A
102
}
102
{ACAD_XDICTIONARY
360
D4
102
}
330
2A
100
AcDbVisualStyle
  2
Thicken
 70
    13
 71
     2
 72
     2
 73
     0
 90
        0
 40
-0.6
 41
-30.0
 62
     5
 63
     7
 74
     1
 91
        4
 64
     7
 65
   257
 75
     1
175
     1
 42
1.0
 92
       12
 66
     7
 43
1.0
 76
     1
 77
     6
 78
     2
 67
     7
 79
     5
170
     0
171
     0
290
     0
174
     0
 93
        1
 44
0.0
173
     0
291
     1
 45
0.0
1001
ACAD
1000
AcDbSavedByObjectVersion
1070
     0
  0
DICTIONARYVAR
  5
BA
102
{ACAD_REACTORS
330
B7
102
}
330
B7
100
DictionaryVariables
280
     0
  1
2
  0
DICTIONARYVAR
  5
BB
102
{ACAD_REACTORS
330
B7
102
}
330
B7
100
DictionaryVariables
280
     0
  1
1
  0
DICTIONARY
  5
DE
330
3D
100
AcDbDictionary
280
     1
281
     1
  3
ACAD_XREC_ROUNDTRIP
360
DF
  0
DICTIONARY
  5
DC
330
3C
100
AcDbDictionary
280
     1
281
     1
  3
ACAD_XREC_ROUNDTRIP
360
DD
  0
DICTIONARY
  5
E0
330
3E
100
AcDbDictionary
280
     1
281
     1
  3
ACAD_XREC_ROUNDTRIP
360
E1
  0
DICTIONARY
  5
C4
330
2F
100
AcDbDictionary
280
     1
281
     1
  3
ACAD_XREC_ROUNDTRIP
360
C5
  0
DICTIONARY
  5
C8
330
31
100
AcDbDictionary
280
     1
281
     1
  3
ACAD_XREC_ROUNDTRIP
360
C9
  0
DICTIONARY
  5
C6
330
30
100
AcDbDictionary
280
     1
281
     1
  3
ACAD_XREC_ROUNDTRIP
360
C7
  0
DICTIONARY
  5
CA
330
32
100
AcDbDictionary
280
     1
281
     1
  3
ACAD_XREC_ROUNDTRIP
360
CB
  0
DICTIONARY
  5
D2
330
36
100
AcDbDictionary
280
     1
281
     1
  3
ACAD_XREC_ROUNDTRIP
360
D3
  0
DICTIONARY
  5
DA
330
3A
100
AcDbDictionary
280
     1
281
     1
  3
ACAD_XREC_ROUNDTRIP
360
DB
  0
DICTIONARY
  5
CE
330
34
100
AcDbDictionary
280
     1
281
     1
  3
ACAD_XREC_ROUNDTRIP
360
CF
  0
DICTIONARY
  5
D0
330
35
100
AcDbDictionary
280
     1
281
     1
  3
ACAD_XREC_ROUNDTRIP
360
D1
  0
DICTIONARY
  5
D8
330
39
100
AcDbDictionary
280
     1
281
     1
  3
ACAD_XREC_ROUNDTRIP
360
D9
  0
DICTIONARY
  5
BC
330
2B
100
AcDbDictionary
280
     1
281
     1
  3
ACAD_XREC_ROUNDTRIP
360
BD
  0
DICTIONARY
  5
BE
330
2C
100
AcDbDictionary
280
     1
281
     1
  3
ACAD_XREC_ROUNDTRIP
360
BF
  0
DICTIONARY
  5
C0
330
2D
100
AcDbDictionary
280
     1
281
     1
  3
ACAD_XREC_ROUNDTRIP
360
C1
  0
DICTIONARY
  5
C2
330
2E
100
AcDbDictionary
280
     1
281
     1
  3
ACAD_XREC_ROUNDTRIP
360
C3
  0
DICTIONARY
  5
D6
330
38
100
AcDbDictionary
280
     1
281
     1
  3
ACAD_XREC_ROUNDTRIP
360
D7
  0
DICTIONARY
  5
CC
330
33
100
AcDbDictionary
280
     1
281
     1
  3
ACAD_XREC_ROUNDTRIP
360
CD
  0
DICTIONARY
  5
D4
330
37
100
AcDbDictionary
280
     1
281
     1
  3
ACAD_XREC_ROUNDTRIP
360
D5
  0
XRECORD
  5
DF
102
{ACAD_REACTORS
330
DE
102
}
330
DE
100
AcDbXrecord
280
     1
102
MATERIAL
148
0.0
149
0.0
149
0.0
 93
        0
 94
      127
282
     0
 72
     1
 77
     1
171
     1
175
     1
179
     1
273
     0
  0
XRECORD
  5
DD
102
{ACAD_REACTORS
330
DC
102
}
330
DC
100
AcDbXrecord
280
     1
102
MATERIAL
148
0.0
149
0.0
149
0.0
 93
        0
 94
      127
282
     0
 72
     1
 77
     1
171
     1
175
     1
179
     1
273
     0
  0
XRECORD
  5
E1
102
{ACAD_REACTORS
330
E0
102
}
330
E0
100
AcDbXrecord
280
     1
102
MATERIAL
148
0.0
149
0.0
149
0.0
 93
        0
 94
      127
282
     0
 72
     1
 77
     1
171
     1
175
     1
179
     1
273
     0
  0
XRECORD
  5
C5
102
{ACAD_REACTORS
330
C4
102
}
330
C4
100
AcDbXrecord
280
     1
102
RTVSPropertyOp0
 70
     1
102
RTVSPropertyOp1
 70
     1
102
RTVSPropertyOp2
 70
     1
102
RTVSPropertyOp3
 70
     1
102
RTVSPropertyOp4
 70
     1
102
RTVSPropertyOp5
 70
     1
102
RTVSPropertyOp6
 70
     1
102
RTVSPropertyOp7
 70
     1
102
RTVSPropertyOp8
 70
     1
102
RTVSPropertyOp9
 70
     1
102
RTVSPropertyOp10
 70
     1
102
RTVSPropertyOp11
 70
     1
102
RTVSPropertyOp12
 70
     1
102
RTVSPropertyOp13
 70
     1
102
RTVSPropertyOp14
 70
     1
102
RTVSPropertyOp15
 70
     1
102
RTVSPropertyOp16
 70
     1
102
RTVSPropertyOp17
 70
     1
102
RTVSPropertyOp18
 70
     1
102
RTVSPropertyOp19
 70
     1
102
RTVSPropertyOp20
 70
     1
102
RTVSPropertyOp21
 70
     1
102
RTVSPropertyOp22
 70
     1
102
RTVSPropertyOp23
 70
     1
102
RTVSPropertyOp24
 70
     1
102
RTVSPropertyOp25
 70
     1
102
RTVSPropertyOp26
 70
     1
102
RTVSPropertyOp27
 70
     1
  0
XRECORD
  5
C9
102
{ACAD_REACTORS
330
C8
102
}
330
C8
100
AcDbXrecord
280
     1
102
RTVSPropertyOp0
 70
     1
102
RTVSPropertyOp1
 70
     1
102
RTVSPropertyOp2
 70
     1
102
RTVSPropertyOp3
 70
     1
102
RTVSPropertyOp4
 70
     1
102
RTVSPropertyOp5
 70
     1
102
RTVSPropertyOp6
 70
     1
102
RTVSPropertyOp7
 70
     1
102
RTVSPropertyOp8
 70
     1
102
RTVSPropertyOp9
 70
     1
102
RTVSPropertyOp10
 70
     1
102
RTVSPropertyOp11
 70
     1
102
RTVSPropertyOp12
 70
     1
102
RTVSPropertyOp13
 70
     1
102
RTVSPropertyOp14
 70
     1
102
RTVSPropertyOp15
 70
     1
102
RTVSPropertyOp16
 70
     1
102
RTVSPropertyOp17
 70
     1
102
RTVSPropertyOp18
 70
     1
102
RTVSPropertyOp19
 70
     1
102
RTVSPropertyOp20
 70
     1
102
RTVSPropertyOp21
 70
     1
102
RTVSPropertyOp22
 70
     1
102
RTVSPropertyOp23
 70
     1
102
RTVSPropertyOp24
 70
     1
102
RTVSPropertyOp25
 70
     1
102
RTVSPropertyOp26
 70
     1
102
RTVSPropertyOp27
 70
     1
  0
XRECORD
  5
C7
102
{ACAD_REACTORS
330
C6
102
}
330
C6
100
AcDbXrecord
280
     1
102
RTVSPropertyOp0
 70
     1
102
RTVSPropertyOp1
 70
     1
102
RTVSPropertyOp2
 70
     1
102
RTVSPropertyOp3
 70
     1
102
RTVSPropertyOp4
 70
     1
102
RTVSPropertyOp5
 70
     1
102
RTVSPropertyOp6
 70
     1
102
RTVSPropertyOp7
 70
     1
102
RTVSPropertyOp8
 70
     1
102
RTVSPropertyOp9
 70
     1
102
RTVSPropertyOp10
 70
     1
102
RTVSPropertyOp11
 70
     1
102
RTVSPropertyOp12
 70
     1
102
RTVSPropertyOp13
 70
     1
102
RTVSPropertyOp14
 70
     1
102
RTVSPropertyOp15
 70
     1
102
RTVSPropertyOp16
 70
     1
102
RTVSPropertyOp17
 70
     1
102
RTVSPropertyOp18
 70
     1
102
RTVSPropertyOp19
 70
     1
102
RTVSPropertyOp20
 70
     1
102
RTVSPropertyOp21
 70
     1
102
RTVSPropertyOp22
 70
     1
102
RTVSPropertyOp23
 70
     1
102
RTVSPropertyOp24
 70
     1
102
RTVSPropertyOp25
 70
     1
102
RTVSPropertyOp26
 70
     1
102
RTVSPropertyOp27
 70
     1
  0
XRECORD
  5
CB
102
{ACAD_REACTORS
330
CA
102
}
330
CA
100
AcDbXrecord
280
     1
102
RTVSPropertyOp0
 70
     1
102
RTVSPropertyOp1
 70
     1
102
RTVSPropertyOp2
 70
     1
102
RTVSPropertyOp3
 70
     1
102
RTVSPropertyOp4
 70
     1
102
RTVSPropertyOp5
 70
     1
102
RTVSPropertyOp6
 70
     1
102
RTVSPropertyOp7
 70
     1
102
RTVSPropertyOp8
 70
     1
102
RTVSPropertyOp9
 70
     1
102
RTVSPropertyOp10
 70
     1
102
RTVSPropertyOp11
 70
     1
102
RTVSPropertyOp12
 70
     1
102
RTVSPropertyOp13
 70
     1
102
RTVSPropertyOp14
 70
     1
102
RTVSPropertyOp15
 70
     1
102
RTVSPropertyOp16
 70
     1
102
RTVSPropertyOp17
 70
     1
102
RTVSPropertyOp18
 70
     1
102
RTVSPropertyOp19
 70
     1
102
RTVSPropertyOp20
 70
     1
102
RTVSPropertyOp21
 70
     1
102
RTVSPropertyOp22
 70
     1
102
RTVSPropertyOp23
 70
     1
102
RTVSPropertyOp24
 70
     1
102
RTVSPropertyOp25
 70
     1
102
RTVSPropertyOp26
 70
     1
102
RTVSPropertyOp27
 70
     1
  0
XRECORD
  5
D3
102
{ACAD_REACTORS
330
D2
102
}
330
D2
100
AcDbXrecord
280
     1
102
RTVSPropertyOp0
 70
     1
102
RTVSPropertyOp1
 70
     1
102
RTVSPropertyOp2
 70
     1
102
RTVSPropertyOp3
 70
     1
102
RTVSPropertyOp4
 70
     1
102
RTVSPropertyOp5
 70
     1
102
RTVSPropertyOp6
 70
     1
102
RTVSPropertyOp7
 70
     1
102
RTVSPropertyOp8
 70
     1
102
RTVSPropertyOp9
 70
     1
102
RTVSPropertyOp10
 70
     1
102
RTVSPropertyOp11
 70
     1
102
RTVSPropertyOp12
 70
     1
102
RTVSPropertyOp13
 70
     1
102
RTVSPropertyOp14
 70
     1
102
RTVSPropertyOp15
 70
     1
102
RTVSPropertyOp16
 70
     1
102
RTVSPropertyOp17
 70
     1
102
RTVSPropertyOp18
 70
     1
102
RTVSPropertyOp19
 70
     1
102
RTVSPropertyOp20
 70
     1
102
RTVSPropertyOp21
 70
     1
102
RTVSPropertyOp22
 70
     1
102
RTVSPropertyOp23
 70
     1
102
RTVSPropertyOp24
 70
     1
102
RTVSPropertyOp25
 70
     1
102
RTVSPropertyOp26
 70
     1
102
RTVSPropertyOp27
 70
     1
  0
XRECORD
  5
DB
102
{ACAD_REACTORS
330
DA
102
}
330
DA
100
AcDbXrecord
280
     1
102
RTVSPropertyOp0
 70
     1
102
RTVSPropertyOp1
 70
     1
102
RTVSPropertyOp2
 70
     1
102
RTVSPropertyOp3
 70
     1
102
RTVSPropertyOp4
 70
     1
102
RTVSPropertyOp5
 70
     1
102
RTVSPropertyOp6
 70
     1
102
RTVSPropertyOp7
 70
     1
102
RTVSPropertyOp8
 70
     1
102
RTVSPropertyOp9
 70
     1
102
RTVSPropertyOp10
 70
     1
102
RTVSPropertyOp11
 70
     1
102
RTVSPropertyOp12
 70
     1
102
RTVSPropertyOp13
 70
     1
102
RTVSPropertyOp14
 70
     1
102
RTVSPropertyOp15
 70
     1
102
RTVSPropertyOp16
 70
     1
102
RTVSPropertyOp17
 70
     1
102
RTVSPropertyOp18
 70
     1
102
RTVSPropertyOp19
 70
     1
102
RTVSPropertyOp20
 70
     1
102
RTVSPropertyOp21
 70
     1
102
RTVSPropertyOp22
 70
     1
102
RTVSPropertyOp23
 70
     1
102
RTVSPropertyOp24
 70
     1
102
RTVSPropertyOp25
 70
     1
102
RTVSPropertyOp26
 70
     1
102
RTVSPropertyOp27
 70
     1
  0
XRECORD
  5
CF
102
{ACAD_REACTORS
330
CE
102
}
330
CE
100
AcDbXrecord
280
     1
102
RTVSPropertyOp0
 70
     1
102
RTVSPropertyOp1
 70
     1
102
RTVSPropertyOp2
 70
     1
102
RTVSPropertyOp3
 70
     1
102
RTVSPropertyOp4
 70
     1
102
RTVSPropertyOp5
 70
     1
102
RTVSPropertyOp6
 70
     1
102
RTVSPropertyOp7
 70
     1
102
RTVSPropertyOp8
 70
     1
102
RTVSPropertyOp9
 70
     1
102
RTVSPropertyOp10
 70
     1
102
RTVSPropertyOp11
 70
     1
102
RTVSPropertyOp12
 70
     1
102
RTVSPropertyOp13
 70
     1
102
RTVSPropertyOp14
 70
     1
102
RTVSPropertyOp15
 70
     1
102
RTVSPropertyOp16
 70
     1
102
RTVSPropertyOp17
 70
     1
102
RTVSPropertyOp18
 70
     1
102
RTVSPropertyOp19
 70
     1
102
RTVSPropertyOp20
 70
     1
102
RTVSPropertyOp21
 70
     1
102
RTVSPropertyOp22
 70
     1
102
RTVSPropertyOp23
 70
     1
102
RTVSPropertyOp24
 70
     1
102
RTVSPropertyOp25
 70
     1
102
RTVSPropertyOp26
 70
     1
102
RTVSPropertyOp27
 70
     1
  0
XRECORD
  5
D1
102
{ACAD_REACTORS
330
D0
102
}
330
D0
100
AcDbXrecord
280
     1
102
RTVSPropertyOp0
 70
     1
102
RTVSPropertyOp1
 70
     1
102
RTVSPropertyOp2
 70
     1
102
RTVSPropertyOp3
 70
     1
102
RTVSPropertyOp4
 70
     1
102
RTVSPropertyOp5
 70
     1
102
RTVSPropertyOp6
 70
     1
102
RTVSPropertyOp7
 70
     1
102
RTVSPropertyOp8
 70
     1
102
RTVSPropertyOp9
 70
     1
102
RTVSPropertyOp10
 70
     1
102
RTVSPropertyOp11
 70
     1
102
RTVSPropertyOp12
 70
     1
102
RTVSPropertyOp13
 70
     1
102
RTVSPropertyOp14
 70
     1
102
RTVSPropertyOp15
 70
     1
102
RTVSPropertyOp16
 70
     1
102
RTVSPropertyOp17
 70
     1
102
RTVSPropertyOp18
 70
     1
102
RTVSPropertyOp19
 70
     1
102
RTVSPropertyOp20
 70
     1
102
RTVSPropertyOp21
 70
     1
102
RTVSPropertyOp22
 70
     1
102
RTVSPropertyOp23
 70
     1
102
RTVSPropertyOp24
 70
     1
102
RTVSPropertyOp25
 70
     1
102
RTVSPropertyOp26
 70
     1
102
RTVSPropertyOp27
 70
     1
  0
XRECORD
  5
D9
102
{ACAD_REACTORS
330
D8
102
}
330
D8
100
AcDbXrecord
280
     1
102
RTVSPropertyOp0
 70
     1
102
RTVSPropertyOp1
 70
     1
102
RTVSPropertyOp2
 70
     1
102
RTVSPropertyOp3
 70
     1
102
RTVSPropertyOp4
 70
     1
102
RTVSPropertyOp5
 70
     1
102
RTVSPropertyOp6
 70
     1
102
RTVSPropertyOp7
 70
     1
102
RTVSPropertyOp8
 70
     1
102
RTVSPropertyOp9
 70
     1
102
RTVSPropertyOp10
 70
     1
102
RTVSPropertyOp11
 70
     1
102
RTVSPropertyOp12
 70
     1
102
RTVSPropertyOp13
 70
     1
102
RTVSPropertyOp14
 70
     1
102
RTVSPropertyOp15
 70
     1
102
RTVSPropertyOp16
 70
     1
102
RTVSPropertyOp17
 70
     1
102
RTVSPropertyOp18
 70
     1
102
RTVSPropertyOp19
 70
     1
102
RTVSPropertyOp20
 70
     1
102
RTVSPropertyOp21
 70
     1
102
RTVSPropertyOp22
 70
     1
102
RTVSPropertyOp23
 70
     1
102
RTVSPropertyOp24
 70
     1
102
RTVSPropertyOp25
 70
     1
102
RTVSPropertyOp26
 70
     1
102
RTVSPropertyOp27
 70
     1
  0
XRECORD
  5
BD
102
{ACAD_REACTORS
330
BC
102
}
330
BC
100
AcDbXrecord
280
     1
102
RTVSPropertyOp0
 70
     1
102
RTVSPropertyOp1
 70
     1
102
RTVSPropertyOp2
 70
     1
102
RTVSPropertyOp3
 70
     1
102
RTVSPropertyOp4
 70
     1
102
RTVSPropertyOp5
 70
     1
102
RTVSPropertyOp6
 70
     1
102
RTVSPropertyOp7
 70
     1
102
RTVSPropertyOp8
 70
     1
102
RTVSPropertyOp9
 70
     1
102
RTVSPropertyOp10
 70
     1
102
RTVSPropertyOp11
 70
     1
102
RTVSPropertyOp12
 70
     1
102
RTVSPropertyOp13
 70
     1
102
RTVSPropertyOp14
 70
     1
102
RTVSPropertyOp15
 70
     1
102
RTVSPropertyOp16
 70
     1
102
RTVSPropertyOp17
 70
     1
102
RTVSPropertyOp18
 70
     1
102
RTVSPropertyOp19
 70
     1
102
RTVSPropertyOp20
 70
     1
102
RTVSPropertyOp21
 70
     1
102
RTVSPropertyOp22
 70
     1
102
RTVSPropertyOp23
 70
     1
102
RTVSPropertyOp24
 70
     1
102
RTVSPropertyOp25
 70
     1
102
RTVSPropertyOp26
 70
     1
102
RTVSPropertyOp27
 70
     1
  0
XRECORD
  5
BF
102
{ACAD_REACTORS
330
BE
102
}
330
BE
100
AcDbXrecord
280
     1
102
RTVSPropertyOp0
 70
     1
102
RTVSPropertyOp1
 70
     1
102
RTVSPropertyOp2
 70
     1
102
RTVSPropertyOp3
 70
     1
102
RTVSPropertyOp4
 70
     1
102
RTVSPropertyOp5
 70
     1
102
RTVSPropertyOp6
 70
     1
102
RTVSPropertyOp7
 70
     1
102
RTVSPropertyOp8
 70
     1
102
RTVSPropertyOp9
 70
     1
102
RTVSPropertyOp10
 70
     1
102
RTVSPropertyOp11
 70
     1
102
RTVSPropertyOp12
 70
     1
102
RTVSPropertyOp13
 70
     1
102
RTVSPropertyOp14
 70
     1
102
RTVSPropertyOp15
 70
     1
102
RTVSPropertyOp16
 70
     1
102
RTVSPropertyOp17
 70
     1
102
RTVSPropertyOp18
 70
     1
102
RTVSPropertyOp19
 70
     1
102
RTVSPropertyOp20
 70
     1
102
RTVSPropertyOp21
 70
     1
102
RTVSPropertyOp22
 70
     1
102
RTVSPropertyOp23
 70
     1
102
RTVSPropertyOp24
 70
     1
102
RTVSPropertyOp25
 70
     1
102
RTVSPropertyOp26
 70
     1
102
RTVSPropertyOp27
 70
     1
  0
XRECORD
  5
C1
102
{ACAD_REACTORS
330
C0
102
}
330
C0
100
AcDbXrecord
280
     1
102
RTVSPropertyOp0
 70
     1
102
RTVSPropertyOp1
 70
     1
102
RTVSPropertyOp2
 70
     1
102
RTVSPropertyOp3
 70
     1
102
RTVSPropertyOp4
 70
     1
102
RTVSPropertyOp5
 70
     1
102
RTVSPropertyOp6
 70
     1
102
RTVSPropertyOp7
 70
     1
102
RTVSPropertyOp8
 70
     1
102
RTVSPropertyOp9
 70
     1
102
RTVSPropertyOp10
 70
     1
102
RTVSPropertyOp11
 70
     1
102
RTVSPropertyOp12
 70
     1
102
RTVSPropertyOp13
 70
     1
102
RTVSPropertyOp14
 70
     1
102
RTVSPropertyOp15
 70
     1
102
RTVSPropertyOp16
 70
     1
102
RTVSPropertyOp17
 70
     1
102
RTVSPropertyOp18
 70
     1
102
RTVSPropertyOp19
 70
     1
102
RTVSPropertyOp20
 70
     1
102
RTVSPropertyOp21
 70
     1
102
RTVSPropertyOp22
 70
     1
102
RTVSPropertyOp23
 70
     1
102
RTVSPropertyOp24
 70
     1
102
RTVSPropertyOp25
 70
     1
102
RTVSPropertyOp26
 70
     1
102
RTVSPropertyOp27
 70
     1
  0
XRECORD
  5
C3
102
{ACAD_REACTORS
330
C2
102
}
330
C2
100
AcDbXrecord
280
     1
102
RTVSPropertyOp0
 70
     1
102
RTVSPropertyOp1
 70
     1
102
RTVSPropertyOp2
 70
     1
102
RTVSPropertyOp3
 70
     1
102
RTVSPropertyOp4
 70
     1
102
RTVSPropertyOp5
 70
     1
102
RTVSPropertyOp6
 70
     1
102
RTVSPropertyOp7
 70
     1
102
RTVSPropertyOp8
 70
     1
102
RTVSPropertyOp9
 70
     1
102
RTVSPropertyOp10
 70
     1
102
RTVSPropertyOp11
 70
     1
102
RTVSPropertyOp12
 70
     1
102
RTVSPropertyOp13
 70
     1
102
RTVSPropertyOp14
 70
     1
102
RTVSPropertyOp15
 70
     1
102
RTVSPropertyOp16
 70
     1
102
RTVSPropertyOp17
 70
     1
102
RTVSPropertyOp18
 70
     1
102
RTVSPropertyOp19
 70
     1
102
RTVSPropertyOp20
 70
     1
102
RTVSPropertyOp21
 70
     1
102
RTVSPropertyOp22
 70
     1
102
RTVSPropertyOp23
 70
     1
102
RTVSPropertyOp24
 70
     1
102
RTVSPropertyOp25
 70
     1
102
RTVSPropertyOp26
 70
     1
102
RTVSPropertyOp27
 70
     1
  0
XRECORD
  5
D7
102
{ACAD_REACTORS
330
D6
102
}
330
D6
100
AcDbXrecord
280
     1
102
RTVSPropertyOp0
 70
     1
102
RTVSPropertyOp1
 70
     1
102
RTVSPropertyOp2
 70
     1
102
RTVSPropertyOp3
 70
     1
102
RTVSPropertyOp4
 70
     1
102
RTVSPropertyOp5
 70
     1
102
RTVSPropertyOp6
 70
     1
102
RTVSPropertyOp7
 70
     1
102
RTVSPropertyOp8
 70
     1
102
RTVSPropertyOp9
 70
     1
102
RTVSPropertyOp10
 70
     1
102
RTVSPropertyOp11
 70
     1
102
RTVSPropertyOp12
 70
     1
102
RTVSPropertyOp13
 70
     1
102
RTVSPropertyOp14
 70
     1
102
RTVSPropertyOp15
 70
     1
102
RTVSPropertyOp16
 70
     1
102
RTVSPropertyOp17
 70
     1
102
RTVSPropertyOp18
 70
     1
102
RTVSPropertyOp19
 70
     1
102
RTVSPropertyOp20
 70
     1
102
RTVSPropertyOp21
 70
     1
102
RTVSPropertyOp22
 70
     1
102
RTVSPropertyOp23
 70
     1
102
RTVSPropertyOp24
 70
     1
102
RTVSPropertyOp25
 70
     1
102
RTVSPropertyOp26
 70
     1
102
RTVSPropertyOp27
 70
     1
  0
XRECORD
  5
CD
102
{ACAD_REACTORS
330
CC
102
}
330
CC
100
AcDbXrecord
280
     1
102
RTVSPropertyOp0
 70
     1
102
RTVSPropertyOp1
 70
     1
102
RTVSPropertyOp2
 70
     1
102
RTVSPropertyOp3
 70
     1
102
RTVSPropertyOp4
 70
     1
102
RTVSPropertyOp5
 70
     1
102
RTVSPropertyOp6
 70
     1
102
RTVSPropertyOp7
 70
     1
102
RTVSPropertyOp8
 70
     1
102
RTVSPropertyOp9
 70
     1
102
RTVSPropertyOp10
 70
     1
102
RTVSPropertyOp11
 70
     1
102
RTVSPropertyOp12
 70
     1
102
RTVSPropertyOp13
 70
     1
102
RTVSPropertyOp14
 70
     1
102
RTVSPropertyOp15
 70
     1
102
RTVSPropertyOp16
 70
     1
102
RTVSPropertyOp17
 70
     1
102
RTVSPropertyOp18
 70
     1
102
RTVSPropertyOp19
 70
     1
102
RTVSPropertyOp20
 70
     1
102
RTVSPropertyOp21
 70
     1
102
RTVSPropertyOp22
 70
     1
102
RTVSPropertyOp23
 70
     1
102
RTVSPropertyOp24
 70
     1
102
RTVSPropertyOp25
 70
     1
102
RTVSPropertyOp26
 70
     1
102
RTVSPropertyOp27
 70
     1
  0
XRECORD
  5
D5
102
{ACAD_REACTORS
330
D4
102
}
330
D4
100
AcDbXrecord
280
     1
102
RTVSPropertyOp0
 70
     1
102
RTVSPropertyOp1
 70
     1
102
RTVSPropertyOp2
 70
     1
102
RTVSPropertyOp3
 70
     1
102
RTVSPropertyOp4
 70
     1
102
RTVSPropertyOp5
 70
     1
102
RTVSPropertyOp6
 70
     1
102
RTVSPropertyOp7
 70
     1
102
RTVSPropertyOp8
 70
     1
102
RTVSPropertyOp9
 70
     1
102
RTVSPropertyOp10
 70
     1
102
RTVSPropertyOp11
 70
     1
102
RTVSPropertyOp12
 70
     1
102
RTVSPropertyOp13
 70
     1
102
RTVSPropertyOp14
 70
     1
102
RTVSPropertyOp15
 70
     1
102
RTVSPropertyOp16
 70
     1
102
RTVSPropertyOp17
 70
     1
102
RTVSPropertyOp18
 70
     1
102
RTVSPropertyOp19
 70
     1
102
RTVSPropertyOp20
 70
     1
102
RTVSPropertyOp21
 70
     1
102
RTVSPropertyOp22
 70
     1
102
RTVSPropertyOp23
 70
     1
102
RTVSPropertyOp24
 70
     1
102
RTVSPropertyOp25
 70
     1
102
RTVSPropertyOp26
 70
     1
102
RTVSPropertyOp27
 70
     1
  0
ENDSEC
  0
EOF
