  0
SECTION
  2
HEADER
  9
$ACADVER
  1
AC1014
  9
$ACADMAINTVER
 70
     9
  9
$DWGCODEPAGE
  3
ANSI_1250
  9
$INSBASE
 10
0.0
 20
0.0
 30
0.0
  9
$EXTMIN
 10
-34.3417
 20
-26.5796
 30
0.0
  9
$EXTMAX
 10
34.3418
 20
26.4385
 30
0.0
  9
$LIMMIN
 10
0.0
 20
0.0
  9
$LIMMAX
 10
12.0
 20
9.0
  9
$ORTHOMODE
 70
     0
  9
$REGENMODE
 70
     1
  9
$FILLMODE
 70
     1
  9
$QTEXTMODE
 70
     0
  9
$MIRRTEXT
 70
     1
  9
$DRAGMODE
 70
     2
  9
$LTSCALE
 40
1.0
  9
$OSMODE
 70
    37
  9
$ATTMODE
 70
     1
  9
$TEXTSIZE
 40
0.2
  9
$TRACEWID
 40
0.05
  9
$TEXTSTYLE
  7
STANDARD
  9
$CLAYER
  8
0
  9
$CELTYPE
  6
BYLAYER
  9
$CECOLOR
 62
   256
  9
$CELTSCALE
 40
1.0
  9
$DELOBJ
 70
     1
  9
$DISPSILH
 70
     0
  9
$DIMSCALE
 40
1.0
  9
$DIMASZ
 40
0.18
  9
$DIMEXO
 40
0.0625
  9
$DIMDLI
 40
0.38
  9
$DIMRND
 40
0.0
  9
$DIMDLE
 40
0.0
  9
$DIMEXE
 40
0.18
  9
$DIMTP
 40
0.0
  9
$DIMTM
 40
0.0
  9
$DIMTXT
 40
0.18
  9
$DIMCEN
 40
0.09
  9
$DIMTSZ
 40
0.0
  9
$DIMTOL
 70
     0
  9
$DIMLIM
 70
     0
  9
$DIMTIH
 70
     1
  9
$DIMTOH
 70
     1
  9
$DIMSE1
 70
     0
  9
$DIMSE2
 70
     0
  9
$DIMTAD
 70
     0
  9
$DIMZIN
 70
     0
  9
$DIMBLK
  1

  9
$DIMASO
 70
     1
  9
$DIMSHO
 70
     1
  9
$DIMPOST
  1

  9
$DIMAPOST
  1

  9
$DIMALT
 70
     0
  9
$DIMALTD
 70
     2
  9
$DIMALTF
 40
25.4
  9
$DIMLFAC
 40
1.0
  9
$DIMTOFL
 70
     0
  9
$DIMTVP
 40
0.0
  9
$DIMTIX
 70
     0
  9
$DIMSOXD
 70
     0
  9
$DIMSAH
 70
     0
  9
$DIMBLK1
  1

  9
$DIMBLK2
  1

  9
$DIMSTYLE
  2
STANDARD
  9
$DIMCLRD
 70
     0
  9
$DIMCLRE
 70
     0
  9
$DIMCLRT
 70
     0
  9
$DIMTFAC
 40
1.0
  9
$DIMGAP
 40
0.09
  9
$DIMJUST
 70
     0
  9
$DIMSD1
 70
     0
  9
$DIMSD2
 70
     0
  9
$DIMTOLJ
 70
     1
  9
$DIMTZIN
 70
     0
  9
$DIMALTZ
 70
     0
  9
$DIMALTTZ
 70
     0
  9
$DIMFIT
 70
     3
  9
$DIMUPT
 70
     0
  9
$DIMUNIT
 70
     2
  9
$DIMDEC
 70
     4
  9
$DIMTDEC
 70
     4
  9
$DIMALTU
 70
     2
  9
$DIMALTTD
 70
     2
  9
$DIMTXSTY
  7
STANDARD
  9
$DIMAUNIT
 70
     0
  9
$LUNITS
 70
     2
  9
$LUPREC
 70
     4
  9
$SKETCHINC
 40
0.1
  9
$FILLETRAD
 40
0.5
  9
$AUNITS
 70
     0
  9
$AUPREC
 70
     0
  9
$MENU
  1
.
  9
$ELEVATION
 40
0.0
  9
$PELEVATION
 40
0.0
  9
$THICKNESS
 40
0.0
  9
$LIMCHECK
 70
     0
  9
$CHAMFERA
 40
0.5
  9
$CHAMFERB
 40
0.5
  9
$CHAMFERC
 40
1.0
  9
$CHAMFERD
 40
0.0
  9
$SKPOLY
 70
     0
  9
$TDCREATE
 40
2456268.5994425
  9
$TDUPDATE
 40
2456268.599442512
  9
$TDINDWG
 40
0.0000000116
  9
$TDUSRTIMER
 40
0.0000000116
  9
$USRTIMER
 70
     1
  9
$ANGBASE
 50
0.0
  9
$ANGDIR
 70
     0
  9
$PDMODE
 70
     0
  9
$PDSIZE
 40
0.0
  9
$PLINEWID
 40
0.0
  9
$COORDS
 70
     1
  9
$SPLFRAME
 70
     0
  9
$SPLINETYPE
 70
     6
  9
$SPLINESEGS
 70
     8
  9
$ATTDIA
 70
     0
  9
$ATTREQ
 70
     1
  9
$HANDLING
 70
     1
  9
$HANDSEED
  5
E3
  9
$SURFTAB1
 70
     6
  9
$SURFTAB2
 70
     6
  9
$SURFTYPE
 70
     6
  9
$SURFU
 70
     6
  9
$SURFV
 70
     6
  9
$UCSNAME
  2

  9
$UCSORG
 10
0.0
 20
0.0
 30
0.0
  9
$UCSXDIR
 10
1.0
 20
0.0
 30
0.0
  9
$UCSYDIR
 10
0.0
 20
1.0
 30
0.0
  9
$PUCSNAME
  2

  9
$PUCSORG
 10
0.0
 20
0.0
 30
0.0
  9
$PUCSXDIR
 10
1.0
 20
0.0
 30
0.0
  9
$PUCSYDIR
 10
0.0
 20
1.0
 30
0.0
  9
$USERI1
 70
     0
  9
$USERI2
 70
     0
  9
$USERI3
 70
     0
  9
$USERI4
 70
     0
  9
$USERI5
 70
     0
  9
$USERR1
 40
0.0
  9
$USERR2
 40
0.0
  9
$USERR3
 40
0.0
  9
$USERR4
 40
0.0
  9
$USERR5
 40
0.0
  9
$WORLDVIEW
 70
     1
  9
$SHADEDGE
 70
     3
  9
$SHADEDIF
 70
    70
  9
$TILEMODE
 70
     1
  9
$MAXACTVP
 70
    64
  9
$PINSBASE
 10
0.0
 20
0.0
 30
0.0
  9
$PLIMCHECK
 70
     0
  9
$PEXTMIN
 10
1.000000000000000E+20
 20
1.000000000000000E+20
 30
1.000000000000000E+20
  9
$PEXTMAX
 10
-1.000000000000000E+20
 20
-1.000000000000000E+20
 30
-1.000000000000000E+20
  9
$PLIMMIN
 10
0.0
 20
0.0
  9
$PLIMMAX
 10
12.0
 20
9.0
  9
$UNITMODE
 70
     0
  9
$VISRETAIN
 70
     1
  9
$PLINEGEN
 70
     0
  9
$PSLTSCALE
 70
     1
  9
$TREEDEPTH
 70
  3020
  9
$PICKSTYLE
 70
     1
  9
$CMLSTYLE
  2
STANDARD
  9
$CMLJUST
 70
     0
  9
$CMLSCALE
 40
1.0
  9
$PROXYGRAPHICS
 70
     1
  9
$MEASUREMENT
 70
     0
  0
ENDSEC
  0
SECTION
  2
CLASSES
  0
CLASS
  1
ACDBDICTIONARYWDFLT
  2
AcDbDictionaryWithDefault
  3
ObjectDBX Classes
 90
        0
280
     0
281
     0
  0
CLASS
  1
VISUALSTYLE
  2
AcDbVisualStyle
  3
ObjectDBX Classes
 90
     4095
280
     0
281
     0
  0
CLASS
  1
MATERIAL
  2
AcDbMaterial
  3
ObjectDBX Classes
 90
     1153
280
     0
281
     0
  0
CLASS
  1
DICTIONARYVAR
  2
AcDbDictionaryVar
  3
ObjectDBX Classes
 90
        0
280
     0
281
     0
  0
CLASS
  1
XRECORD
  2
AcDbXrecord
  3
AutoCAD 2000
 90
        0
280
     0
281
     0
  0
CLASS
  1
LWPOLYLINE
  2
AcDbPolyline
  3
AutoCAD 2000
 90
        0
280
     0
281
     1
  0
CLASS
  1
HATCH
  2
AcDbHatch
  3
AutoCAD 2000
 90
        0
280
     0
281
     1
  0
CLASS
  1
ACDBPLACEHOLDER
  2
AcDbPlaceHolder
  3
ObjectDBX Classes
 90
        0
280
     0
281
     0
  0
CLASS
  1
LAYOUT
  2
AcDbLayout
  3
ObjectDBX Classes
 90
        0
280
     0
281
     0
  0
ENDSEC
  0
SECTION
  2
TABLES
  0
TABLE
  2
VPORT
  5
8
330
0
100
AcDbSymbolTable
 70
     1
  0
VPORT
  5
29
330
8
100
AcDbSymbolTableRecord
100
AcDbViewportTableRecord
  2
*ACTIVE
 70
     0
 10
0.0
 20
0.0
 11
1.0
 21
1.0
 12
10.42990654205607
 22
4.5
 13
0.0
 23
0.0
 14
0.5
 24
0.5
 15
0.5
 25
0.5
 16
0.0
 26
0.0
 36
1.0
 17
0.0
 27
0.0
 37
0.0
 40
9.0
 41
1.972972972850329
 42
50.0
 43
0.0
 44
0.0
 50
0.0
 51
0.0
 71
     0
 72
   100
 73
     1
 74
     3
 75
     0
 76
     0
 77
     0
 78
     0
  0
ENDTAB
  0
TABLE
  2
LTYPE
  5
5
330
0
100
AcDbSymbolTable
 70
     1
  0
LTYPE
  5
14
330
5
100
AcDbSymbolTableRecord
100
AcDbLinetypeTableRecord
  2
BYBLOCK
 70
     0
  3

 72
    65
 73
     0
 40
0.0
  0
LTYPE
  5
15
330
5
100
AcDbSymbolTableRecord
100
AcDbLinetypeTableRecord
  2
BYLAYER
 70
     0
  3

 72
    65
 73
     0
 40
0.0
  0
LTYPE
  5
16
330
5
100
AcDbSymbolTableRecord
100
AcDbLinetypeTableRecord
  2
CONTINUOUS
 70
     0
  3
Solid line
 72
    65
 73
     0
 40
0.0
  0
ENDTAB
  0
TABLE
  2
LAYER
  5
2
330
0
100
AcDbSymbolTable
 70
     2
  0
LAYER
  5
10
330
2
100
AcDbSymbolTableRecord
100
AcDbLayerTableRecord
  2
0
 70
     0
 62
     7
  6
CONTINUOUS
  0
LAYER
  5
40
330
2
100
AcDbSymbolTableRecord
100
AcDbLayerTableRecord
  2
DEFAULT_3
 70
     0
 62
     7
  6
CONTINUOUS
  0
ENDTAB
  0
TABLE
  2
STYLE
  5
3
330
0
100
AcDbSymbolTable
 70
     1
  0
STYLE
  5
11
330
3
100
AcDbSymbolTableRecord
100
AcDbTextStyleTableRecord
  2
STANDARD
 70
     0
 40
0.0
 41
1.0
 50
0.0
 71
     0
 42
0.2
  3
txt
  4

  0
ENDTAB
  0
TABLE
  2
VIEW
  5
6
330
0
100
AcDbSymbolTable
 70
     0
  0
ENDTAB
  0
TABLE
  2
UCS
  5
7
330
0
100
AcDbSymbolTable
 70
     0
  0
ENDTAB
  0
TABLE
  2
APPID
  5
9
330
0
100
AcDbSymbolTable
 70
     2
  0
APPID
  5
12
330
9
100
AcDbSymbolTableRecord
100
AcDbRegAppTableRecord
  2
ACAD
 70
     0
  0
APPID
  5
3F
330
9
100
AcDbSymbolTableRecord
100
AcDbRegAppTableRecord
  2
ODA
 70
     0
  0
ENDTAB
  0
TABLE
  2
DIMSTYLE
  5
A
330
0
100
AcDbSymbolTable
 70
     1
  0
DIMSTYLE
105
27
330
A
100
AcDbSymbolTableRecord
100
AcDbDimStyleTableRecord
  2
STANDARD
 70
     0
  3

  4

  5

  6

  7

 40
1.0
 41
0.18
 42
0.0625
 43
0.38
 44
0.18
 45
0.0
 46
0.0
 47
0.0
 48
0.0
140
0.18
141
0.09
142
0.0
143
25.4
144
1.0
145
0.0
146
1.0
147
0.09
 71
     0
 72
     0
 73
     1
 74
     1
 75
     0
 76
     0
 77
     0
 78
     0
170
     0
171
     2
172
     0
173
     0
174
     0
175
     0
176
     0
177
     0
178
     0
270
     2
271
     4
272
     4
273
     2
274
     2
340
11
275
     0
280
     0
281
     0
282
     0
283
     1
284
     0
285
     0
286
     0
287
     3
288
     0
  0
ENDTAB
  0
TABLE
  2
BLOCK_RECORD
  5
1
330
0
100
AcDbSymbolTable
 70
     1
  0
BLOCK_RECORD
  5
1F
330
1
100
AcDbSymbolTableRecord
100
AcDbBlockTableRecord
  2
*MODEL_SPACE
  0
BLOCK_RECORD
  5
1B
330
1
100
AcDbSymbolTableRecord
100
AcDbBlockTableRecord
  2
*PAPER_SPACE
  0
ENDTAB
  0
ENDSEC
  0
SECTION
  2
BLOCKS
  0
BLOCK
  5
20
330
1F
100
AcDbEntity
  8
0
100
AcDbBlockBegin
  2
*MODEL_SPACE
 70
     0
 10
0.0
 20
0.0
 30
0.0
  3
*MODEL_SPACE
  1

  0
ENDBLK
  5
21
330
1F
100
AcDbEntity
  8
0
100
AcDbBlockEnd
  0
BLOCK
  5
1C
330
1B
100
AcDbEntity
 67
     1
  8
0
100
AcDbBlockBegin
  2
*PAPER_SPACE
 70
     0
 10
0.0
 20
0.0
 30
0.0
  3
*PAPER_SPACE
  1

  0
ENDBLK
  5
1D
330
1B
100
AcDbEntity
 67
     1
  8
0
100
AcDbBlockEnd
  0
ENDSEC
  0
SECTION
  2
ENTITIES
  0
SPLINE
  5
41
330
1F
100
AcDbEntity
  8
DEFAULT_3
 62
   250
100
AcDbSpline
210
0.0
220
0.0
230
1.0
 70
    24
 71
     3
 72
     8
 73
     4
 74
     0
 42
0.0000000001
 43
0.0000000001
 40
0.0
 40
0.0
 40
0.0
 40
0.0
 40
1.0
 40
1.0
 40
1.0
 40
1.0
 10
-27.8724
 20
20.7528
 30
0.0
 10
-27.8724
 20
20.7528
 30
0.0
 10
-27.8724
 20
24.0271
 30
0.0
 10
-27.8724
 20
24.0271
 30
0.0
  0
SPLINE
  5
42
330
1F
100
AcDbEntity
  8
DEFAULT_3
 62
   250
100
AcDbSpline
210
0.0
220
0.0
230
1.0
 70
    24
 71
     3
 72
     8
 73
     4
 74
     0
 42
0.0000000001
 43
0.0000000001
 40
0.0
 40
0.0
 40
0.0
 40
0.0
 40
1.0
 40
1.0
 40
1.0
 40
1.0
 10
18.5637
 20
20.5378
 30
0.0
 10
18.5637
 20
20.5378
 30
0.0
 10
18.5637
 20
23.9855
 30
0.0
 10
18.5637
 20
23.9855
 30
0.0
  0
SPLINE
  5
43
330
1F
100
AcDbEntity
  8
DEFAULT_3
 62
   250
100
AcDbSpline
210
0.0
220
0.0
230
1.0
 70
    24
 71
     3
 72
     8
 73
     4
 74
     0
 42
0.0000000001
 43
0.0000000001
 40
0.0
 40
0.0
 40
0.0
 40
0.0
 40
1.0
 40
1.0
 40
1.0
 40
1.0
 10
17.5009
 20
23.6502
 30
0.0
 10
17.5009
 20
23.6502
 30
0.0
 10
-26.9576
 20
23.6502
 30
0.0
 10
-26.9576
 20
23.6502
 30
0.0
  0
SPLINE
  5
44
330
1F
100
AcDbEntity
  8
DEFAULT_3
 62
   250
100
AcDbSpline
210
0.0
220
0.0
230
1.0
 70
    11
 71
     3
 72
    40
 73
    36
 74
     0
 42
0.0000000001
 43
0.0000000001
 40
0.0
 40
0.0
 40
0.0
 40
0.0
 40
0.1
 40
0.1
 40
0.1
 40
0.1
 40
0.2
 40
0.2
 40
0.2
 40
0.2
 40
0.3
 40
0.3
 40
0.3
 40
0.3
 40
0.4
 40
0.4
 40
0.4
 40
0.4
 40
0.5
 40
0.5
 40
0.5
 40
0.5
 40
0.6
 40
0.6
 40
0.6
 40
0.6
 40
0.7
 40
0.7
 40
0.7
 40
0.7
 40
0.8
 40
0.8
 40
0.8
 40
0.8
 40
1.0
 40
1.0
 40
1.0
 40
1.0
 10
-5.6507
 20
24.4098
 30
0.0
 10
-5.6507
 20
24.4098
 30
0.0
 10
-5.8986
 20
24.4098
 30
0.0
 10
-5.8986
 20
24.4098
 30
0.0
 10
-5.8986
 20
24.4098
 30
0.0
 10
-5.8986
 20
24.4098
 30
0.0
 10
-5.8986
 20
25.9902
 30
0.0
 10
-5.8986
 20
25.9902
 30
0.0
 10
-5.8986
 20
25.9902
 30
0.0
 10
-5.9584
 20
25.9333
 30
0.0
 10
-6.0364
 20
25.8764
 30
0.0
 10
-6.1333
 20
25.8195
 30
0.0
 10
-6.1333
 20
25.8195
 30
0.0
 10
-6.2307
 20
25.7626
 30
0.0
 10
-6.3177
 20
25.7198
 30
0.0
 10
-6.3949
 20
25.6915
 30
0.0
 10
-6.3949
 20
25.6915
 30
0.0
 10
-6.3949
 20
25.6915
 30
0.0
 10
-6.3949
 20
25.931
 30
0.0
 10
-6.3949
 20
25.931
 30
0.0
 10
-6.3949
 20
25.931
 30
0.0
 10
-6.2561
 20
25.9963
 30
0.0
 10
-6.1347
 20
26.0754
 30
0.0
 10
-6.0308
 20
26.168
 30
0.0
 10
-6.0308
 20
26.168
 30
0.0
 10
-5.9273
 20
26.2612
 30
0.0
 10
-5.8535
 20
26.351
 30
0.0
 10
-5.8102
 20
26.4385
 30
0.0
 10
-5.8102
 20
26.4385
 30
0.0
 10
-5.8102
 20
26.4385
 30
0.0
 10
-5.6507
 20
26.4385
 30
0.0
 10
-5.6507
 20
26.4385
 30
0.0
 10
-5.6507
 20
26.4385
 30
0.0
 10
-5.6507
 20
26.4385
 30
0.0
 10
-5.6507
 20
24.4098
 30
0.0
 10
-5.6507
 20
24.4098
 30
0.0
  0
SPLINE
  5
45
330
1F
100
AcDbEntity
  8
DEFAULT_3
 62
   250
100
AcDbSpline
210
0.0
220
0.0
230
1.0
 70
    11
 71
     3
 72
    48
 73
    44
 74
     0
 42
0.0000000001
 43
0.0000000001
 40
0.0
 40
0.0
 40
0.0
 40
0.0
 40
0.0833333333333333
 40
0.0833333333333333
 40
0.0833333333333333
 40
0.0833333333333333
 40
0.1666666666666667
 40
0.1666666666666667
 40
0.1666666666666667
 40
0.1666666666666667
 40
0.25
 40
0.25
 40
0.25
 40
0.25
 40
0.3333333333333333
 40
0.3333333333333333
 40
0.3333333333333333
 40
0.3333333333333333
 40
0.4166666666666667
 40
0.4166666666666667
 40
0.4166666666666667
 40
0.4166666666666667
 40
0.5
 40
0.5
 40
0.5
 40
0.5
 40
0.5833333333333334
 40
0.5833333333333334
 40
0.5833333333333334
 40
0.5833333333333334
 40
0.6666666666666666
 40
0.6666666666666666
 40
0.6666666666666666
 40
0.6666666666666666
 40
0.75
 40
0.75
 40
0.75
 40
0.75
 40
0.8333333333333334
 40
0.8333333333333334
 40
0.8333333333333334
 40
0.8333333333333334
 40
1.0
 40
1.0
 40
1.0
 40
1.0
 10
-4.2204
 20
24.4098
 30
0.0
 10
-4.2204
 20
24.4098
 30
0.0
 10
-4.2204
 20
24.8933
 30
0.0
 10
-4.2204
 20
24.8933
 30
0.0
 10
-4.2204
 20
24.8933
 30
0.0
 10
-4.2204
 20
24.8933
 30
0.0
 10
-5.0967
 20
24.8933
 30
0.0
 10
-5.0967
 20
24.8933
 30
0.0
 10
-5.0967
 20
24.8933
 30
0.0
 10
-5.0967
 20
24.8933
 30
0.0
 10
-5.0967
 20
25.121
 30
0.0
 10
-5.0967
 20
25.121
 30
0.0
 10
-5.0967
 20
25.121
 30
0.0
 10
-5.0967
 20
25.121
 30
0.0
 10
-4.1747
 20
26.43
 30
0.0
 10
-4.1747
 20
26.43
 30
0.0
 10
-4.1747
 20
26.43
 30
0.0
 10
-4.1747
 20
26.43
 30
0.0
 10
-3.972
 20
26.43
 30
0.0
 10
-3.972
 20
26.43
 30
0.0
 10
-3.972
 20
26.43
 30
0.0
 10
-3.972
 20
26.43
 30
0.0
 10
-3.972
 20
25.121
 30
0.0
 10
-3.972
 20
25.121
 30
0.0
 10
-3.972
 20
25.121
 30
0.0
 10
-3.972
 20
25.121
 30
0.0
 10
-3.6992
 20
25.121
 30
0.0
 10
-3.6992
 20
25.121
 30
0.0
 10
-3.6992
 20
25.121
 30
0.0
 10
-3.6992
 20
25.121
 30
0.0
 10
-3.6992
 20
24.8933
 30
0.0
 10
-3.6992
 20
24.8933
 30
0.0
 10
-3.6992
 20
24.8933
 30
0.0
 10
-3.6992
 20
24.8933
 30
0.0
 10
-3.972
 20
24.8933
 30
0.0
 10
-3.972
 20
24.8933
 30
0.0
 10
-3.972
 20
24.8933
 30
0.0
 10
-3.972
 20
24.8933
 30
0.0
 10
-3.972
 20
24.4098
 30
0.0
 10
-3.972
 20
24.4098
 30
0.0
 10
-3.972
 20
24.4098
 30
0.0
 10
-3.972
 20
24.4098
 30
0.0
 10
-4.2204
 20
24.4098
 30
0.0
 10
-4.2204
 20
24.4098
 30
0.0
  0
SPLINE
  5
46
330
1F
100
AcDbEntity
  8
DEFAULT_3
 62
   250
100
AcDbSpline
210
0.0
220
0.0
230
1.0
 70
    11
 71
     3
 72
    16
 73
    12
 74
     0
 42
0.0000000001
 43
0.0000000001
 40
0.0
 40
0.0
 40
0.0
 40
0.0
 40
0.25
 40
0.25
 40
0.25
 40
0.25
 40
0.5
 40
0.5
 40
0.5
 40
0.5
 40
1.0
 40
1.0
 40
1.0
 40
1.0
 10
-4.2204
 20
25.121
 30
0.0
 10
-4.2204
 20
25.121
 30
0.0
 10
-4.2204
 20
26.0316
 30
0.0
 10
-4.2204
 20
26.0316
 30
0.0
 10
-4.2204
 20
26.0316
 30
0.0
 10
-4.2204
 20
26.0316
 30
0.0
 10
-4.8525
 20
25.121
 30
0.0
 10
-4.8525
 20
25.121
 30
0.0
 10
-4.8525
 20
25.121
 30
0.0
 10
-4.8525
 20
25.121
 30
0.0
 10
-4.2204
 20
25.121
 30
0.0
 10
-4.2204
 20
25.121
 30
0.0
  0
SPLINE
  5
47
330
1F
100
AcDbEntity
  8
DEFAULT_3
 62
   250
100
AcDbSpline
210
0.0
220
0.0
230
1.0
 70
    11
 71
     3
 72
   124
 73
   120
 74
     0
 42
0.0000000001
 43
0.0000000001
 40
0.0
 40
0.0
 40
0.0
 40
0.0
 40
0.032258064516129
 40
0.032258064516129
 40
0.032258064516129
 40
0.032258064516129
 40
0.0645161290322581
 40
0.0645161290322581
 40
0.0645161290322581
 40
0.0645161290322581
 40
0.0967741935483871
 40
0.0967741935483871
 40
0.0967741935483871
 40
0.0967741935483871
 40
0.1290322580645161
 40
0.1290322580645161
 40
0.1290322580645161
 40
0.1290322580645161
 40
0.1612903225806452
 40
0.1612903225806452
 40
0.1612903225806452
 40
0.1612903225806452
 40
0.1935483870967742
 40
0.1935483870967742
 40
0.1935483870967742
 40
0.1935483870967742
 40
0.2258064516129032
 40
0.2258064516129032
 40
0.2258064516129032
 40
0.2258064516129032
 40
0.2580645161290323
 40
0.2580645161290323
 40
0.2580645161290323
 40
0.2580645161290323
 40
0.2903225806451613
 40
0.2903225806451613
 40
0.2903225806451613
 40
0.2903225806451613
 40
0.3225806451612903
 40
0.3225806451612903
 40
0.3225806451612903
 40
0.3225806451612903
 40
0.3548387096774194
 40
0.3548387096774194
 40
0.3548387096774194
 40
0.3548387096774194
 40
0.3870967741935484
 40
0.3870967741935484
 40
0.3870967741935484
 40
0.3870967741935484
 40
0.4193548387096774
 40
0.4193548387096774
 40
0.4193548387096774
 40
0.4193548387096774
 40
0.4516129032258064
 40
0.4516129032258064
 40
0.4516129032258064
 40
0.4516129032258064
 40
0.4838709677419355
 40
0.4838709677419355
 40
0.4838709677419355
 40
0.4838709677419355
 40
0.5161290322580645
 40
0.5161290322580645
 40
0.5161290322580645
 40
0.5161290322580645
 40
0.5483870967741935
 40
0.5483870967741935
 40
0.5483870967741935
 40
0.5483870967741935
 40
0.5806451612903226
 40
0.5806451612903226
 40
0.5806451612903226
 40
0.5806451612903226
 40
0.6129032258064516
 40
0.6129032258064516
 40
0.6129032258064516
 40
0.6129032258064516
 40
0.6451612903225806
 40
0.6451612903225806
 40
0.6451612903225806
 40
0.6451612903225806
 40
0.6774193548387096
 40
0.6774193548387096
 40
0.6774193548387096
 40
0.6774193548387096
 40
0.7096774193548387
 40
0.7096774193548387
 40
0.7096774193548387
 40
0.7096774193548387
 40
0.7419354838709677
 40
0.7419354838709677
 40
0.7419354838709677
 40
0.7419354838709677
 40
0.7741935483870968
 40
0.7741935483870968
 40
0.7741935483870968
 40
0.7741935483870968
 40
0.8064516129032258
 40
0.8064516129032258
 40
0.8064516129032258
 40
0.8064516129032258
 40
0.8387096774193549
 40
0.8387096774193549
 40
0.8387096774193549
 40
0.8387096774193549
 40
0.8709677419354839
 40
0.8709677419354839
 40
0.8709677419354839
 40
0.8709677419354839
 40
0.9032258064516129
 40
0.9032258064516129
 40
0.9032258064516129
 40
0.9032258064516129
 40
0.9354838709677419
 40
0.9354838709677419
 40
0.9354838709677419
 40
0.9354838709677419
 40
1.0
 40
1.0
 40
1.0
 40
1.0
 10
-3.4443
 20
24.9432
 30
0.0
 10
-3.4443
 20
24.9432
 30
0.0
 10
-3.1964
 20
24.9761
 30
0.0
 10
-3.1964
 20
24.9761
 30
0.0
 10
-3.1964
 20
24.9761
 30
0.0
 10
-3.1677
 20
24.8355
 30
0.0
 10
-3.1192
 20
24.7344
 30
0.0
 10
-3.051
 20
24.6723
 30
0.0
 10
-3.051
 20
24.6723
 30
0.0
 10
-2.9824
 20
24.6102
 30
0.0
 10
-2.8991
 20
24.5791
 30
0.0
 10
-2.8008
 20
24.5791
 30
0.0
 10
-2.8008
 20
24.5791
 30
0.0
 10
-2.6842
 20
24.5791
 30
0.0
 10
-2.5854
 20
24.6196
 30
0.0
 10
-2.5049
 20
24.7005
 30
0.0
 10
-2.5049
 20
24.7005
 30
0.0
 10
-2.425
 20
24.7814
 30
0.0
 10
-2.3845
 20
24.8816
 30
0.0
 10
-2.3845
 20
25.0011
 30
0.0
 10
-2.3845
 20
25.0011
 30
0.0
 10
-2.3845
 20
25.1149
 30
0.0
 10
-2.4217
 20
25.209
 30
0.0
 10
-2.496
 20
25.2828
 30
0.0
 10
-2.496
 20
25.2828
 30
0.0
 10
-2.5708
 20
25.3566
 30
0.0
 10
-2.6653
 20
25.3938
 30
0.0
 10
-2.7801
 20
25.3938
 30
0.0
 10
-2.7801
 20
25.3938
 30
0.0
 10
-2.8271
 20
25.3938
 30
0.0
 10
-2.8855
 20
25.3844
 30
0.0
 10
-2.9551
 20
25.3661
 30
0.0
 10
-2.9551
 20
25.3661
 30
0.0
 10
-2.9551
 20
25.3661
 30
0.0
 10
-2.9273
 20
25.5838
 30
0.0
 10
-2.9273
 20
25.5838
 30
0.0
 10
-2.9273
 20
25.5838
 30
0.0
 10
-2.9109
 20
25.582
 30
0.0
 10
-2.8977
 20
25.581
 30
0.0
 10
-2.8874
 20
25.581
 30
0.0
 10
-2.8874
 20
25.581
 30
0.0
 10
-2.782
 20
25.581
 30
0.0
 10
-2.687
 20
25.6088
 30
0.0
 10
-2.6023
 20
25.6638
 30
0.0
 10
-2.6023
 20
25.6638
 30
0.0
 10
-2.5176
 20
25.7188
 30
0.0
 10
-2.4753
 20
25.804
 30
0.0
 10
-2.4753
 20
25.9187
 30
0.0
 10
-2.4753
 20
25.9187
 30
0.0
 10
-2.4753
 20
26.0095
 30
0.0
 10
-2.5064
 20
26.0852
 30
0.0
 10
-2.568
 20
26.1445
 30
0.0
 10
-2.568
 20
26.1445
 30
0.0
 10
-2.6296
 20
26.2042
 30
0.0
 10
-2.7091
 20
26.2344
 30
0.0
 10
-2.8065
 20
26.2344
 30
0.0
 10
-2.8065
 20
26.2344
 30
0.0
 10
-2.9029
 20
26.2344
 30
0.0
 10
-2.9833
 20
26.2038
 30
0.0
 10
-3.0473
 20
26.1436
 30
0.0
 10
-3.0473
 20
26.1436
 30
0.0
 10
-3.1117
 20
26.0829
 30
0.0
 10
-3.1531
 20
25.9916
 30
0.0
 10
-3.1715
 20
25.8703
 30
0.0
 10
-3.1715
 20
25.8703
 30
0.0
 10
-3.1715
 20
25.8703
 30
0.0
 10
-3.4193
 20
25.9145
 30
0.0
 10
-3.4193
 20
25.9145
 30
0.0
 10
-3.4193
 20
25.9145
 30
0.0
 10
-3.3892
 20
26.081
 30
0.0
 10
-3.3201
 20
26.2099
 30
0.0
 10
-3.2128
 20
26.3011
 30
0.0
 10
-3.2128
 20
26.3011
 30
0.0
 10
-3.1051
 20
26.3924
 30
0.0
 10
-2.9715
 20
26.4385
 30
0.0
 10
-2.8116
 20
26.4385
 30
0.0
 10
-2.8116
 20
26.4385
 30
0.0
 10
-2.7016
 20
26.4385
 30
0.0
 10
-2.6
 20
26.4145
 30
0.0
 10
-2.5073
 20
26.3675
 30
0.0
 10
-2.5073
 20
26.3675
 30
0.0
 10
-2.4146
 20
26.32
 30
0.0
 10
-2.3436
 20
26.2555
 30
0.0
 10
-2.2942
 20
26.1737
 30
0.0
 10
-2.2942
 20
26.1737
 30
0.0
 10
-2.2453
 20
26.0918
 30
0.0
 10
-2.2204
 20
26.0053
 30
0.0
 10
-2.2204
 20
25.9131
 30
0.0
 10
-2.2204
 20
25.9131
 30
0.0
 10
-2.2204
 20
25.8261
 30
0.0
 10
-2.2439
 20
25.7466
 30
0.0
 10
-2.2909
 20
25.6746
 30
0.0
 10
-2.2909
 20
25.6746
 30
0.0
 10
-2.338
 20
25.6031
 30
0.0
 10
-2.4071
 20
25.5462
 30
0.0
 10
-2.4988
 20
25.5039
 30
0.0
 10
-2.4988
 20
25.5039
 30
0.0
 10
-2.3794
 20
25.4766
 30
0.0
 10
-2.2867
 20
25.4192
 30
0.0
 10
-2.2204
 20
25.3322
 30
0.0
 10
-2.2204
 20
25.3322
 30
0.0
 10
-2.1545
 20
25.2456
 30
0.0
 10
-2.1216
 20
25.137
 30
0.0
 10
-2.1216
 20
25.0067
 30
0.0
 10
-2.1216
 20
25.0067
 30
0.0
 10
-2.1216
 20
24.8303
 30
0.0
 10
-2.1856
 20
24.6807
 30
0.0
 10
-2.3144
 20
24.558
 30
0.0
 10
-2.3144
 20
24.558
 30
0.0
 10
-2.4429
 20
24.4352
 30
0.0
 10
-2.6056
 20
24.3741
 30
0.0
 10
-2.8022
 20
24.3741
 30
0.0
 10
-2.8022
 20
24.3741
 30
0.0
 10
-2.9795
 20
24.3741
 30
0.0
 10
-3.1268
 20
24.4267
 30
0.0
 10
-3.2439
 20
24.5326
 30
0.0
 10
-3.2439
 20
24.5326
 30
0.0
 10
-3.361
 20
24.6379
 30
0.0
 10
-3.4278
 20
24.7748
 30
0.0
 10
-3.4443
 20
24.9432
 30
0.0
  0
SPLINE
  5
48
330
1F
100
AcDbEntity
  8
DEFAULT_3
 62
   250
100
AcDbSpline
210
0.0
220
0.0
230
1.0
 70
    11
 71
     3
 72
    20
 73
    16
 74
     0
 42
0.0000000001
 43
0.0000000001
 40
0.0
 40
0.0
 40
0.0
 40
0.0
 40
0.2
 40
0.2
 40
0.2
 40
0.2
 40
0.4
 40
0.4
 40
0.4
 40
0.4
 40
0.6
 40
0.6
 40
0.6
 40
0.6
 40
1.0
 40
1.0
 40
1.0
 40
1.0
 10
15.991
 20
23.9806
 30
0.0
 10
15.991
 20
23.9806
 30
0.0
 10
18.491
 20
23.6277
 30
0.0
 10
18.491
 20
23.6277
 30
0.0
 10
18.491
 20
23.6277
 30
0.0
 10
18.491
 20
23.6277
 30
0.0
 10
18.491
 20
23.5494
 30
0.0
 10
18.491
 20
23.5494
 30
0.0
 10
18.491
 20
23.5494
 30
0.0
 10
18.491
 20
23.5494
 30
0.0
 10
15.991
 20
23.1731
 30
0.0
 10
15.991
 20
23.1731
 30
0.0
 10
15.991
 20
23.1731
 30
0.0
 10
15.991
 20
23.1731
 30
0.0
 10
15.991
 20
23.9806
 30
0.0
 10
15.991
 20
23.9806
 30
0.0
  0
SPLINE
  5
49
330
1F
100
AcDbEntity
  8
DEFAULT_3
 62
   250
100
AcDbSpline
210
0.0
220
0.0
230
1.0
 70
    11
 71
     3
 72
    20
 73
    16
 74
     0
 42
0.0000000001
 43
0.0000000001
 40
0.0
 40
0.0
 40
0.0
 40
0.0
 40
0.2
 40
0.2
 40
0.2
 40
0.2
 40
0.4
 40
0.4
 40
0.4
 40
0.4
 40
0.6
 40
0.6
 40
0.6
 40
0.6
 40
1.0
 40
1.0
 40
1.0
 40
1.0
 10
-25.2848
 20
23.2227
 30
0.0
 10
-25.2848
 20
23.2227
 30
0.0
 10
-27.7848
 20
23.5787
 30
0.0
 10
-27.7848
 20
23.5787
 30
0.0
 10
-27.7848
 20
23.5787
 30
0.0
 10
-27.7848
 20
23.5787
 30
0.0
 10
-27.7848
 20
23.6578
 30
0.0
 10
-27.7848
 20
23.6578
 30
0.0
 10
-27.7848
 20
23.6578
 30
0.0
 10
-27.7848
 20
23.6578
 30
0.0
 10
-25.2848
 20
24.0375
 30
0.0
 10
-25.2848
 20
24.0375
 30
0.0
 10
-25.2848
 20
24.0375
 30
0.0
 10
-25.2848
 20
24.0375
 30
0.0
 10
-25.2848
 20
23.2227
 30
0.0
 10
-25.2848
 20
23.2227
 30
0.0
  0
SPLINE
  5
4A
330
1F
100
AcDbEntity
  8
DEFAULT_3
 62
   250
100
AcDbSpline
210
0.0
220
0.0
230
1.0
 70
    24
 71
     3
 72
     8
 73
     4
 74
     0
 42
0.0000000001
 43
0.0000000001
 40
0.0
 40
0.0
 40
0.0
 40
0.0
 40
1.0
 40
1.0
 40
1.0
 40
1.0
 10
-28.4459
 20
-26.2251
 30
0.0
 10
-28.4459
 20
-26.2251
 30
0.0
 10
-32.1336
 20
-26.2251
 30
0.0
 10
-32.1336
 20
-26.2251
 30
0.0
  0
SPLINE
  5
4B
330
1F
100
AcDbEntity
  8
DEFAULT_3
 62
   250
100
AcDbSpline
210
0.0
220
0.0
230
1.0
 70
    24
 71
     3
 72
     8
 73
     4
 74
     0
 42
0.0000000001
 43
0.0000000001
 40
0.0
 40
0.0
 40
0.0
 40
0.0
 40
1.0
 40
1.0
 40
1.0
 40
1.0
 10
-28.0986
 20
20.2853
 30
0.0
 10
-28.0986
 20
20.2853
 30
0.0
 10
-32.2658
 20
20.2853
 30
0.0
 10
-32.2658
 20
20.2853
 30
0.0
  0
SPLINE
  5
4C
330
1F
100
AcDbEntity
  8
DEFAULT_3
 62
   250
100
AcDbSpline
210
0.0
220
0.0
230
1.0
 70
    24
 71
     3
 72
     8
 73
     4
 74
     0
 42
0.0000000001
 43
0.0000000001
 40
0.0
 40
0.0
 40
0.0
 40
0.0
 40
1.0
 40
1.0
 40
1.0
 40
1.0
 10
-31.6857
 20
19.7938
 30
0.0
 10
-31.6857
 20
19.7938
 30
0.0
 10
-31.6857
 20
-26.1444
 30
0.0
 10
-31.6857
 20
-26.1444
 30
0.0
  0
SPLINE
  5
4D
330
1F
100
AcDbEntity
  8
DEFAULT_3
 62
   250
100
AcDbSpline
210
0.0
220
0.0
230
1.0
 70
    11
 71
     3
 72
    40
 73
    36
 74
     0
 42
0.0000000001
 43
0.0000000001
 40
0.0
 40
0.0
 40
0.0
 40
0.0
 40
0.1
 40
0.1
 40
0.1
 40
0.1
 40
0.2
 40
0.2
 40
0.2
 40
0.2
 40
0.3
 40
0.3
 40
0.3
 40
0.3
 40
0.4
 40
0.4
 40
0.4
 40
0.4
 40
0.5
 40
0.5
 40
0.5
 40
0.5
 40
0.6
 40
0.6
 40
0.6
 40
0.6
 40
0.7
 40
0.7
 40
0.7
 40
0.7
 40
0.8
 40
0.8
 40
0.8
 40
0.8
 40
1.0
 40
1.0
 40
1.0
 40
1.0
 10
-32.313
 20
-3.1435
 30
0.0
 10
-32.313
 20
-3.1435
 30
0.0
 10
-32.313
 20
-3.3914
 30
0.0
 10
-32.313
 20
-3.3914
 30
0.0
 10
-32.313
 20
-3.3914
 30
0.0
 10
-32.313
 20
-3.3914
 30
0.0
 10
-33.8934
 20
-3.3914
 30
0.0
 10
-33.8934
 20
-3.3914
 30
0.0
 10
-33.8934
 20
-3.3914
 30
0.0
 10
-33.8365
 20
-3.4512
 30
0.0
 10
-33.7796
 20
-3.5292
 30
0.0
 10
-33.7227
 20
-3.6261
 30
0.0
 10
-33.7227
 20
-3.6261
 30
0.0
 10
-33.6658
 20
-3.7235
 30
0.0
 10
-33.623
 20
-3.8105
 30
0.0
 10
-33.5947
 20
-3.8877
 30
0.0
 10
-33.5947
 20
-3.8877
 30
0.0
 10
-33.5947
 20
-3.8877
 30
0.0
 10
-33.8342
 20
-3.8877
 30
0.0
 10
-33.8342
 20
-3.8877
 30
0.0
 10
-33.8342
 20
-3.8877
 30
0.0
 10
-33.8995
 20
-3.7489
 30
0.0
 10
-33.9786
 20
-3.6275
 30
0.0
 10
-34.0712
 20
-3.5236
 30
0.0
 10
-34.0712
 20
-3.5236
 30
0.0
 10
-34.1644
 20
-3.4201
 30
0.0
 10
-34.2542
 20
-3.3463
 30
0.0
 10
-34.3417
 20
-3.303
 30
0.0
 10
-34.3417
 20
-3.303
 30
0.0
 10
-34.3417
 20
-3.303
 30
0.0
 10
-34.3417
 20
-3.1435
 30
0.0
 10
-34.3417
 20
-3.1435
 30
0.0
 10
-34.3417
 20
-3.1435
 30
0.0
 10
-34.3417
 20
-3.1435
 30
0.0
 10
-32.313
 20
-3.1435
 30
0.0
 10
-32.313
 20
-3.1435
 30
0.0
  0
SPLINE
  5
4E
330
1F
100
AcDbEntity
  8
DEFAULT_3
 62
   250
100
AcDbSpline
210
0.0
220
0.0
230
1.0
 70
    11
 71
     3
 72
    48
 73
    44
 74
     0
 42
0.0000000001
 43
0.0000000001
 40
0.0
 40
0.0
 40
0.0
 40
0.0
 40
0.0833333333333333
 40
0.0833333333333333
 40
0.0833333333333333
 40
0.0833333333333333
 40
0.1666666666666667
 40
0.1666666666666667
 40
0.1666666666666667
 40
0.1666666666666667
 40
0.25
 40
0.25
 40
0.25
 40
0.25
 40
0.3333333333333333
 40
0.3333333333333333
 40
0.3333333333333333
 40
0.3333333333333333
 40
0.4166666666666667
 40
0.4166666666666667
 40
0.4166666666666667
 40
0.4166666666666667
 40
0.5
 40
0.5
 40
0.5
 40
0.5
 40
0.5833333333333334
 40
0.5833333333333334
 40
0.5833333333333334
 40
0.5833333333333334
 40
0.6666666666666666
 40
0.6666666666666666
 40
0.6666666666666666
 40
0.6666666666666666
 40
0.75
 40
0.75
 40
0.75
 40
0.75
 40
0.8333333333333334
 40
0.8333333333333334
 40
0.8333333333333334
 40
0.8333333333333334
 40
1.0
 40
1.0
 40
1.0
 40
1.0
 10
-32.313
 20
-1.7132
 30
0.0
 10
-32.313
 20
-1.7132
 30
0.0
 10
-32.7965
 20
-1.7132
 30
0.0
 10
-32.7965
 20
-1.7132
 30
0.0
 10
-32.7965
 20
-1.7132
 30
0.0
 10
-32.7965
 20
-1.7132
 30
0.0
 10
-32.7965
 20
-2.5895
 30
0.0
 10
-32.7965
 20
-2.5895
 30
0.0
 10
-32.7965
 20
-2.5895
 30
0.0
 10
-32.7965
 20
-2.5895
 30
0.0
 10
-33.0242
 20
-2.5895
 30
0.0
 10
-33.0242
 20
-2.5895
 30
0.0
 10
-33.0242
 20
-2.5895
 30
0.0
 10
-33.0242
 20
-2.5895
 30
0.0
 10
-34.3332
 20
-1.6675
 30
0.0
 10
-34.3332
 20
-1.6675
 30
0.0
 10
-34.3332
 20
-1.6675
 30
0.0
 10
-34.3332
 20
-1.6675
 30
0.0
 10
-34.3332
 20
-1.4648
 30
0.0
 10
-34.3332
 20
-1.4648
 30
0.0
 10
-34.3332
 20
-1.4648
 30
0.0
 10
-34.3332
 20
-1.4648
 30
0.0
 10
-33.0242
 20
-1.4648
 30
0.0
 10
-33.0242
 20
-1.4648
 30
0.0
 10
-33.0242
 20
-1.4648
 30
0.0
 10
-33.0242
 20
-1.4648
 30
0.0
 10
-33.0242
 20
-1.192
 30
0.0
 10
-33.0242
 20
-1.192
 30
0.0
 10
-33.0242
 20
-1.192
 30
0.0
 10
-33.0242
 20
-1.192
 30
0.0
 10
-32.7965
 20
-1.192
 30
0.0
 10
-32.7965
 20
-1.192
 30
0.0
 10
-32.7965
 20
-1.192
 30
0.0
 10
-32.7965
 20
-1.192
 30
0.0
 10
-32.7965
 20
-1.4648
 30
0.0
 10
-32.7965
 20
-1.4648
 30
0.0
 10
-32.7965
 20
-1.4648
 30
0.0
 10
-32.7965
 20
-1.4648
 30
0.0
 10
-32.313
 20
-1.4648
 30
0.0
 10
-32.313
 20
-1.4648
 30
0.0
 10
-32.313
 20
-1.4648
 30
0.0
 10
-32.313
 20
-1.4648
 30
0.0
 10
-32.313
 20
-1.7132
 30
0.0
 10
-32.313
 20
-1.7132
 30
0.0
  0
SPLINE
  5
4F
330
1F
100
AcDbEntity
  8
DEFAULT_3
 62
   250
100
AcDbSpline
210
0.0
220
0.0
230
1.0
 70
    11
 71
     3
 72
    16
 73
    12
 74
     0
 42
0.0000000001
 43
0.0000000001
 40
0.0
 40
0.0
 40
0.0
 40
0.0
 40
0.25
 40
0.25
 40
0.25
 40
0.25
 40
0.5
 40
0.5
 40
0.5
 40
0.5
 40
1.0
 40
1.0
 40
1.0
 40
1.0
 10
-33.0242
 20
-1.7132
 30
0.0
 10
-33.0242
 20
-1.7132
 30
0.0
 10
-33.9348
 20
-1.7132
 30
0.0
 10
-33.9348
 20
-1.7132
 30
0.0
 10
-33.9348
 20
-1.7132
 30
0.0
 10
-33.9348
 20
-1.7132
 30
0.0
 10
-33.0242
 20
-2.3453
 30
0.0
 10
-33.0242
 20
-2.3453
 30
0.0
 10
-33.0242
 20
-2.3453
 30
0.0
 10
-33.0242
 20
-2.3453
 30
0.0
 10
-33.0242
 20
-1.7132
 30
0.0
 10
-33.0242
 20
-1.7132
 30
0.0
  0
SPLINE
  5
50
330
1F
100
AcDbEntity
  8
DEFAULT_3
 62
   250
100
AcDbSpline
210
0.0
220
0.0
230
1.0
 70
    11
 71
     3
 72
   124
 73
   120
 74
     0
 42
0.0000000001
 43
0.0000000001
 40
0.0
 40
0.0
 40
0.0
 40
0.0
 40
0.032258064516129
 40
0.032258064516129
 40
0.032258064516129
 40
0.032258064516129
 40
0.0645161290322581
 40
0.0645161290322581
 40
0.0645161290322581
 40
0.0645161290322581
 40
0.0967741935483871
 40
0.0967741935483871
 40
0.0967741935483871
 40
0.0967741935483871
 40
0.1290322580645161
 40
0.1290322580645161
 40
0.1290322580645161
 40
0.1290322580645161
 40
0.1612903225806452
 40
0.1612903225806452
 40
0.1612903225806452
 40
0.1612903225806452
 40
0.1935483870967742
 40
0.1935483870967742
 40
0.1935483870967742
 40
0.1935483870967742
 40
0.2258064516129032
 40
0.2258064516129032
 40
0.2258064516129032
 40
0.2258064516129032
 40
0.2580645161290323
 40
0.2580645161290323
 40
0.2580645161290323
 40
0.2580645161290323
 40
0.2903225806451613
 40
0.2903225806451613
 40
0.2903225806451613
 40
0.2903225806451613
 40
0.3225806451612903
 40
0.3225806451612903
 40
0.3225806451612903
 40
0.3225806451612903
 40
0.3548387096774194
 40
0.3548387096774194
 40
0.3548387096774194
 40
0.3548387096774194
 40
0.3870967741935484
 40
0.3870967741935484
 40
0.3870967741935484
 40
0.3870967741935484
 40
0.4193548387096774
 40
0.4193548387096774
 40
0.4193548387096774
 40
0.4193548387096774
 40
0.4516129032258064
 40
0.4516129032258064
 40
0.4516129032258064
 40
0.4516129032258064
 40
0.4838709677419355
 40
0.4838709677419355
 40
0.4838709677419355
 40
0.4838709677419355
 40
0.5161290322580645
 40
0.5161290322580645
 40
0.5161290322580645
 40
0.5161290322580645
 40
0.5483870967741935
 40
0.5483870967741935
 40
0.5483870967741935
 40
0.5483870967741935
 40
0.5806451612903226
 40
0.5806451612903226
 40
0.5806451612903226
 40
0.5806451612903226
 40
0.6129032258064516
 40
0.6129032258064516
 40
0.6129032258064516
 40
0.6129032258064516
 40
0.6451612903225806
 40
0.6451612903225806
 40
0.6451612903225806
 40
0.6451612903225806
 40
0.6774193548387096
 40
0.6774193548387096
 40
0.6774193548387096
 40
0.6774193548387096
 40
0.7096774193548387
 40
0.7096774193548387
 40
0.7096774193548387
 40
0.7096774193548387
 40
0.7419354838709677
 40
0.7419354838709677
 40
0.7419354838709677
 40
0.7419354838709677
 40
0.7741935483870968
 40
0.7741935483870968
 40
0.7741935483870968
 40
0.7741935483870968
 40
0.8064516129032258
 40
0.8064516129032258
 40
0.8064516129032258
 40
0.8064516129032258
 40
0.8387096774193549
 40
0.8387096774193549
 40
0.8387096774193549
 40
0.8387096774193549
 40
0.8709677419354839
 40
0.8709677419354839
 40
0.8709677419354839
 40
0.8709677419354839
 40
0.9032258064516129
 40
0.9032258064516129
 40
0.9032258064516129
 40
0.9032258064516129
 40
0.9354838709677419
 40
0.9354838709677419
 40
0.9354838709677419
 40
0.9354838709677419
 40
1.0
 40
1.0
 40
1.0
 40
1.0
 10
-32.8464
 20
-0.9371
 30
0.0
 10
-32.8464
 20
-0.9371
 30
0.0
 10
-32.8793
 20
-0.6892
 30
0.0
 10
-32.8793
 20
-0.6892
 30
0.0
 10
-32.8793
 20
-0.6892
 30
0.0
 10
-32.7387
 20
-0.6605
 30
0.0
 10
-32.6376
 20
-0.612
 30
0.0
 10
-32.5755
 20
-0.5438
 30
0.0
 10
-32.5755
 20
-0.5438
 30
0.0
 10
-32.5134
 20
-0.4752
 30
0.0
 10
-32.4823
 20
-0.3919
 30
0.0
 10
-32.4823
 20
-0.2936
 30
0.0
 10
-32.4823
 20
-0.2936
 30
0.0
 10
-32.4823
 20
-0.177
 30
0.0
 10
-32.5228
 20
-0.0782
 30
0.0
 10
-32.6037
 20
0.0023
 30
0.0
 10
-32.6037
 20
0.0023
 30
0.0
 10
-32.6846
 20
0.0822
 30
0.0
 10
-32.7848
 20
0.1227
 30
0.0
 10
-32.9043
 20
0.1227
 30
0.0
 10
-32.9043
 20
0.1227
 30
0.0
 10
-33.0181
 20
0.1227
 30
0.0
 10
-33.1122
 20
0.0855
 30
0.0
 10
-33.186
 20
0.0112
 30
0.0
 10
-33.186
 20
0.0112
 30
0.0
 10
-33.2598
 20
-0.0636
 30
0.0
 10
-33.297
 20
-0.1581
 30
0.0
 10
-33.297
 20
-0.2729
 30
0.0
 10
-33.297
 20
-0.2729
 30
0.0
 10
-33.297
 20
-0.3199
 30
0.0
 10
-33.2876
 20
-0.3783
 30
0.0
 10
-33.2693
 20
-0.4479
 30
0.0
 10
-33.2693
 20
-0.4479
 30
0.0
 10
-33.2693
 20
-0.4479
 30
0.0
 10
-33.487
 20
-0.4201
 30
0.0
 10
-33.487
 20
-0.4201
 30
0.0
 10
-33.487
 20
-0.4201
 30
0.0
 10
-33.4852
 20
-0.4037
 30
0.0
 10
-33.4842
 20
-0.3905
 30
0.0
 10
-33.4842
 20
-0.3802
 30
0.0
 10
-33.4842
 20
-0.3802
 30
0.0
 10
-33.4842
 20
-0.2748
 30
0.0
 10
-33.512
 20
-0.1798
 30
0.0
 10
-33.567
 20
-0.0951
 30
0.0
 10
-33.567
 20
-0.0951
 30
0.0
 10
-33.622
 20
-0.0104
 30
0.0
 10
-33.7072
 20
0.0319
 30
0.0
 10
-33.8219
 20
0.0319
 30
0.0
 10
-33.8219
 20
0.0319
 30
0.0
 10
-33.9127
 20
0.0319
 30
0.0
 10
-33.9884
 20
0.0008
 30
0.0
 10
-34.0477
 20
-0.0608
 30
0.0
 10
-34.0477
 20
-0.0608
 30
0.0
 10
-34.1074
 20
-0.1224
 30
0.0
 10
-34.1376
 20
-0.2019
 30
0.0
 10
-34.1376
 20
-0.2993
 30
0.0
 10
-34.1376
 20
-0.2993
 30
0.0
 10
-34.1376
 20
-0.3957
 30
0.0
 10
-34.107
 20
-0.4761
 30
0.0
 10
-34.0468
 20
-0.5401
 30
0.0
 10
-34.0468
 20
-0.5401
 30
0.0
 10
-33.9861
 20
-0.6045
 30
0.0
 10
-33.8948
 20
-0.6459
 30
0.0
 10
-33.7735
 20
-0.6643
 30
0.0
 10
-33.7735
 20
-0.6643
 30
0.0
 10
-33.7735
 20
-0.6643
 30
0.0
 10
-33.8177
 20
-0.9121
 30
0.0
 10
-33.8177
 20
-0.9121
 30
0.0
 10
-33.8177
 20
-0.9121
 30
0.0
 10
-33.9842
 20
-0.882
 30
0.0
 10
-34.1131
 20
-0.8129
 30
0.0
 10
-34.2043
 20
-0.7056
 30
0.0
 10
-34.2043
 20
-0.7056
 30
0.0
 10
-34.2956
 20
-0.5979
 30
0.0
 10
-34.3417
 20
-0.4643
 30
0.0
 10
-34.3417
 20
-0.3044
 30
0.0
 10
-34.3417
 20
-0.3044
 30
0.0
 10
-34.3417
 20
-0.1944
 30
0.0
 10
-34.3177
 20
-0.0928
 30
0.0
 10
-34.2707
 20
-0.0001
 30
0.0
 10
-34.2707
 20
-0.0001
 30
0.0
 10
-34.2232
 20
0.0926
 30
0.0
 10
-34.1587
 20
0.1636
 30
0.0
 10
-34.0769
 20
0.213
 30
0.0
 10
-34.0769
 20
0.213
 30
0.0
 10
-33.995
 20
0.2619
 30
0.0
 10
-33.9085
 20
0.2868
 30
0.0
 10
-33.8163
 20
0.2868
 30
0.0
 10
-33.8163
 20
0.2868
 30
0.0
 10
-33.7293
 20
0.2868
 30
0.0
 10
-33.6498
 20
0.2633
 30
0.0
 10
-33.5778
 20
0.2163
 30
0.0
 10
-33.5778
 20
0.2163
 30
0.0
 10
-33.5063
 20
0.1692
 30
0.0
 10
-33.4494
 20
0.1001
 30
0.0
 10
-33.4071
 20
0.0084
 30
0.0
 10
-33.4071
 20
0.0084
 30
0.0
 10
-33.3798
 20
0.1278
 30
0.0
 10
-33.3224
 20
0.2205
 30
0.0
 10
-33.2354
 20
0.2868
 30
0.0
 10
-33.2354
 20
0.2868
 30
0.0
 10
-33.1488
 20
0.3527
 30
0.0
 10
-33.0402
 20
0.3856
 30
0.0
 10
-32.9099
 20
0.3856
 30
0.0
 10
-32.9099
 20
0.3856
 30
0.0
 10
-32.7335
 20
0.3856
 30
0.0
 10
-32.5839
 20
0.3216
 30
0.0
 10
-32.4612
 20
0.1928
 30
0.0
 10
-32.4612
 20
0.1928
 30
0.0
 10
-32.3384
 20
0.0643
 30
0.0
 10
-32.2773
 20
-0.0984
 30
0.0
 10
-32.2773
 20
-0.295
 30
0.0
 10
-32.2773
 20
-0.295
 30
0.0
 10
-32.2773
 20
-0.4723
 30
0.0
 10
-32.3299
 20
-0.6196
 30
0.0
 10
-32.4358
 20
-0.7367
 30
0.0
 10
-32.4358
 20
-0.7367
 30
0.0
 10
-32.5411
 20
-0.8538
 30
0.0
 10
-32.678
 20
-0.9206
 30
0.0
 10
-32.8464
 20
-0.9371
 30
0.0
  0
SPLINE
  5
51
330
1F
100
AcDbEntity
  8
DEFAULT_3
 62
   250
100
AcDbSpline
210
0.0
220
0.0
230
1.0
 70
    11
 71
     3
 72
    20
 73
    16
 74
     0
 42
0.0000000001
 43
0.0000000001
 40
0.0
 40
0.0
 40
0.0
 40
0.0
 40
0.2
 40
0.2
 40
0.2
 40
0.2
 40
0.4
 40
0.4
 40
0.4
 40
0.4
 40
0.6
 40
0.6
 40
0.6
 40
0.6
 40
1.0
 40
1.0
 40
1.0
 40
1.0
 10
-32.0657
 20
17.7357
 30
0.0
 10
-32.0657
 20
17.7357
 30
0.0
 10
-31.7128
 20
20.2357
 30
0.0
 10
-31.7128
 20
20.2357
 30
0.0
 10
-31.7128
 20
20.2357
 30
0.0
 10
-31.7128
 20
20.2357
 30
0.0
 10
-31.6345
 20
20.2357
 30
0.0
 10
-31.6345
 20
20.2357
 30
0.0
 10
-31.6345
 20
20.2357
 30
0.0
 10
-31.6345
 20
20.2357
 30
0.0
 10
-31.2582
 20
17.7357
 30
0.0
 10
-31.2582
 20
17.7357
 30
0.0
 10
-31.2582
 20
17.7357
 30
0.0
 10
-31.2582
 20
17.7357
 30
0.0
 10
-32.0657
 20
17.7357
 30
0.0
 10
-32.0657
 20
17.7357
 30
0.0
  0
SPLINE
  5
52
330
1F
100
AcDbEntity
  8
DEFAULT_3
 62
   250
100
AcDbSpline
210
0.0
220
0.0
230
1.0
 70
    11
 71
     3
 72
    20
 73
    16
 74
     0
 42
0.0000000001
 43
0.0000000001
 40
0.0
 40
0.0
 40
0.0
 40
0.0
 40
0.2
 40
0.2
 40
0.2
 40
0.2
 40
0.4
 40
0.4
 40
0.4
 40
0.4
 40
0.6
 40
0.6
 40
0.6
 40
0.6
 40
1.0
 40
1.0
 40
1.0
 40
1.0
 10
-31.2696
 20
-23.621
 30
0.0
 10
-31.2696
 20
-23.621
 30
0.0
 10
-31.6225
 20
-26.121
 30
0.0
 10
-31.6225
 20
-26.121
 30
0.0
 10
-31.6225
 20
-26.121
 30
0.0
 10
-31.6225
 20
-26.121
 30
0.0
 10
-31.7008
 20
-26.121
 30
0.0
 10
-31.7008
 20
-26.121
 30
0.0
 10
-31.7008
 20
-26.121
 30
0.0
 10
-31.7008
 20
-26.121
 30
0.0
 10
-32.0771
 20
-23.621
 30
0.0
 10
-32.0771
 20
-23.621
 30
0.0
 10
-32.0771
 20
-23.621
 30
0.0
 10
-32.0771
 20
-23.621
 30
0.0
 10
-31.2696
 20
-23.621
 30
0.0
 10
-31.2696
 20
-23.621
 30
0.0
  0
SPLINE
  5
53
330
1F
100
AcDbEntity
  8
DEFAULT_3
 62
   250
100
AcDbSpline
210
0.0
220
0.0
230
1.0
 70
    24
 71
     3
 72
     8
 73
     4
 74
     0
 42
0.0000000001
 43
0.0000000001
 40
0.0
 40
0.0
 40
0.0
 40
0.0
 40
1.0
 40
1.0
 40
1.0
 40
1.0
 10
29.7528
 20
20.6783
 30
0.0
 10
29.7528
 20
20.6783
 30
0.0
 10
29.7528
 20
24.1674
 30
0.0
 10
29.7528
 20
24.1674
 30
0.0
  0
SPLINE
  5
54
330
1F
100
AcDbEntity
  8
DEFAULT_3
 62
   250
100
AcDbSpline
210
0.0
220
0.0
230
1.0
 70
    24
 71
     3
 72
     8
 73
     4
 74
     0
 42
0.0000000001
 43
0.0000000001
 40
0.0
 40
0.0
 40
0.0
 40
0.0
 40
1.0
 40
1.0
 40
1.0
 40
1.0
 10
31.3717
 20
20.546
 30
0.0
 10
31.3717
 20
20.546
 30
0.0
 10
31.3717
 20
24.0186
 30
0.0
 10
31.3717
 20
24.0186
 30
0.0
  0
SPLINE
  5
55
330
1F
100
AcDbEntity
  8
DEFAULT_3
 62
   250
100
AcDbSpline
210
0.0
220
0.0
230
1.0
 70
    24
 71
     3
 72
     8
 73
     4
 74
     0
 42
0.0000000001
 43
0.0000000001
 40
0.0
 40
0.0
 40
0.0
 40
0.0
 40
1.0
 40
1.0
 40
1.0
 40
1.0
 10
34.3418
 20
23.6759
 30
0.0
 10
34.3418
 20
23.6759
 30
0.0
 10
26.406
 20
23.6759
 30
0.0
 10
26.406
 20
23.6759
 30
0.0
  0
SPLINE
  5
56
330
1F
100
AcDbEntity
  8
DEFAULT_3
 62
   250
100
AcDbSpline
210
0.0
220
0.0
230
1.0
 70
    11
 71
     3
 72
    92
 73
    88
 74
     0
 42
0.0000000001
 43
0.0000000001
 40
0.0
 40
0.0
 40
0.0
 40
0.0
 40
0.0434782608695652
 40
0.0434782608695652
 40
0.0434782608695652
 40
0.0434782608695652
 40
0.0869565217391304
 40
0.0869565217391304
 40
0.0869565217391304
 40
0.0869565217391304
 40
0.1304347826086956
 40
0.1304347826086956
 40
0.1304347826086956
 40
0.1304347826086956
 40
0.1739130434782609
 40
0.1739130434782609
 40
0.1739130434782609
 40
0.1739130434782609
 40
0.2173913043478261
 40
0.2173913043478261
 40
0.2173913043478261
 40
0.2173913043478261
 40
0.2608695652173913
 40
0.2608695652173913
 40
0.2608695652173913
 40
0.2608695652173913
 40
0.3043478260869565
 40
0.3043478260869565
 40
0.3043478260869565
 40
0.3043478260869565
 40
0.3478260869565217
 40
0.3478260869565217
 40
0.3478260869565217
 40
0.3478260869565217
 40
0.391304347826087
 40
0.391304347826087
 40
0.391304347826087
 40
0.391304347826087
 40
0.4347826086956522
 40
0.4347826086956522
 40
0.4347826086956522
 40
0.4347826086956522
 40
0.4782608695652174
 40
0.4782608695652174
 40
0.4782608695652174
 40
0.4782608695652174
 40
0.5217391304347826
 40
0.5217391304347826
 40
0.5217391304347826
 40
0.5217391304347826
 40
0.5652173913043478
 40
0.5652173913043478
 40
0.5652173913043478
 40
0.5652173913043478
 40
0.6086956521739131
 40
0.6086956521739131
 40
0.6086956521739131
 40
0.6086956521739131
 40
0.6521739130434783
 40
0.6521739130434783
 40
0.6521739130434783
 40
0.6521739130434783
 40
0.6956521739130435
 40
0.6956521739130435
 40
0.6956521739130435
 40
0.6956521739130435
 40
0.7391304347826086
 40
0.7391304347826086
 40
0.7391304347826086
 40
0.7391304347826086
 40
0.782608695652174
 40
0.782608695652174
 40
0.782608695652174
 40
0.782608695652174
 40
0.8260869565217391
 40
0.8260869565217391
 40
0.8260869565217391
 40
0.8260869565217391
 40
0.8695652173913043
 40
0.8695652173913043
 40
0.8695652173913043
 40
0.8695652173913043
 40
0.9130434782608695
 40
0.9130434782608695
 40
0.9130434782608695
 40
0.9130434782608695
 40
1.0
 40
1.0
 40
1.0
 40
1.0
 10
29.9317
 20
24.7744
 30
0.0
 10
29.9317
 20
24.7744
 30
0.0
 10
30.1923
 20
24.7965
 30
0.0
 10
30.1923
 20
24.7965
 30
0.0
 10
30.1923
 20
24.7965
 30
0.0
 10
30.2116
 20
24.6695
 30
0.0
 10
30.2563
 20
24.5745
 30
0.0
 10
30.3264
 20
24.5105
 30
0.0
 10
30.3264
 20
24.5105
 30
0.0
 10
30.3969
 20
24.4465
 30
0.0
 10
30.4816
 20
24.4145
 30
0.0
 10
30.5808
 20
24.4145
 30
0.0
 10
30.5808
 20
24.4145
 30
0.0
 10
30.7003
 20
24.4145
 30
0.0
 10
30.8014
 20
24.4597
 30
0.0
 10
30.8837
 20
24.5495
 30
0.0
 10
30.8837
 20
24.5495
 30
0.0
 10
30.9665
 20
24.6398
 30
0.0
 10
31.0079
 20
24.7593
 30
0.0
 10
31.0079
 20
24.9079
 30
0.0
 10
31.0079
 20
24.9079
 30
0.0
 10
31.0079
 20
25.0495
 30
0.0
 10
30.9684
 20
25.161
 30
0.0
 10
30.8889
 20
25.2428
 30
0.0
 10
30.8889
 20
25.2428
 30
0.0
 10
30.8094
 20
25.3247
 30
0.0
 10
30.7055
 20
25.3656
 30
0.0
 10
30.5766
 20
25.3656
 30
0.0
 10
30.5766
 20
25.3656
 30
0.0
 10
30.4966
 20
25.3656
 30
0.0
 10
30.4247
 20
25.3473
 30
0.0
 10
30.3602
 20
25.3111
 30
0.0
 10
30.3602
 20
25.3111
 30
0.0
 10
30.2958
 20
25.2748
 30
0.0
 10
30.2455
 20
25.2278
 30
0.0
 10
30.2088
 20
25.1699
 30
0.0
 10
30.2088
 20
25.1699
 30
0.0
 10
30.2088
 20
25.1699
 30
0.0
 10
29.9759
 20
25.2
 30
0.0
 10
29.9759
 20
25.2
 30
0.0
 10
29.9759
 20
25.2
 30
0.0
 10
29.9759
 20
25.2
 30
0.0
 10
30.1716
 20
26.2377
 30
0.0
 10
30.1716
 20
26.2377
 30
0.0
 10
30.1716
 20
26.2377
 30
0.0
 10
30.1716
 20
26.2377
 30
0.0
 10
31.1763
 20
26.2377
 30
0.0
 10
31.1763
 20
26.2377
 30
0.0
 10
31.1763
 20
26.2377
 30
0.0
 10
31.1763
 20
26.2377
 30
0.0
 10
31.1763
 20
26.0006
 30
0.0
 10
31.1763
 20
26.0006
 30
0.0
 10
31.1763
 20
26.0006
 30
0.0
 10
31.1763
 20
26.0006
 30
0.0
 10
30.3701
 20
26.0006
 30
0.0
 10
30.3701
 20
26.0006
 30
0.0
 10
30.3701
 20
26.0006
 30
0.0
 10
30.3701
 20
26.0006
 30
0.0
 10
30.261
 20
25.4578
 30
0.0
 10
30.261
 20
25.4578
 30
0.0
 10
30.261
 20
25.4578
 30
0.0
 10
30.3823
 20
25.5425
 30
0.0
 10
30.5098
 20
25.5848
 30
0.0
 10
30.6429
 20
25.5848
 30
0.0
 10
30.6429
 20
25.5848
 30
0.0
 10
30.8193
 20
25.5848
 30
0.0
 10
30.9679
 20
25.5237
 30
0.0
 10
31.0893
 20
25.4014
 30
0.0
 10
31.0893
 20
25.4014
 30
0.0
 10
31.2106
 20
25.2791
 30
0.0
 10
31.2713
 20
25.122
 30
0.0
 10
31.2713
 20
24.9301
 30
0.0
 10
31.2713
 20
24.9301
 30
0.0
 10
31.2713
 20
24.7471
 30
0.0
 10
31.2177
 20
24.589
 30
0.0
 10
31.1114
 20
24.4559
 30
0.0
 10
31.1114
 20
24.4559
 30
0.0
 10
30.9816
 20
24.2927
 30
0.0
 10
30.8047
 20
24.2109
 30
0.0
 10
30.5808
 20
24.2109
 30
0.0
 10
30.5808
 20
24.2109
 30
0.0
 10
30.3969
 20
24.2109
 30
0.0
 10
30.2469
 20
24.2621
 30
0.0
 10
30.1307
 20
24.3651
 30
0.0
 10
30.1307
 20
24.3651
 30
0.0
 10
30.0145
 20
24.4682
 30
0.0
 10
29.9482
 20
24.6046
 30
0.0
 10
29.9317
 20
24.7744
 30
0.0
  0
SPLINE
  5
57
330
1F
100
AcDbEntity
  8
DEFAULT_3
 62
   250
100
AcDbSpline
210
0.0
220
0.0
230
1.0
 70
    11
 71
     3
 72
    20
 73
    16
 74
     0
 42
0.0000000001
 43
0.0000000001
 40
0.0
 40
0.0
 40
0.0
 40
0.0
 40
0.2
 40
0.2
 40
0.2
 40
0.2
 40
0.4
 40
0.4
 40
0.4
 40
0.4
 40
0.6
 40
0.6
 40
0.6
 40
0.6
 40
1.0
 40
1.0
 40
1.0
 40
1.0
 10
27.21
 20
24.0724
 30
0.0
 10
27.21
 20
24.0724
 30
0.0
 10
29.71
 20
23.7195
 30
0.0
 10
29.71
 20
23.7195
 30
0.0
 10
29.71
 20
23.7195
 30
0.0
 10
29.71
 20
23.7195
 30
0.0
 10
29.71
 20
23.6412
 30
0.0
 10
29.71
 20
23.6412
 30
0.0
 10
29.71
 20
23.6412
 30
0.0
 10
29.71
 20
23.6412
 30
0.0
 10
27.21
 20
23.2649
 30
0.0
 10
27.21
 20
23.2649
 30
0.0
 10
27.21
 20
23.2649
 30
0.0
 10
27.21
 20
23.2649
 30
0.0
 10
27.21
 20
24.0724
 30
0.0
 10
27.21
 20
24.0724
 30
0.0
  0
SPLINE
  5
58
330
1F
100
AcDbEntity
  8
DEFAULT_3
 62
   250
100
AcDbSpline
210
0.0
220
0.0
230
1.0
 70
    11
 71
     3
 72
    20
 73
    16
 74
     0
 42
0.0000000001
 43
0.0000000001
 40
0.0
 40
0.0
 40
0.0
 40
0.0
 40
0.2
 40
0.2
 40
0.2
 40
0.2
 40
0.4
 40
0.4
 40
0.4
 40
0.4
 40
0.6
 40
0.6
 40
0.6
 40
0.6
 40
1.0
 40
1.0
 40
1.0
 40
1.0
 10
33.9904
 20
23.2598
 30
0.0
 10
33.9904
 20
23.2598
 30
0.0
 10
31.4904
 20
23.6127
 30
0.0
 10
31.4904
 20
23.6127
 30
0.0
 10
31.4904
 20
23.6127
 30
0.0
 10
31.4904
 20
23.6127
 30
0.0
 10
31.4904
 20
23.691
 30
0.0
 10
31.4904
 20
23.691
 30
0.0
 10
31.4904
 20
23.691
 30
0.0
 10
31.4904
 20
23.691
 30
0.0
 10
33.9904
 20
24.0673
 30
0.0
 10
33.9904
 20
24.0673
 30
0.0
 10
33.9904
 20
24.0673
 30
0.0
 10
33.9904
 20
24.0673
 30
0.0
 10
33.9904
 20
23.2598
 30
0.0
 10
33.9904
 20
23.2598
 30
0.0
  0
SPLINE
  5
59
330
1F
100
AcDbEntity
  8
DEFAULT_3
100
AcDbSpline
210
0.0
220
0.0
230
1.0
 70
    24
 71
     3
 72
     8
 73
     4
 74
     0
 42
0.0000000001
 43
0.0000000001
 40
0.0
 40
0.0
 40
0.0
 40
0.0
 40
1.0
 40
1.0
 40
1.0
 40
1.0
 10
29.6687
 20
-25.9438
 30
0.0
 10
29.6687
 20
-25.9438
 30
0.0
 10
29.6687
 20
-26.4326
 30
0.0
 10
29.6687
 20
-26.4326
 30
0.0
  0
SPLINE
  5
5A
330
1F
100
AcDbEntity
  8
DEFAULT_3
100
AcDbSpline
210
0.0
220
0.0
230
1.0
 70
    24
 71
     3
 72
     8
 73
     4
 74
     0
 42
0.0000000001
 43
0.0000000001
 40
0.0
 40
0.0
 40
0.0
 40
0.0
 40
1.0
 40
1.0
 40
1.0
 40
1.0
 10
29.6687
 20
20.153
 30
0.0
 10
29.6687
 20
20.153
 30
0.0
 10
29.6687
 20
19.6643
 30
0.0
 10
29.6687
 20
19.6643
 30
0.0
  0
SPLINE
  5
5B
330
1F
100
AcDbEntity
  8
DEFAULT_3
100
AcDbSpline
210
0.0
220
0.0
230
1.0
 70
    24
 71
     3
 72
     8
 73
     4
 74
     0
 42
0.0000000001
 43
0.0000000001
 40
0.0
 40
0.0
 40
0.0
 40
0.0
 40
1.0
 40
1.0
 40
1.0
 40
1.0
 10
29.6687
 20
20.153
 30
0.0
 10
29.6687
 20
20.153
 30
0.0
 10
30.1573
 20
20.153
 30
0.0
 10
30.1573
 20
20.153
 30
0.0
  0
SPLINE
  5
5C
330
1F
100
AcDbEntity
  8
DEFAULT_3
100
AcDbSpline
210
0.0
220
0.0
230
1.0
 70
     8
 71
     3
 72
    12
 73
     8
 74
     0
 42
0.0000000001
 43
0.0000000001
 40
0.0
 40
0.0
 40
0.0
 40
0.0
 40
0.3333333333333333
 40
0.3333333333333333
 40
0.3333333333333333
 40
0.3333333333333333
 40
1.0
 40
1.0
 40
1.0
 40
1.0
 10
30.1573
 20
20.153
 30
0.0
 10
30.4985
 20
20.153
 30
0.0
 10
30.9146
 20
20.2214
 30
0.0
 10
31.1531
 20
19.9106
 30
0.0
 10
31.1531
 20
19.9106
 30
0.0
 10
31.2049
 20
19.8431
 30
0.0
 10
31.2234
 20
19.8091
 30
0.0
 10
31.2563
 20
19.7296
 30
0.0
  0
SPLINE
  5
5D
330
1F
100
AcDbEntity
  8
DEFAULT_3
100
AcDbSpline
210
0.0
220
0.0
230
1.0
 70
     8
 71
     3
 72
    24
 73
    20
 74
     0
 42
0.0000000001
 43
0.0000000001
 40
0.0
 40
0.0
 40
0.0
 40
0.0
 40
0.1666666666666667
 40
0.1666666666666667
 40
0.1666666666666667
 40
0.1666666666666667
 40
0.3333333333333333
 40
0.3333333333333333
 40
0.3333333333333333
 40
0.3333333333333333
 40
0.5
 40
0.5
 40
0.5
 40
0.5
 40
0.6666666666666666
 40
0.6666666666666666
 40
0.6666666666666666
 40
0.6666666666666666
 40
1.0
 40
1.0
 40
1.0
 40
1.0
 10
31.2563
 20
19.7296
 30
0.0
 10
31.2563
 20
19.7296
 30
0.0
 10
31.2753
 20
19.67
 30
0.0
 10
31.2753
 20
19.67
 30
0.0
 10
31.2753
 20
19.67
 30
0.0
 10
31.2753
 20
19.67
 30
0.0
 10
31.2975
 20
19.5013
 30
0.0
 10
31.2975
 20
19.5013
 30
0.0
 10
31.2975
 20
19.5013
 30
0.0
 10
31.2975
 20
19.5013
 30
0.0
 10
31.2975
 20
18.8498
 30
0.0
 10
31.2975
 20
18.8498
 30
0.0
 10
31.2975
 20
18.8498
 30
0.0
 10
31.2975
 20
18.8498
 30
0.0
 10
31.2975
 20
-25.1295
 30
0.0
 10
31.2975
 20
-25.1295
 30
0.0
 10
31.2975
 20
-25.1295
 30
0.0
 10
31.2975
 20
-25.1295
 30
0.0
 10
31.2975
 20
-25.7811
 30
0.0
 10
31.2975
 20
-25.7811
 30
0.0
  0
SPLINE
  5
5E
330
1F
100
AcDbEntity
  8
DEFAULT_3
100
AcDbSpline
210
0.0
220
0.0
230
1.0
 70
     8
 71
     3
 72
    16
 73
    12
 74
     0
 42
0.0000000001
 43
0.0000000001
 40
0.0
 40
0.0
 40
0.0
 40
0.0
 40
0.25
 40
0.25
 40
0.25
 40
0.25
 40
0.5
 40
0.5
 40
0.5
 40
0.5
 40
1.0
 40
1.0
 40
1.0
 40
1.0
 10
31.2975
 20
-25.7811
 30
0.0
 10
31.2958
 20
-25.8442
 30
0.0
 10
31.284
 20
-25.9421
 30
0.0
 10
31.2563
 20
-26.0093
 30
0.0
 10
31.2563
 20
-26.0093
 30
0.0
 10
31.2234
 20
-26.0886
 30
0.0
 10
31.2047
 20
-26.1228
 30
0.0
 10
31.1531
 20
-26.1901
 30
0.0
 10
31.1531
 20
-26.1901
 30
0.0
 10
30.9162
 20
-26.4988
 30
0.0
 10
30.496
 20
-26.4326
 30
0.0
 10
30.1573
 20
-26.4326
 30
0.0
  0
SPLINE
  5
5F
330
1F
100
AcDbEntity
  8
DEFAULT_3
100
AcDbSpline
210
0.0
220
0.0
230
1.0
 70
    24
 71
     3
 72
     8
 73
     4
 74
     0
 42
0.0000000001
 43
0.0000000001
 40
0.0
 40
0.0
 40
0.0
 40
0.0
 40
1.0
 40
1.0
 40
1.0
 40
1.0
 10
30.1573
 20
-26.4326
 30
0.0
 10
30.1573
 20
-26.4326
 30
0.0
 10
29.6687
 20
-26.4326
 30
0.0
 10
29.6687
 20
-26.4326
 30
0.0
  0
SPLINE
  5
60
330
1F
100
AcDbEntity
  8
DEFAULT_3
100
AcDbSpline
210
0.0
220
0.0
230
1.0
 70
    24
 71
     3
 72
     8
 73
     4
 74
     0
 42
0.0000000001
 43
0.0000000001
 40
0.0
 40
0.0
 40
0.0
 40
0.0
 40
1.0
 40
1.0
 40
1.0
 40
1.0
 10
29.6687
 20
-25.9438
 30
0.0
 10
29.6687
 20
-25.9438
 30
0.0
 10
29.7927
 20
-25.931
 30
0.0
 10
29.7927
 20
-25.931
 30
0.0
  0
SPLINE
  5
61
330
1F
100
AcDbEntity
  8
DEFAULT_3
100
AcDbSpline
210
0.0
220
0.0
230
1.0
 70
     8
 71
     3
 72
     8
 73
     4
 74
     0
 42
0.0000000001
 43
0.0000000001
 40
0.0
 40
0.0
 40
0.0
 40
0.0
 40
1.0
 40
1.0
 40
1.0
 40
1.0
 10
29.7927
 20
-25.931
 30
0.0
 10
29.8048
 20
-25.9085
 30
0.0
 10
29.7982
 20
-25.8646
 30
0.0
 10
29.7927
 20
-25.8443
 30
0.0
  0
SPLINE
  5
62
330
1F
100
AcDbEntity
  8
DEFAULT_3
100
AcDbSpline
210
0.0
220
0.0
230
1.0
 70
    24
 71
     3
 72
     8
 73
     4
 74
     0
 42
0.0000000001
 43
0.0000000001
 40
0.0
 40
0.0
 40
0.0
 40
0.0
 40
1.0
 40
1.0
 40
1.0
 40
1.0
 10
29.7927
 20
-25.8443
 30
0.0
 10
29.7927
 20
-25.8443
 30
0.0
 10
29.717
 20
-25.5869
 30
0.0
 10
29.717
 20
-25.5869
 30
0.0
  0
SPLINE
  5
63
330
1F
100
AcDbEntity
  8
DEFAULT_3
100
AcDbSpline
210
0.0
220
0.0
230
1.0
 70
     8
 71
     3
 72
     8
 73
     4
 74
     0
 42
0.0000000001
 43
0.0000000001
 40
0.0
 40
0.0
 40
0.0
 40
0.0
 40
1.0
 40
1.0
 40
1.0
 40
1.0
 10
29.717
 20
-25.5869
 30
0.0
 10
29.6347
 20
-25.2424
 30
0.0
 10
29.6687
 20
-24.8475
 30
0.0
 10
29.6687
 20
-24.506
 30
0.0
  0
SPLINE
  5
64
330
1F
100
AcDbEntity
  8
DEFAULT_3
100
AcDbSpline
210
0.0
220
0.0
230
1.0
 70
    24
 71
     3
 72
     8
 73
     4
 74
     0
 42
0.0000000001
 43
0.0000000001
 40
0.0
 40
0.0
 40
0.0
 40
0.0
 40
1.0
 40
1.0
 40
1.0
 40
1.0
 10
29.6687
 20
-24.506
 30
0.0
 10
29.6687
 20
-24.506
 30
0.0
 10
29.6687
 20
18.2261
 30
0.0
 10
29.6687
 20
18.2261
 30
0.0
  0
SPLINE
  5
65
330
1F
100
AcDbEntity
  8
DEFAULT_3
100
AcDbSpline
210
0.0
220
0.0
230
1.0
 70
     8
 71
     3
 72
     8
 73
     4
 74
     0
 42
0.0000000001
 43
0.0000000001
 40
0.0
 40
0.0
 40
0.0
 40
0.0
 40
1.0
 40
1.0
 40
1.0
 40
1.0
 10
29.6687
 20
18.2261
 30
0.0
 10
29.6687
 20
18.5679
 30
0.0
 10
29.6347
 20
18.9627
 30
0.0
 10
29.717
 20
19.3073
 30
0.0
  0
SPLINE
  5
66
330
1F
100
AcDbEntity
  8
DEFAULT_3
100
AcDbSpline
210
0.0
220
0.0
230
1.0
 70
    24
 71
     3
 72
     8
 73
     4
 74
     0
 42
0.0000000001
 43
0.0000000001
 40
0.0
 40
0.0
 40
0.0
 40
0.0
 40
1.0
 40
1.0
 40
1.0
 40
1.0
 10
29.717
 20
19.3073
 30
0.0
 10
29.717
 20
19.3073
 30
0.0
 10
29.793
 20
19.5657
 30
0.0
 10
29.793
 20
19.5657
 30
0.0
  0
SPLINE
  5
67
330
1F
100
AcDbEntity
  8
DEFAULT_3
100
AcDbSpline
210
0.0
220
0.0
230
1.0
 70
     8
 71
     3
 72
     8
 73
     4
 74
     0
 42
0.0000000001
 43
0.0000000001
 40
0.0
 40
0.0
 40
0.0
 40
0.0
 40
1.0
 40
1.0
 40
1.0
 40
1.0
 10
29.793
 20
19.5657
 30
0.0
 10
29.7982
 20
19.585
 30
0.0
 10
29.8048
 20
19.6291
 30
0.0
 10
29.793
 20
19.6511
 30
0.0
  0
SPLINE
  5
68
330
1F
100
AcDbEntity
  8
DEFAULT_3
100
AcDbSpline
210
0.0
220
0.0
230
1.0
 70
     8
 71
     3
 72
    12
 73
     8
 74
     0
 42
0.0000000001
 43
0.0000000001
 40
0.0
 40
0.0
 40
0.0
 40
0.0
 40
0.3333333333333333
 40
0.3333333333333333
 40
0.3333333333333333
 40
0.3333333333333333
 40
1.0
 40
1.0
 40
1.0
 40
1.0
 10
29.793
 20
19.6511
 30
0.0
 10
29.793
 20
19.6511
 30
0.0
 10
29.7738
 20
19.6643
 30
0.0
 10
29.7738
 20
19.6643
 30
0.0
 10
29.7738
 20
19.6643
 30
0.0
 10
29.7738
 20
19.6643
 30
0.0
 10
29.6687
 20
19.6643
 30
0.0
 10
29.6687
 20
19.6643
 30
0.0
  0
SPLINE
  5
69
330
1F
100
AcDbEntity
  8
DEFAULT_3
100
AcDbSpline
210
0.0
220
0.0
230
1.0
 70
    24
 71
     3
 72
     8
 73
     4
 74
     0
 42
0.0000000001
 43
0.0000000001
 40
0.0
 40
0.0
 40
0.0
 40
0.0
 40
1.0
 40
1.0
 40
1.0
 40
1.0
 10
31.2975
 20
-25.7811
 30
0.0
 10
31.2975
 20
-25.7811
 30
0.0
 10
31.2563
 20
-26.0093
 30
0.0
 10
31.2563
 20
-26.0093
 30
0.0
  0
SPLINE
  5
6A
330
1F
100
AcDbEntity
  8
DEFAULT_3
100
AcDbSpline
210
0.0
220
0.0
230
1.0
 70
     8
 71
     3
 72
     8
 73
     4
 74
     0
 42
0.0000000001
 43
0.0000000001
 40
0.0
 40
0.0
 40
0.0
 40
0.0
 40
1.0
 40
1.0
 40
1.0
 40
1.0
 10
31.2563
 20
-26.0093
 30
0.0
 10
31.1906
 20
-26.1952
 30
0.0
 10
31.0578
 20
-26.2927
 30
0.0
 10
30.8955
 20
-26.383
 30
0.0
  0
SPLINE
  5
6B
330
1F
100
AcDbEntity
  8
DEFAULT_3
100
AcDbSpline
210
0.0
220
0.0
230
1.0
 70
    24
 71
     3
 72
    12
 73
     8
 74
     0
 42
0.0000000001
 43
0.0000000001
 40
0.0
 40
0.0
 40
0.0
 40
0.0
 40
0.3333333333333333
 40
0.3333333333333333
 40
0.3333333333333333
 40
0.3333333333333333
 40
1.0
 40
1.0
 40
1.0
 40
1.0
 10
-27.2962
 20
20.2854
 30
0.0
 10
-27.2962
 20
20.2854
 30
0.0
 10
-26.6447
 20
20.2854
 30
0.0
 10
-26.6447
 20
20.2854
 30
0.0
 10
-26.6447
 20
20.2854
 30
0.0
 10
-26.6447
 20
20.2854
 30
0.0
 10
17.3346
 20
20.2854
 30
0.0
 10
17.3346
 20
20.2854
 30
0.0
  0
SPLINE
  5
6C
330
1F
100
AcDbEntity
  8
DEFAULT_3
100
AcDbSpline
210
0.0
220
0.0
230
1.0
 70
     8
 71
     3
 72
    12
 73
     8
 74
     0
 42
0.0000000001
 43
0.0000000001
 40
0.0
 40
0.0
 40
0.0
 40
0.0
 40
0.3333333333333333
 40
0.3333333333333333
 40
0.3333333333333333
 40
0.3333333333333333
 40
1.0
 40
1.0
 40
1.0
 40
1.0
 10
17.3346
 20
20.2854
 30
0.0
 10
17.7885
 20
20.2854
 30
0.0
 10
18.3804
 20
20.3905
 30
0.0
 10
18.5909
 20
19.876
 30
0.0
 10
18.5909
 20
19.876
 30
0.0
 10
18.6283
 20
19.7846
 30
0.0
 10
18.6236
 20
19.7462
 30
0.0
 10
18.6376
 20
19.6337
 30
0.0
  0
SPLINE
  5
6D
330
1F
100
AcDbEntity
  8
DEFAULT_3
100
AcDbSpline
210
0.0
220
0.0
230
1.0
 70
    24
 71
     3
 72
    12
 73
     8
 74
     0
 42
0.0000000001
 43
0.0000000001
 40
0.0
 40
0.0
 40
0.0
 40
0.0
 40
0.3333333333333333
 40
0.3333333333333333
 40
0.3333333333333333
 40
0.3333333333333333
 40
1.0
 40
1.0
 40
1.0
 40
1.0
 10
18.6376
 20
19.6337
 30
0.0
 10
18.6376
 20
19.6337
 30
0.0
 10
18.6376
 20
18.9822
 30
0.0
 10
18.6376
 20
18.9822
 30
0.0
 10
18.6376
 20
18.9822
 30
0.0
 10
18.6376
 20
18.9822
 30
0.0
 10
18.6376
 20
-24.9971
 30
0.0
 10
18.6376
 20
-24.9971
 30
0.0
  0
SPLINE
  5
6E
330
1F
100
AcDbEntity
  8
DEFAULT_3
100
AcDbSpline
210
0.0
220
0.0
230
1.0
 70
     8
 71
     3
 72
    12
 73
     8
 74
     0
 42
0.0000000001
 43
0.0000000001
 40
0.0
 40
0.0
 40
0.0
 40
0.0
 40
0.3333333333333333
 40
0.3333333333333333
 40
0.3333333333333333
 40
0.3333333333333333
 40
1.0
 40
1.0
 40
1.0
 40
1.0
 10
18.6376
 20
-24.9971
 30
0.0
 10
18.6376
 20
-25.3484
 30
0.0
 10
18.7318
 20
-25.8242
 30
0.0
 10
18.4467
 20
-26.1093
 30
0.0
 10
18.4467
 20
-26.1093
 30
0.0
 10
18.1603
 20
-26.3959
 30
0.0
 10
17.6885
 20
-26.3002
 30
0.0
 10
17.3346
 20
-26.3002
 30
0.0
  0
SPLINE
  5
6F
330
1F
100
AcDbEntity
  8
DEFAULT_3
100
AcDbSpline
210
0.0
220
0.0
230
1.0
 70
    24
 71
     3
 72
     8
 73
     4
 74
     0
 42
0.0000000001
 43
0.0000000001
 40
0.0
 40
0.0
 40
0.0
 40
0.0
 40
1.0
 40
1.0
 40
1.0
 40
1.0
 10
17.3346
 20
-26.3002
 30
0.0
 10
17.3346
 20
-26.3002
 30
0.0
 10
-26.6447
 20
-26.3002
 30
0.0
 10
-26.6447
 20
-26.3002
 30
0.0
  0
SPLINE
  5
70
330
1F
100
AcDbEntity
  8
DEFAULT_3
100
AcDbSpline
210
0.0
220
0.0
230
1.0
 70
     8
 71
     3
 72
    12
 73
     8
 74
     0
 42
0.0000000001
 43
0.0000000001
 40
0.0
 40
0.0
 40
0.0
 40
0.0
 40
0.3333333333333333
 40
0.3333333333333333
 40
0.3333333333333333
 40
0.3333333333333333
 40
1.0
 40
1.0
 40
1.0
 40
1.0
 10
-26.6447
 20
-26.3002
 30
0.0
 10
-27.012
 20
-26.3002
 30
0.0
 10
-27.6489
 20
-26.4112
 30
0.0
 10
-27.8634
 20
-25.9695
 30
0.0
 10
-27.8634
 20
-25.9695
 30
0.0
 10
-28.0103
 20
-25.6672
 30
0.0
 10
-27.948
 20
-25.3268
 30
0.0
 10
-27.948
 20
-24.9971
 30
0.0
  0
SPLINE
  5
71
330
1F
100
AcDbEntity
  8
DEFAULT_3
100
AcDbSpline
210
0.0
220
0.0
230
1.0
 70
    24
 71
     3
 72
     8
 73
     4
 74
     0
 42
0.0000000001
 43
0.0000000001
 40
0.0
 40
0.0
 40
0.0
 40
0.0
 40
1.0
 40
1.0
 40
1.0
 40
1.0
 10
-27.948
 20
-24.9971
 30
0.0
 10
-27.948
 20
-24.9971
 30
0.0
 10
-27.948
 20
18.9822
 30
0.0
 10
-27.948
 20
18.9822
 30
0.0
  0
SPLINE
  5
72
330
1F
100
AcDbEntity
  8
DEFAULT_3
100
AcDbSpline
210
0.0
220
0.0
230
1.0
 70
     8
 71
     3
 72
    12
 73
     8
 74
     0
 42
0.0000000001
 43
0.0000000001
 40
0.0
 40
0.0
 40
0.0
 40
0.0
 40
0.3333333333333333
 40
0.3333333333333333
 40
0.3333333333333333
 40
0.3333333333333333
 40
1.0
 40
1.0
 40
1.0
 40
1.0
 10
-27.948
 20
18.9822
 30
0.0
 10
-27.948
 20
19.4364
 30
0.0
 10
-28.0531
 20
20.0279
 30
0.0
 10
-27.5386
 20
20.2387
 30
0.0
 10
-27.5386
 20
20.2387
 30
0.0
 10
-27.4472
 20
20.2761
 30
0.0
 10
-27.4088
 20
20.2712
 30
0.0
 10
-27.2962
 20
20.2854
 30
0.0
  0
SPLINE
  5
73
330
1F
100
AcDbEntity
  8
DEFAULT_3
100
AcDbSpline
210
0.0
220
0.0
230
1.0
 70
     8
 71
     3
 72
    16
 73
    12
 74
     0
 42
0.0000000001
 43
0.0000000001
 40
0.0
 40
0.0
 40
0.0
 40
0.0
 40
0.25
 40
0.25
 40
0.25
 40
0.25
 40
0.5
 40
0.5
 40
0.5
 40
0.5
 40
1.0
 40
1.0
 40
1.0
 40
1.0
 10
-11.1126
 20
-5.7182
 30
0.0
 10
-11.2083
 20
-5.4242
 30
0.0
 10
-11.3408
 20
-5.1828
 30
0.0
 10
-11.6187
 20
-5.0225
 30
0.0
 10
-11.6187
 20
-5.0225
 30
0.0
 10
-12.1961
 20
-4.6894
 30
0.0
 10
-12.9508
 20
-4.9831
 30
0.0
 10
-13.1551
 20
-5.6128
 30
0.0
 10
-13.1551
 20
-5.6128
 30
0.0
 10
-13.2514
 20
-5.9099
 30
0.0
 10
-13.2066
 20
-6.3094
 30
0.0
 10
-13.2066
 20
-6.5909
 30
0.0
  0
SPLINE
  5
74
330
1F
100
AcDbEntity
  8
DEFAULT_3
100
AcDbSpline
210
0.0
220
0.0
230
1.0
 70
     8
 71
     3
 72
    16
 73
    12
 74
     0
 42
0.0000000001
 43
0.0000000001
 40
0.0
 40
0.0
 40
0.0
 40
0.0
 40
0.25
 40
0.25
 40
0.25
 40
0.25
 40
0.5
 40
0.5
 40
0.5
 40
0.5
 40
1.0
 40
1.0
 40
1.0
 40
1.0
 10
12.2075
 20
-16.101
 30
0.0
 10
12.5015
 20
-16.0053
 30
0.0
 10
12.7429
 20
-15.8728
 30
0.0
 10
12.9032
 20
-15.5949
 30
0.0
 10
12.9032
 20
-15.5949
 30
0.0
 10
13.2363
 20
-15.0175
 30
0.0
 10
12.9426
 20
-14.2628
 30
0.0
 10
12.3129
 20
-14.0585
 30
0.0
 10
12.3129
 20
-14.0585
 30
0.0
 10
12.0158
 20
-13.9622
 30
0.0
 10
11.6163
 20
-14.007
 30
0.0
 10
11.3348
 20
-14.007
 30
0.0
  0
SPLINE
  5
75
330
1F
100
AcDbEntity
  8
DEFAULT_3
100
AcDbSpline
210
0.0
220
0.0
230
1.0
 70
    24
 71
     3
 72
    12
 73
     8
 74
     0
 42
0.0000000001
 43
0.0000000001
 40
0.0
 40
0.0
 40
0.0
 40
0.0
 40
0.3333333333333333
 40
0.3333333333333333
 40
0.3333333333333333
 40
0.3333333333333333
 40
1.0
 40
1.0
 40
1.0
 40
1.0
 10
-13.2066
 20
-6.5909
 30
0.0
 10
-13.2066
 20
-6.5909
 30
0.0
 10
-13.2066
 20
-18.9704
 30
0.0
 10
-13.2066
 20
-18.9704
 30
0.0
 10
-13.2066
 20
-18.9704
 30
0.0
 10
-13.2066
 20
-18.9704
 30
0.0
 10
-13.2066
 20
-19.6219
 30
0.0
 10
-13.2066
 20
-19.6219
 30
0.0
  0
SPLINE
  5
76
330
1F
100
AcDbEntity
  8
DEFAULT_3
100
AcDbSpline
210
0.0
220
0.0
230
1.0
 70
    24
 71
     3
 72
    12
 73
     8
 74
     0
 42
0.0000000001
 43
0.0000000001
 40
0.0
 40
0.0
 40
0.0
 40
0.0
 40
0.3333333333333333
 40
0.3333333333333333
 40
0.3333333333333333
 40
0.3333333333333333
 40
1.0
 40
1.0
 40
1.0
 40
1.0
 10
11.3348
 20
-14.007
 30
0.0
 10
11.3348
 20
-14.007
 30
0.0
 10
-1.0447
 20
-14.007
 30
0.0
 10
-1.0447
 20
-14.007
 30
0.0
 10
-1.0447
 20
-14.007
 30
0.0
 10
-1.0447
 20
-14.007
 30
0.0
 10
-1.6962
 20
-14.007
 30
0.0
 10
-1.6962
 20
-14.007
 30
0.0
  0
SPLINE
  5
77
330
1F
100
AcDbEntity
  8
DEFAULT_3
100
AcDbSpline
210
0.0
220
0.0
230
1.0
 70
     8
 71
     3
 72
    16
 73
    12
 74
     0
 42
0.0000000001
 43
0.0000000001
 40
0.0
 40
0.0
 40
0.0
 40
0.0
 40
0.25
 40
0.25
 40
0.25
 40
0.25
 40
0.5
 40
0.5
 40
0.5
 40
0.5
 40
1.0
 40
1.0
 40
1.0
 40
1.0
 10
-13.2066
 20
-19.6219
 30
0.0
 10
-13.1819
 20
-19.8545
 30
0.0
 10
-13.1457
 20
-20.05
 30
0.0
 10
-13.004
 20
-20.2446
 30
0.0
 10
-13.004
 20
-20.2446
 30
0.0
 10
-12.6388
 20
-20.7469
 30
0.0
 10
-11.9005
 20
-20.8235
 30
0.0
 10
-11.4396
 20
-20.4088
 30
0.0
 10
-11.4396
 20
-20.4088
 30
0.0
 10
-11.0158
 20
-20.0273
 30
0.0
 10
-11.0892
 20
-19.4898
 30
0.0
 10
-11.0892
 20
-18.9704
 30
0.0
  0
SPLINE
  5
78
330
1F
100
AcDbEntity
  8
DEFAULT_3
100
AcDbSpline
210
0.0
220
0.0
230
1.0
 70
     8
 71
     3
 72
    16
 73
    12
 74
     0
 42
0.0000000001
 43
0.0000000001
 40
0.0
 40
0.0
 40
0.0
 40
0.0
 40
0.25
 40
0.25
 40
0.25
 40
0.25
 40
0.5
 40
0.5
 40
0.5
 40
0.5
 40
1.0
 40
1.0
 40
1.0
 40
1.0
 10
-1.6962
 20
-14.007
 30
0.0
 10
-1.9288
 20
-14.0317
 30
0.0
 10
-2.1243
 20
-14.0679
 30
0.0
 10
-2.3189
 20
-14.2096
 30
0.0
 10
-2.3189
 20
-14.2096
 30
0.0
 10
-2.8212
 20
-14.5748
 30
0.0
 10
-2.8978
 20
-15.3131
 30
0.0
 10
-2.4831
 20
-15.774
 30
0.0
 10
-2.4831
 20
-15.774
 30
0.0
 10
-2.1016
 20
-16.1978
 30
0.0
 10
-1.5641
 20
-16.1244
 30
0.0
 10
-1.0447
 20
-16.1244
 30
0.0
  0
SPLINE
  5
79
330
1F
100
AcDbEntity
  8
DEFAULT_3
100
AcDbSpline
210
0.0
220
0.0
230
1.0
 70
    24
 71
     3
 72
     8
 73
     4
 74
     0
 42
0.0000000001
 43
0.0000000001
 40
0.0
 40
0.0
 40
0.0
 40
0.0
 40
1.0
 40
1.0
 40
1.0
 40
1.0
 10
-11.0892
 20
-18.9704
 30
0.0
 10
-11.0892
 20
-18.9704
 30
0.0
 10
-11.0892
 20
-6.5909
 30
0.0
 10
-11.0892
 20
-6.5909
 30
0.0
  0
SPLINE
  5
7A
330
1F
100
AcDbEntity
  8
DEFAULT_3
100
AcDbSpline
210
0.0
220
0.0
230
1.0
 70
    24
 71
     3
 72
     8
 73
     4
 74
     0
 42
0.0000000001
 43
0.0000000001
 40
0.0
 40
0.0
 40
0.0
 40
0.0
 40
1.0
 40
1.0
 40
1.0
 40
1.0
 10
-1.0447
 20
-16.1244
 30
0.0
 10
-1.0447
 20
-16.1244
 30
0.0
 10
11.3348
 20
-16.1244
 30
0.0
 10
11.3348
 20
-16.1244
 30
0.0
  0
SPLINE
  5
7B
330
1F
100
AcDbEntity
  8
DEFAULT_3
100
AcDbSpline
210
0.0
220
0.0
230
1.0
 70
     8
 71
     3
 72
     8
 73
     4
 74
     0
 42
0.0000000001
 43
0.0000000001
 40
0.0
 40
0.0
 40
0.0
 40
0.0
 40
1.0
 40
1.0
 40
1.0
 40
1.0
 10
-11.0892
 20
-6.5909
 30
0.0
 10
-11.0892
 20
-6.2618
 30
0.0
 10
-11.0554
 20
-5.9327
 30
0.0
 10
-11.1407
 20
-5.613
 30
0.0
  0
SPLINE
  5
7C
330
1F
100
AcDbEntity
  8
DEFAULT_3
100
AcDbSpline
210
0.0
220
0.0
230
1.0
 70
     8
 71
     3
 72
     8
 73
     4
 74
     0
 42
0.0000000001
 43
0.0000000001
 40
0.0
 40
0.0
 40
0.0
 40
0.0
 40
1.0
 40
1.0
 40
1.0
 40
1.0
 10
11.3348
 20
-16.1244
 30
0.0
 10
11.6639
 20
-16.1244
 30
0.0
 10
11.993
 20
-16.1582
 30
0.0
 10
12.3127
 20
-16.0729
 30
0.0
  0
SPLINE
  5
7D
330
1F
100
AcDbEntity
  8
DEFAULT_3
100
AcDbSpline
210
0.0
220
0.0
230
1.0
 70
     8
 71
     3
 72
    16
 73
    12
 74
     0
 42
0.0000000001
 43
0.0000000001
 40
0.0
 40
0.0
 40
0.0
 40
0.0
 40
0.25
 40
0.25
 40
0.25
 40
0.25
 40
0.5
 40
0.5
 40
0.5
 40
0.5
 40
1.0
 40
1.0
 40
1.0
 40
1.0
 10
-20.2108
 20
-5.9393
 30
0.0
 10
-20.2435
 20
-5.6314
 30
0.0
 10
-20.3222
 20
-5.3674
 30
0.0
 10
-20.5614
 20
-5.1524
 30
0.0
 10
-20.5614
 20
-5.1524
 30
0.0
 10
-21.1267
 20
-4.6436
 30
0.0
 10
-22.0453
 20
-4.8992
 30
0.0
 10
-22.2768
 20
-5.6128
 30
0.0
 10
-22.2768
 20
-5.6128
 30
0.0
 10
-22.3731
 20
-5.9099
 30
0.0
 10
-22.3282
 20
-6.3094
 30
0.0
 10
-22.3282
 20
-6.5909
 30
0.0
  0
SPLINE
  5
7E
330
1F
100
AcDbEntity
  8
DEFAULT_3
100
AcDbSpline
210
0.0
220
0.0
230
1.0
 70
     8
 71
     3
 72
    16
 73
    12
 74
     0
 42
0.0000000001
 43
0.0000000001
 40
0.0
 40
0.0
 40
0.0
 40
0.0
 40
0.25
 40
0.25
 40
0.25
 40
0.25
 40
0.5
 40
0.5
 40
0.5
 40
0.5
 40
1.0
 40
1.0
 40
1.0
 40
1.0
 10
11.9864
 20
-7.0028
 30
0.0
 10
12.2943
 20
-6.9701
 30
0.0
 10
12.5583
 20
-6.8914
 30
0.0
 10
12.7733
 20
-6.6522
 30
0.0
 10
12.7733
 20
-6.6522
 30
0.0
 10
13.2821
 20
-6.0869
 30
0.0
 10
13.0265
 20
-5.1683
 30
0.0
 10
12.3129
 20
-4.9368
 30
0.0
 10
12.3129
 20
-4.9368
 30
0.0
 10
12.0158
 20
-4.8405
 30
0.0
 10
11.6163
 20
-4.8854
 30
0.0
 10
11.3348
 20
-4.8854
 30
0.0
  0
SPLINE
  5
7F
330
1F
100
AcDbEntity
  8
DEFAULT_3
100
AcDbSpline
210
0.0
220
0.0
230
1.0
 70
    24
 71
     3
 72
    12
 73
     8
 74
     0
 42
0.0000000001
 43
0.0000000001
 40
0.0
 40
0.0
 40
0.0
 40
0.0
 40
0.3333333333333333
 40
0.3333333333333333
 40
0.3333333333333333
 40
0.3333333333333333
 40
1.0
 40
1.0
 40
1.0
 40
1.0
 10
-22.3282
 20
-6.5909
 30
0.0
 10
-22.3282
 20
-6.5909
 30
0.0
 10
-22.3282
 20
-18.9704
 30
0.0
 10
-22.3282
 20
-18.9704
 30
0.0
 10
-22.3282
 20
-18.9704
 30
0.0
 10
-22.3282
 20
-18.9704
 30
0.0
 10
-22.3282
 20
-19.6219
 30
0.0
 10
-22.3282
 20
-19.6219
 30
0.0
  0
SPLINE
  5
80
330
1F
100
AcDbEntity
  8
DEFAULT_3
100
AcDbSpline
210
0.0
220
0.0
230
1.0
 70
    24
 71
     3
 72
    12
 73
     8
 74
     0
 42
0.0000000001
 43
0.0000000001
 40
0.0
 40
0.0
 40
0.0
 40
0.0
 40
0.3333333333333333
 40
0.3333333333333333
 40
0.3333333333333333
 40
0.3333333333333333
 40
1.0
 40
1.0
 40
1.0
 40
1.0
 10
11.3348
 20
-4.8854
 30
0.0
 10
11.3348
 20
-4.8854
 30
0.0
 10
-1.0447
 20
-4.8854
 30
0.0
 10
-1.0447
 20
-4.8854
 30
0.0
 10
-1.0447
 20
-4.8854
 30
0.0
 10
-1.0447
 20
-4.8854
 30
0.0
 10
-1.6962
 20
-4.8854
 30
0.0
 10
-1.6962
 20
-4.8854
 30
0.0
  0
SPLINE
  5
81
330
1F
100
AcDbEntity
  8
DEFAULT_3
100
AcDbSpline
210
0.0
220
0.0
230
1.0
 70
     8
 71
     3
 72
    12
 73
     8
 74
     0
 42
0.0000000001
 43
0.0000000001
 40
0.0
 40
0.0
 40
0.0
 40
0.0
 40
0.3333333333333333
 40
0.3333333333333333
 40
0.3333333333333333
 40
0.3333333333333333
 40
1.0
 40
1.0
 40
1.0
 40
1.0
 10
-22.3282
 20
-19.6219
 30
0.0
 10
-22.2957
 20
-19.9298
 30
0.0
 10
-22.2167
 20
-20.1938
 30
0.0
 10
-21.9776
 20
-20.4088
 30
0.0
 10
-21.9776
 20
-20.4088
 30
0.0
 10
-21.3845
 20
-20.9426
 30
0.0
 10
-20.4013
 20
-20.6279
 30
0.0
 10
-20.2342
 20
-19.8429
 30
0.0
  0
SPLINE
  5
82
330
1F
100
AcDbEntity
  8
DEFAULT_3
100
AcDbSpline
210
0.0
220
0.0
230
1.0
 70
     8
 71
     3
 72
    12
 73
     8
 74
     0
 42
0.0000000001
 43
0.0000000001
 40
0.0
 40
0.0
 40
0.0
 40
0.0
 40
0.3333333333333333
 40
0.3333333333333333
 40
0.3333333333333333
 40
0.3333333333333333
 40
1.0
 40
1.0
 40
1.0
 40
1.0
 10
-1.6962
 20
-4.8854
 30
0.0
 10
-2.0041
 20
-4.9179
 30
0.0
 10
-2.2681
 20
-4.9969
 30
0.0
 10
-2.4831
 20
-5.236
 30
0.0
 10
-2.4831
 20
-5.236
 30
0.0
 10
-3.0169
 20
-5.8291
 30
0.0
 10
-2.7022
 20
-6.8123
 30
0.0
 10
-1.9172
 20
-6.9794
 30
0.0
  0
SPLINE
  5
83
330
1F
100
AcDbEntity
  8
DEFAULT_3
100
AcDbSpline
210
0.0
220
0.0
230
1.0
 70
     8
 71
     3
 72
    24
 73
    20
 74
     0
 42
0.0000000001
 43
0.0000000001
 40
0.0
 40
0.0
 40
0.0
 40
0.0
 40
0.1666666666666667
 40
0.1666666666666667
 40
0.1666666666666667
 40
0.1666666666666667
 40
0.3333333333333333
 40
0.3333333333333333
 40
0.3333333333333333
 40
0.3333333333333333
 40
0.5
 40
0.5
 40
0.5
 40
0.5
 40
0.6666666666666666
 40
0.6666666666666666
 40
0.6666666666666666
 40
0.6666666666666666
 40
1.0
 40
1.0
 40
1.0
 40
1.0
 10
-20.2342
 20
-19.8429
 30
0.0
 10
-20.2342
 20
-19.8429
 30
0.0
 10
-20.2108
 20
-19.6219
 30
0.0
 10
-20.2108
 20
-19.6219
 30
0.0
 10
-20.2108
 20
-19.6219
 30
0.0
 10
-20.2108
 20
-19.6219
 30
0.0
 10
-20.2108
 20
-18.9704
 30
0.0
 10
-20.2108
 20
-18.9704
 30
0.0
 10
-20.2108
 20
-18.9704
 30
0.0
 10
-20.2108
 20
-18.9704
 30
0.0
 10
-20.2108
 20
-6.5909
 30
0.0
 10
-20.2108
 20
-6.5909
 30
0.0
 10
-20.2108
 20
-6.5909
 30
0.0
 10
-20.2108
 20
-6.5909
 30
0.0
 10
-20.2108
 20
-5.9393
 30
0.0
 10
-20.2108
 20
-5.9393
 30
0.0
 10
-20.2108
 20
-5.9393
 30
0.0
 10
-20.2108
 20
-5.9393
 30
0.0
 10
-20.2165
 20
-5.8297
 30
0.0
 10
-20.2165
 20
-5.8297
 30
0.0
  0
SPLINE
  5
84
330
1F
100
AcDbEntity
  8
DEFAULT_3
100
AcDbSpline
210
0.0
220
0.0
230
1.0
 70
     8
 71
     3
 72
    24
 73
    20
 74
     0
 42
0.0000000001
 43
0.0000000001
 40
0.0
 40
0.0
 40
0.0
 40
0.0
 40
0.1666666666666667
 40
0.1666666666666667
 40
0.1666666666666667
 40
0.1666666666666667
 40
0.3333333333333333
 40
0.3333333333333333
 40
0.3333333333333333
 40
0.3333333333333333
 40
0.5
 40
0.5
 40
0.5
 40
0.5
 40
0.6666666666666666
 40
0.6666666666666666
 40
0.6666666666666666
 40
0.6666666666666666
 40
1.0
 40
1.0
 40
1.0
 40
1.0
 10
-1.9172
 20
-6.9794
 30
0.0
 10
-1.9172
 20
-6.9794
 30
0.0
 10
-1.6962
 20
-7.0028
 30
0.0
 10
-1.6962
 20
-7.0028
 30
0.0
 10
-1.6962
 20
-7.0028
 30
0.0
 10
-1.6962
 20
-7.0028
 30
0.0
 10
-1.0447
 20
-7.0028
 30
0.0
 10
-1.0447
 20
-7.0028
 30
0.0
 10
-1.0447
 20
-7.0028
 30
0.0
 10
-1.0447
 20
-7.0028
 30
0.0
 10
11.3348
 20
-7.0028
 30
0.0
 10
11.3348
 20
-7.0028
 30
0.0
 10
11.3348
 20
-7.0028
 30
0.0
 10
11.3348
 20
-7.0028
 30
0.0
 10
11.9864
 20
-7.0028
 30
0.0
 10
11.9864
 20
-7.0028
 30
0.0
 10
11.9864
 20
-7.0028
 30
0.0
 10
11.9864
 20
-7.0028
 30
0.0
 10
12.096
 20
-6.9971
 30
0.0
 10
12.096
 20
-6.9971
 30
0.0
  0
SPLINE
  5
85
330
1F
100
AcDbEntity
  8
DEFAULT_3
100
AcDbSpline
210
0.0
220
0.0
230
1.0
 70
     8
 71
     3
 72
    16
 73
    12
 74
     0
 42
0.0000000001
 43
0.0000000001
 40
0.0
 40
0.0
 40
0.0
 40
0.0
 40
0.25
 40
0.25
 40
0.25
 40
0.25
 40
0.5
 40
0.5
 40
0.5
 40
0.5
 40
1.0
 40
1.0
 40
1.0
 40
1.0
 10
-6.5283
 20
-5.9393
 30
0.0
 10
-6.5609
 20
-5.6314
 30
0.0
 10
-6.6399
 20
-5.3674
 30
0.0
 10
-6.879
 20
-5.1524
 30
0.0
 10
-6.879
 20
-5.1524
 30
0.0
 10
-7.4443
 20
-4.6436
 30
0.0
 10
-8.3627
 20
-4.8992
 30
0.0
 10
-8.5942
 20
-5.6128
 30
0.0
 10
-8.5942
 20
-5.6128
 30
0.0
 10
-8.6906
 20
-5.9099
 30
0.0
 10
-8.6459
 20
-6.3094
 30
0.0
 10
-8.6459
 20
-6.5909
 30
0.0
  0
SPLINE
  5
86
330
1F
100
AcDbEntity
  8
DEFAULT_3
100
AcDbSpline
210
0.0
220
0.0
230
1.0
 70
     8
 71
     3
 72
    16
 73
    12
 74
     0
 42
0.0000000001
 43
0.0000000001
 40
0.0
 40
0.0
 40
0.0
 40
0.0
 40
0.25
 40
0.25
 40
0.25
 40
0.25
 40
0.5
 40
0.5
 40
0.5
 40
0.5
 40
1.0
 40
1.0
 40
1.0
 40
1.0
 10
11.9864
 20
-20.6853
 30
0.0
 10
12.2943
 20
-20.6527
 30
0.0
 10
12.5583
 20
-20.5737
 30
0.0
 10
12.7733
 20
-20.3346
 30
0.0
 10
12.7733
 20
-20.3346
 30
0.0
 10
13.2821
 20
-19.7693
 30
0.0
 10
13.0265
 20
-18.8509
 30
0.0
 10
12.3129
 20
-18.6194
 30
0.0
 10
12.3129
 20
-18.6194
 30
0.0
 10
12.0158
 20
-18.523
 30
0.0
 10
11.6163
 20
-18.5677
 30
0.0
 10
11.3348
 20
-18.5677
 30
0.0
  0
SPLINE
  5
87
330
1F
100
AcDbEntity
  8
DEFAULT_3
100
AcDbSpline
210
0.0
220
0.0
230
1.0
 70
    24
 71
     3
 72
    12
 73
     8
 74
     0
 42
0.0000000001
 43
0.0000000001
 40
0.0
 40
0.0
 40
0.0
 40
0.0
 40
0.3333333333333333
 40
0.3333333333333333
 40
0.3333333333333333
 40
0.3333333333333333
 40
1.0
 40
1.0
 40
1.0
 40
1.0
 10
-8.6459
 20
-6.5909
 30
0.0
 10
-8.6459
 20
-6.5909
 30
0.0
 10
-8.6459
 20
-18.9704
 30
0.0
 10
-8.6459
 20
-18.9704
 30
0.0
 10
-8.6459
 20
-18.9704
 30
0.0
 10
-8.6459
 20
-18.9704
 30
0.0
 10
-8.6459
 20
-19.6219
 30
0.0
 10
-8.6459
 20
-19.6219
 30
0.0
  0
SPLINE
  5
88
330
1F
100
AcDbEntity
  8
DEFAULT_3
100
AcDbSpline
210
0.0
220
0.0
230
1.0
 70
    24
 71
     3
 72
    12
 73
     8
 74
     0
 42
0.0000000001
 43
0.0000000001
 40
0.0
 40
0.0
 40
0.0
 40
0.0
 40
0.3333333333333333
 40
0.3333333333333333
 40
0.3333333333333333
 40
0.3333333333333333
 40
1.0
 40
1.0
 40
1.0
 40
1.0
 10
11.3348
 20
-18.5677
 30
0.0
 10
11.3348
 20
-18.5677
 30
0.0
 10
-1.0447
 20
-18.5677
 30
0.0
 10
-1.0447
 20
-18.5677
 30
0.0
 10
-1.0447
 20
-18.5677
 30
0.0
 10
-1.0447
 20
-18.5677
 30
0.0
 10
-1.6962
 20
-18.5677
 30
0.0
 10
-1.6962
 20
-18.5677
 30
0.0
  0
SPLINE
  5
89
330
1F
100
AcDbEntity
  8
DEFAULT_3
100
AcDbSpline
210
0.0
220
0.0
230
1.0
 70
     8
 71
     3
 72
    12
 73
     8
 74
     0
 42
0.0000000001
 43
0.0000000001
 40
0.0
 40
0.0
 40
0.0
 40
0.0
 40
0.3333333333333333
 40
0.3333333333333333
 40
0.3333333333333333
 40
0.3333333333333333
 40
1.0
 40
1.0
 40
1.0
 40
1.0
 10
-8.6459
 20
-19.6219
 30
0.0
 10
-8.6133
 20
-19.9298
 30
0.0
 10
-8.5344
 20
-20.1938
 30
0.0
 10
-8.2953
 20
-20.4088
 30
0.0
 10
-8.2953
 20
-20.4088
 30
0.0
 10
-7.7019
 20
-20.9426
 30
0.0
 10
-6.7188
 20
-20.6279
 30
0.0
 10
-6.5518
 20
-19.8429
 30
0.0
  0
SPLINE
  5
8A
330
1F
100
AcDbEntity
  8
DEFAULT_3
100
AcDbSpline
210
0.0
220
0.0
230
1.0
 70
     8
 71
     3
 72
    12
 73
     8
 74
     0
 42
0.0000000001
 43
0.0000000001
 40
0.0
 40
0.0
 40
0.0
 40
0.0
 40
0.3333333333333333
 40
0.3333333333333333
 40
0.3333333333333333
 40
0.3333333333333333
 40
1.0
 40
1.0
 40
1.0
 40
1.0
 10
-1.6962
 20
-18.5677
 30
0.0
 10
-2.0041
 20
-18.6003
 30
0.0
 10
-2.2681
 20
-18.6792
 30
0.0
 10
-2.4831
 20
-18.9183
 30
0.0
 10
-2.4831
 20
-18.9183
 30
0.0
 10
-3.0169
 20
-19.5117
 30
0.0
 10
-2.7022
 20
-20.4948
 30
0.0
 10
-1.9172
 20
-20.6618
 30
0.0
  0
SPLINE
  5
8B
330
1F
100
AcDbEntity
  8
DEFAULT_3
100
AcDbSpline
210
0.0
220
0.0
230
1.0
 70
     8
 71
     3
 72
    24
 73
    20
 74
     0
 42
0.0000000001
 43
0.0000000001
 40
0.0
 40
0.0
 40
0.0
 40
0.0
 40
0.1666666666666667
 40
0.1666666666666667
 40
0.1666666666666667
 40
0.1666666666666667
 40
0.3333333333333333
 40
0.3333333333333333
 40
0.3333333333333333
 40
0.3333333333333333
 40
0.5
 40
0.5
 40
0.5
 40
0.5
 40
0.6666666666666666
 40
0.6666666666666666
 40
0.6666666666666666
 40
0.6666666666666666
 40
1.0
 40
1.0
 40
1.0
 40
1.0
 10
-6.5518
 20
-19.8429
 30
0.0
 10
-6.5518
 20
-19.8429
 30
0.0
 10
-6.5283
 20
-19.6219
 30
0.0
 10
-6.5283
 20
-19.6219
 30
0.0
 10
-6.5283
 20
-19.6219
 30
0.0
 10
-6.5283
 20
-19.6219
 30
0.0
 10
-6.5283
 20
-18.9704
 30
0.0
 10
-6.5283
 20
-18.9704
 30
0.0
 10
-6.5283
 20
-18.9704
 30
0.0
 10
-6.5283
 20
-18.9704
 30
0.0
 10
-6.5283
 20
-6.5909
 30
0.0
 10
-6.5283
 20
-6.5909
 30
0.0
 10
-6.5283
 20
-6.5909
 30
0.0
 10
-6.5283
 20
-6.5909
 30
0.0
 10
-6.5283
 20
-5.9393
 30
0.0
 10
-6.5283
 20
-5.9393
 30
0.0
 10
-6.5283
 20
-5.9393
 30
0.0
 10
-6.5283
 20
-5.9393
 30
0.0
 10
-6.5339
 20
-5.8297
 30
0.0
 10
-6.5339
 20
-5.8297
 30
0.0
  0
SPLINE
  5
8C
330
1F
100
AcDbEntity
  8
DEFAULT_3
100
AcDbSpline
210
0.0
220
0.0
230
1.0
 70
     8
 71
     3
 72
    24
 73
    20
 74
     0
 42
0.0000000001
 43
0.0000000001
 40
0.0
 40
0.0
 40
0.0
 40
0.0
 40
0.1666666666666667
 40
0.1666666666666667
 40
0.1666666666666667
 40
0.1666666666666667
 40
0.3333333333333333
 40
0.3333333333333333
 40
0.3333333333333333
 40
0.3333333333333333
 40
0.5
 40
0.5
 40
0.5
 40
0.5
 40
0.6666666666666666
 40
0.6666666666666666
 40
0.6666666666666666
 40
0.6666666666666666
 40
1.0
 40
1.0
 40
1.0
 40
1.0
 10
-1.9172
 20
-20.6618
 30
0.0
 10
-1.9172
 20
-20.6618
 30
0.0
 10
-1.6962
 20
-20.6853
 30
0.0
 10
-1.6962
 20
-20.6853
 30
0.0
 10
-1.6962
 20
-20.6853
 30
0.0
 10
-1.6962
 20
-20.6853
 30
0.0
 10
-1.0447
 20
-20.6853
 30
0.0
 10
-1.0447
 20
-20.6853
 30
0.0
 10
-1.0447
 20
-20.6853
 30
0.0
 10
-1.0447
 20
-20.6853
 30
0.0
 10
11.3348
 20
-20.6853
 30
0.0
 10
11.3348
 20
-20.6853
 30
0.0
 10
11.3348
 20
-20.6853
 30
0.0
 10
11.3348
 20
-20.6853
 30
0.0
 10
11.9864
 20
-20.6853
 30
0.0
 10
11.9864
 20
-20.6853
 30
0.0
 10
11.9864
 20
-20.6853
 30
0.0
 10
11.9864
 20
-20.6853
 30
0.0
 10
12.096
 20
-20.6797
 30
0.0
 10
12.096
 20
-20.6797
 30
0.0
  0
SPLINE
  5
8D
330
1F
100
AcDbEntity
  8
DEFAULT_3
100
AcDbSpline
210
0.0
220
0.0
230
1.0
 70
     8
 71
     3
 72
    16
 73
    12
 74
     0
 42
0.0000000001
 43
0.0000000001
 40
0.0
 40
0.0
 40
0.0
 40
0.0
 40
0.25
 40
0.25
 40
0.25
 40
0.25
 40
0.5
 40
0.5
 40
0.5
 40
0.5
 40
1.0
 40
1.0
 40
1.0
 40
1.0
 10
-15.6499
 20
-5.9393
 30
0.0
 10
-15.6826
 20
-5.6314
 30
0.0
 10
-15.7615
 20
-5.3674
 30
0.0
 10
-16.0007
 20
-5.1524
 30
0.0
 10
-16.0007
 20
-5.1524
 30
0.0
 10
-16.5659
 20
-4.6436
 30
0.0
 10
-17.4843
 20
-4.8992
 30
0.0
 10
-17.7158
 20
-5.6128
 30
0.0
 10
-17.7158
 20
-5.6128
 30
0.0
 10
-17.8121
 20
-5.9099
 30
0.0
 10
-17.7675
 20
-6.3094
 30
0.0
 10
-17.7675
 20
-6.5909
 30
0.0
  0
SPLINE
  5
8E
330
1F
100
AcDbEntity
  8
DEFAULT_3
100
AcDbSpline
210
0.0
220
0.0
230
1.0
 70
     8
 71
     3
 72
    16
 73
    12
 74
     0
 42
0.0000000001
 43
0.0000000001
 40
0.0
 40
0.0
 40
0.0
 40
0.0
 40
0.25
 40
0.25
 40
0.25
 40
0.25
 40
0.5
 40
0.5
 40
0.5
 40
0.5
 40
1.0
 40
1.0
 40
1.0
 40
1.0
 10
11.9864
 20
-11.5637
 30
0.0
 10
12.2943
 20
-11.531
 30
0.0
 10
12.5583
 20
-11.4521
 30
0.0
 10
12.7733
 20
-11.2129
 30
0.0
 10
12.7733
 20
-11.2129
 30
0.0
 10
13.2821
 20
-10.6477
 30
0.0
 10
13.0265
 20
-9.7293
 30
0.0
 10
12.3129
 20
-9.4978
 30
0.0
 10
12.3129
 20
-9.4978
 30
0.0
 10
12.0158
 20
-9.4015
 30
0.0
 10
11.6163
 20
-9.4461
 30
0.0
 10
11.3348
 20
-9.4461
 30
0.0
  0
SPLINE
  5
8F
330
1F
100
AcDbEntity
  8
DEFAULT_3
100
AcDbSpline
210
0.0
220
0.0
230
1.0
 70
    24
 71
     3
 72
    12
 73
     8
 74
     0
 42
0.0000000001
 43
0.0000000001
 40
0.0
 40
0.0
 40
0.0
 40
0.0
 40
0.3333333333333333
 40
0.3333333333333333
 40
0.3333333333333333
 40
0.3333333333333333
 40
1.0
 40
1.0
 40
1.0
 40
1.0
 10
-17.7675
 20
-6.5909
 30
0.0
 10
-17.7675
 20
-6.5909
 30
0.0
 10
-17.7675
 20
-18.9704
 30
0.0
 10
-17.7675
 20
-18.9704
 30
0.0
 10
-17.7675
 20
-18.9704
 30
0.0
 10
-17.7675
 20
-18.9704
 30
0.0
 10
-17.7675
 20
-19.6219
 30
0.0
 10
-17.7675
 20
-19.6219
 30
0.0
  0
SPLINE
  5
90
330
1F
100
AcDbEntity
  8
DEFAULT_3
100
AcDbSpline
210
0.0
220
0.0
230
1.0
 70
    24
 71
     3
 72
    12
 73
     8
 74
     0
 42
0.0000000001
 43
0.0000000001
 40
0.0
 40
0.0
 40
0.0
 40
0.0
 40
0.3333333333333333
 40
0.3333333333333333
 40
0.3333333333333333
 40
0.3333333333333333
 40
1.0
 40
1.0
 40
1.0
 40
1.0
 10
11.3348
 20
-9.4461
 30
0.0
 10
11.3348
 20
-9.4461
 30
0.0
 10
-1.0447
 20
-9.4461
 30
0.0
 10
-1.0447
 20
-9.4461
 30
0.0
 10
-1.0447
 20
-9.4461
 30
0.0
 10
-1.0447
 20
-9.4461
 30
0.0
 10
-1.6962
 20
-9.4461
 30
0.0
 10
-1.6962
 20
-9.4461
 30
0.0
  0
SPLINE
  5
91
330
1F
100
AcDbEntity
  8
DEFAULT_3
100
AcDbSpline
210
0.0
220
0.0
230
1.0
 70
     8
 71
     3
 72
    12
 73
     8
 74
     0
 42
0.0000000001
 43
0.0000000001
 40
0.0
 40
0.0
 40
0.0
 40
0.0
 40
0.3333333333333333
 40
0.3333333333333333
 40
0.3333333333333333
 40
0.3333333333333333
 40
1.0
 40
1.0
 40
1.0
 40
1.0
 10
-17.7675
 20
-19.6219
 30
0.0
 10
-17.7348
 20
-19.9298
 30
0.0
 10
-17.6561
 20
-20.1938
 30
0.0
 10
-17.4169
 20
-20.4088
 30
0.0
 10
-17.4169
 20
-20.4088
 30
0.0
 10
-16.8235
 20
-20.9426
 30
0.0
 10
-15.8405
 20
-20.6279
 30
0.0
 10
-15.6735
 20
-19.8429
 30
0.0
  0
SPLINE
  5
92
330
1F
100
AcDbEntity
  8
DEFAULT_3
100
AcDbSpline
210
0.0
220
0.0
230
1.0
 70
     8
 71
     3
 72
    12
 73
     8
 74
     0
 42
0.0000000001
 43
0.0000000001
 40
0.0
 40
0.0
 40
0.0
 40
0.0
 40
0.3333333333333333
 40
0.3333333333333333
 40
0.3333333333333333
 40
0.3333333333333333
 40
1.0
 40
1.0
 40
1.0
 40
1.0
 10
-1.6962
 20
-9.4461
 30
0.0
 10
-2.0041
 20
-9.4788
 30
0.0
 10
-2.2681
 20
-9.5575
 30
0.0
 10
-2.4831
 20
-9.7967
 30
0.0
 10
-2.4831
 20
-9.7967
 30
0.0
 10
-3.0169
 20
-10.3901
 30
0.0
 10
-2.7022
 20
-11.3731
 30
0.0
 10
-1.9172
 20
-11.5401
 30
0.0
  0
SPLINE
  5
93
330
1F
100
AcDbEntity
  8
DEFAULT_3
100
AcDbSpline
210
0.0
220
0.0
230
1.0
 70
     8
 71
     3
 72
    24
 73
    20
 74
     0
 42
0.0000000001
 43
0.0000000001
 40
0.0
 40
0.0
 40
0.0
 40
0.0
 40
0.1666666666666667
 40
0.1666666666666667
 40
0.1666666666666667
 40
0.1666666666666667
 40
0.3333333333333333
 40
0.3333333333333333
 40
0.3333333333333333
 40
0.3333333333333333
 40
0.5
 40
0.5
 40
0.5
 40
0.5
 40
0.6666666666666666
 40
0.6666666666666666
 40
0.6666666666666666
 40
0.6666666666666666
 40
1.0
 40
1.0
 40
1.0
 40
1.0
 10
-15.6735
 20
-19.8429
 30
0.0
 10
-15.6735
 20
-19.8429
 30
0.0
 10
-15.6499
 20
-19.6219
 30
0.0
 10
-15.6499
 20
-19.6219
 30
0.0
 10
-15.6499
 20
-19.6219
 30
0.0
 10
-15.6499
 20
-19.6219
 30
0.0
 10
-15.6499
 20
-18.9704
 30
0.0
 10
-15.6499
 20
-18.9704
 30
0.0
 10
-15.6499
 20
-18.9704
 30
0.0
 10
-15.6499
 20
-18.9704
 30
0.0
 10
-15.6499
 20
-6.5909
 30
0.0
 10
-15.6499
 20
-6.5909
 30
0.0
 10
-15.6499
 20
-6.5909
 30
0.0
 10
-15.6499
 20
-6.5909
 30
0.0
 10
-15.6499
 20
-5.9393
 30
0.0
 10
-15.6499
 20
-5.9393
 30
0.0
 10
-15.6499
 20
-5.9393
 30
0.0
 10
-15.6499
 20
-5.9393
 30
0.0
 10
-15.6556
 20
-5.8297
 30
0.0
 10
-15.6556
 20
-5.8297
 30
0.0
  0
SPLINE
  5
94
330
1F
100
AcDbEntity
  8
DEFAULT_3
100
AcDbSpline
210
0.0
220
0.0
230
1.0
 70
     8
 71
     3
 72
    24
 73
    20
 74
     0
 42
0.0000000001
 43
0.0000000001
 40
0.0
 40
0.0
 40
0.0
 40
0.0
 40
0.1666666666666667
 40
0.1666666666666667
 40
0.1666666666666667
 40
0.1666666666666667
 40
0.3333333333333333
 40
0.3333333333333333
 40
0.3333333333333333
 40
0.3333333333333333
 40
0.5
 40
0.5
 40
0.5
 40
0.5
 40
0.6666666666666666
 40
0.6666666666666666
 40
0.6666666666666666
 40
0.6666666666666666
 40
1.0
 40
1.0
 40
1.0
 40
1.0
 10
-1.9172
 20
-11.5401
 30
0.0
 10
-1.9172
 20
-11.5401
 30
0.0
 10
-1.6962
 20
-11.5637
 30
0.0
 10
-1.6962
 20
-11.5637
 30
0.0
 10
-1.6962
 20
-11.5637
 30
0.0
 10
-1.6962
 20
-11.5637
 30
0.0
 10
-1.0447
 20
-11.5637
 30
0.0
 10
-1.0447
 20
-11.5637
 30
0.0
 10
-1.0447
 20
-11.5637
 30
0.0
 10
-1.0447
 20
-11.5637
 30
0.0
 10
11.3348
 20
-11.5637
 30
0.0
 10
11.3348
 20
-11.5637
 30
0.0
 10
11.3348
 20
-11.5637
 30
0.0
 10
11.3348
 20
-11.5637
 30
0.0
 10
11.9864
 20
-11.5637
 30
0.0
 10
11.9864
 20
-11.5637
 30
0.0
 10
11.9864
 20
-11.5637
 30
0.0
 10
11.9864
 20
-11.5637
 30
0.0
 10
12.096
 20
-11.558
 30
0.0
 10
12.096
 20
-11.558
 30
0.0
  0
SPLINE
  5
95
330
1F
100
AcDbEntity
  8
DEFAULT_3
100
AcDbSpline
210
0.0
220
0.0
230
1.0
 70
     8
 71
     3
 72
    16
 73
    12
 74
     0
 42
0.0000000001
 43
0.0000000001
 40
0.0
 40
0.0
 40
0.0
 40
0.0
 40
0.25
 40
0.25
 40
0.25
 40
0.25
 40
0.5
 40
0.5
 40
0.5
 40
0.5
 40
1.0
 40
1.0
 40
1.0
 40
1.0
 10
-7.366
 20
-1.1108
 30
0.0
 10
-7.1442
 20
-1.0387
 30
0.0
 10
-6.9605
 20
-0.9621
 30
0.0
 10
-6.8001
 20
-0.7836
 30
0.0
 10
-6.8001
 20
-0.7836
 30
0.0
 10
-6.3643
 20
-0.2995
 30
0.0
 10
-6.4846
 20
0.3923
 30
0.0
 10
-6.9649
 20
0.7812
 30
0.0
 10
-6.9649
 20
0.7812
 30
0.0
 10
-7.3107
 20
1.0611
 30
0.0
 10
-7.8428
 20
0.9833
 30
0.0
 10
-8.2387
 20
0.9833
 30
0.0
  0
SPLINE
  5
96
330
1F
100
AcDbEntity
  8
DEFAULT_3
100
AcDbSpline
210
0.0
220
0.0
230
1.0
 70
     8
 71
     3
 72
    16
 73
    12
 74
     0
 42
0.0000000001
 43
0.0000000001
 40
0.0
 40
0.0
 40
0.0
 40
0.0
 40
0.25
 40
0.25
 40
0.25
 40
0.25
 40
0.5
 40
0.5
 40
0.5
 40
0.5
 40
1.0
 40
1.0
 40
1.0
 40
1.0
 10
-8.2387
 20
0.9833
 30
0.0
 10
-8.2387
 20
0.9833
 30
0.0
 10
-20.618
 20
0.9833
 30
0.0
 10
-20.618
 20
0.9833
 30
0.0
 10
-20.618
 20
0.9833
 30
0.0
 10
-20.618
 20
0.9833
 30
0.0
 10
-21.2695
 20
0.9833
 30
0.0
 10
-21.2695
 20
0.9833
 30
0.0
 10
-21.2695
 20
0.9833
 30
0.0
 10
-21.2695
 20
0.9833
 30
0.0
 10
-21.4907
 20
0.9597
 30
0.0
 10
-21.4907
 20
0.9597
 30
0.0
  0
SPLINE
  5
97
330
1F
100
AcDbEntity
  8
DEFAULT_3
100
AcDbSpline
210
0.0
220
0.0
230
1.0
 70
     8
 71
     3
 72
    16
 73
    12
 74
     0
 42
0.0000000001
 43
0.0000000001
 40
0.0
 40
0.0
 40
0.0
 40
0.0
 40
0.25
 40
0.25
 40
0.25
 40
0.25
 40
0.5
 40
0.5
 40
0.5
 40
0.5
 40
1.0
 40
1.0
 40
1.0
 40
1.0
 10
-21.4907
 20
0.9597
 30
0.0
 10
-21.8569
 20
0.8818
 30
0.0
 10
-22.1609
 20
0.6075
 30
0.0
 10
-22.2765
 20
0.2515
 30
0.0
 10
-22.2765
 20
0.2515
 30
0.0
 10
-22.3248
 20
0.1032
 30
0.0
 10
-22.3215
 20
0.0567
 30
0.0
 10
-22.3282
 20
-0.0754
 30
0.0
 10
-22.3282
 20
-0.0754
 30
0.0
 10
-22.3034
 20
-0.5515
 30
0.0
 10
-21.993
 20
-1.0316
 30
0.0
 10
-21.4894
 20
-1.1112
 30
0.0
  0
SPLINE
  5
98
330
1F
100
AcDbEntity
  8
DEFAULT_3
100
AcDbSpline
210
0.0
220
0.0
230
1.0
 70
     8
 71
     3
 72
    16
 73
    12
 74
     0
 42
0.0000000001
 43
0.0000000001
 40
0.0
 40
0.0
 40
0.0
 40
0.0
 40
0.25
 40
0.25
 40
0.25
 40
0.25
 40
0.5
 40
0.5
 40
0.5
 40
0.5
 40
1.0
 40
1.0
 40
1.0
 40
1.0
 10
-21.4894
 20
-1.1112
 30
0.0
 10
-21.4894
 20
-1.1112
 30
0.0
 10
-21.2695
 20
-1.1343
 30
0.0
 10
-21.2695
 20
-1.1343
 30
0.0
 10
-21.2695
 20
-1.1343
 30
0.0
 10
-21.2695
 20
-1.1343
 30
0.0
 10
-20.618
 20
-1.1343
 30
0.0
 10
-20.618
 20
-1.1343
 30
0.0
 10
-20.618
 20
-1.1343
 30
0.0
 10
-20.618
 20
-1.1343
 30
0.0
 10
-8.2387
 20
-1.1343
 30
0.0
 10
-8.2387
 20
-1.1343
 30
0.0
  0
SPLINE
  5
99
330
1F
100
AcDbEntity
  8
DEFAULT_3
100
AcDbSpline
210
0.0
220
0.0
230
1.0
 70
     8
 71
     3
 72
     8
 73
     4
 74
     0
 42
0.0000000001
 43
0.0000000001
 40
0.0
 40
0.0
 40
0.0
 40
0.0
 40
1.0
 40
1.0
 40
1.0
 40
1.0
 10
-8.2387
 20
-1.1343
 30
0.0
 10
-7.9095
 20
-1.1343
 30
0.0
 10
-7.5803
 20
-1.1681
 30
0.0
 10
-7.2607
 20
-1.0826
 30
0.0
  0
SPLINE
  5
9A
330
1F
100
AcDbEntity
  8
DEFAULT_3
100
AcDbSpline
210
0.0
220
0.0
230
1.0
 70
     8
 71
     3
 72
    16
 73
    12
 74
     0
 42
0.0000000001
 43
0.0000000001
 40
0.0
 40
0.0
 40
0.0
 40
0.0
 40
0.25
 40
0.25
 40
0.25
 40
0.25
 40
0.5
 40
0.5
 40
0.5
 40
0.5
 40
1.0
 40
1.0
 40
1.0
 40
1.0
 10
13.018
 20
13.6069
 30
0.0
 10
12.9853
 20
13.9148
 30
0.0
 10
12.9065
 20
14.1788
 30
0.0
 10
12.6674
 20
14.3939
 30
0.0
 10
12.6674
 20
14.3939
 30
0.0
 10
12.102
 20
14.9026
 30
0.0
 10
11.1835
 20
14.6473
 30
0.0
 10
10.9521
 20
13.9335
 30
0.0
 10
10.9521
 20
13.9335
 30
0.0
 10
10.8559
 20
13.6364
 30
0.0
 10
10.9006
 20
13.2369
 30
0.0
 10
10.9006
 20
12.9554
 30
0.0
  0
SPLINE
  5
9B
330
1F
100
AcDbEntity
  8
DEFAULT_3
100
AcDbSpline
210
0.0
220
0.0
230
1.0
 70
    24
 71
     3
 72
    12
 73
     8
 74
     0
 42
0.0000000001
 43
0.0000000001
 40
0.0
 40
0.0
 40
0.0
 40
0.0
 40
0.3333333333333333
 40
0.3333333333333333
 40
0.3333333333333333
 40
0.3333333333333333
 40
1.0
 40
1.0
 40
1.0
 40
1.0
 10
10.9006
 20
12.9554
 30
0.0
 10
10.9006
 20
12.9554
 30
0.0
 10
10.9006
 20
0.5761
 30
0.0
 10
10.9006
 20
0.5761
 30
0.0
 10
10.9006
 20
0.5761
 30
0.0
 10
10.9006
 20
0.5761
 30
0.0
 10
10.9006
 20
-0.0754
 30
0.0
 10
10.9006
 20
-0.0754
 30
0.0
  0
SPLINE
  5
9C
330
1F
100
AcDbEntity
  8
DEFAULT_3
100
AcDbSpline
210
0.0
220
0.0
230
1.0
 70
     8
 71
     3
 72
    12
 73
     8
 74
     0
 42
0.0000000001
 43
0.0000000001
 40
0.0
 40
0.0
 40
0.0
 40
0.0
 40
0.3333333333333333
 40
0.3333333333333333
 40
0.3333333333333333
 40
0.3333333333333333
 40
1.0
 40
1.0
 40
1.0
 40
1.0
 10
10.9006
 20
-0.0754
 30
0.0
 10
10.9412
 20
-0.4593
 30
0.0
 10
11.0796
 20
-0.7902
 30
0.0
 10
11.4301
 20
-0.9925
 30
0.0
 10
11.4301
 20
-0.9925
 30
0.0
 10
12.0416
 20
-1.3454
 30
0.0
 10
12.8462
 20
-0.9935
 30
0.0
 10
12.9946
 20
-0.2966
 30
0.0
  0
SPLINE
  5
9D
330
1F
100
AcDbEntity
  8
DEFAULT_3
100
AcDbSpline
210
0.0
220
0.0
230
1.0
 70
     8
 71
     3
 72
    24
 73
    20
 74
     0
 42
0.0000000001
 43
0.0000000001
 40
0.0
 40
0.0
 40
0.0
 40
0.0
 40
0.1666666666666667
 40
0.1666666666666667
 40
0.1666666666666667
 40
0.1666666666666667
 40
0.3333333333333333
 40
0.3333333333333333
 40
0.3333333333333333
 40
0.3333333333333333
 40
0.5
 40
0.5
 40
0.5
 40
0.5
 40
0.6666666666666666
 40
0.6666666666666666
 40
0.6666666666666666
 40
0.6666666666666666
 40
1.0
 40
1.0
 40
1.0
 40
1.0
 10
12.9946
 20
-0.2966
 30
0.0
 10
12.9946
 20
-0.2966
 30
0.0
 10
13.018
 20
-0.0754
 30
0.0
 10
13.018
 20
-0.0754
 30
0.0
 10
13.018
 20
-0.0754
 30
0.0
 10
13.018
 20
-0.0754
 30
0.0
 10
13.018
 20
0.5761
 30
0.0
 10
13.018
 20
0.5761
 30
0.0
 10
13.018
 20
0.5761
 30
0.0
 10
13.018
 20
0.5761
 30
0.0
 10
13.018
 20
12.9554
 30
0.0
 10
13.018
 20
12.9554
 30
0.0
 10
13.018
 20
12.9554
 30
0.0
 10
13.018
 20
12.9554
 30
0.0
 10
13.018
 20
13.6069
 30
0.0
 10
13.018
 20
13.6069
 30
0.0
 10
13.018
 20
13.6069
 30
0.0
 10
13.018
 20
13.6069
 30
0.0
 10
13.0123
 20
13.7166
 30
0.0
 10
13.0123
 20
13.7166
 30
0.0
  0
SPLINE
  5
9E
330
1F
100
AcDbEntity
  8
DEFAULT_3
100
AcDbSpline
210
0.0
220
0.0
230
1.0
 70
     8
 71
     3
 72
    16
 73
    12
 74
     0
 42
0.0000000001
 43
0.0000000001
 40
0.0
 40
0.0
 40
0.0
 40
0.0
 40
0.25
 40
0.25
 40
0.25
 40
0.25
 40
0.5
 40
0.5
 40
0.5
 40
0.5
 40
1.0
 40
1.0
 40
1.0
 40
1.0
 10
-0.6879
 20
13.8279
 30
0.0
 10
-0.7836
 20
14.122
 30
0.0
 10
-0.916
 20
14.3635
 30
0.0
 10
-1.1941
 20
14.5241
 30
0.0
 10
-1.1941
 20
14.5241
 30
0.0
 10
-1.7712
 20
14.857
 30
0.0
 10
-2.5261
 20
14.5632
 30
0.0
 10
-2.7302
 20
13.9335
 30
0.0
 10
-2.7302
 20
13.9335
 30
0.0
 10
-2.8266
 20
13.6364
 30
0.0
 10
-2.782
 20
13.2369
 30
0.0
 10
-2.782
 20
12.9554
 30
0.0
  0
SPLINE
  5
9F
330
1F
100
AcDbEntity
  8
DEFAULT_3
100
AcDbSpline
210
0.0
220
0.0
230
1.0
 70
    24
 71
     3
 72
    12
 73
     8
 74
     0
 42
0.0000000001
 43
0.0000000001
 40
0.0
 40
0.0
 40
0.0
 40
0.0
 40
0.3333333333333333
 40
0.3333333333333333
 40
0.3333333333333333
 40
0.3333333333333333
 40
1.0
 40
1.0
 40
1.0
 40
1.0
 10
-2.782
 20
12.9554
 30
0.0
 10
-2.782
 20
12.9554
 30
0.0
 10
-2.782
 20
0.5761
 30
0.0
 10
-2.782
 20
0.5761
 30
0.0
 10
-2.782
 20
0.5761
 30
0.0
 10
-2.782
 20
0.5761
 30
0.0
 10
-2.782
 20
-0.0754
 30
0.0
 10
-2.782
 20
-0.0754
 30
0.0
  0
SPLINE
  5
A0
330
1F
100
AcDbEntity
  8
DEFAULT_3
100
AcDbSpline
210
0.0
220
0.0
230
1.0
 70
     8
 71
     3
 72
    16
 73
    12
 74
     0
 42
0.0000000001
 43
0.0000000001
 40
0.0
 40
0.0
 40
0.0
 40
0.0
 40
0.25
 40
0.25
 40
0.25
 40
0.25
 40
0.5
 40
0.5
 40
0.5
 40
0.5
 40
1.0
 40
1.0
 40
1.0
 40
1.0
 10
-2.782
 20
-0.0754
 30
0.0
 10
-2.7572
 20
-0.308
 30
0.0
 10
-2.7208
 20
-0.5036
 30
0.0
 10
-2.5793
 20
-0.6983
 30
0.0
 10
-2.5793
 20
-0.6983
 30
0.0
 10
-2.213
 20
-1.2022
 30
0.0
 10
-1.4732
 20
-1.275
 30
0.0
 10
-1.0151
 20
-0.8626
 30
0.0
 10
-1.0151
 20
-0.8626
 30
0.0
 10
-0.591
 20
-0.4807
 30
0.0
 10
-0.6643
 20
0.0563
 30
0.0
 10
-0.6643
 20
0.5761
 30
0.0
  0
SPLINE
  5
A1
330
1F
100
AcDbEntity
  8
DEFAULT_3
100
AcDbSpline
210
0.0
220
0.0
230
1.0
 70
    24
 71
     3
 72
     8
 73
     4
 74
     0
 42
0.0000000001
 43
0.0000000001
 40
0.0
 40
0.0
 40
0.0
 40
0.0
 40
1.0
 40
1.0
 40
1.0
 40
1.0
 10
-0.6643
 20
0.5761
 30
0.0
 10
-0.6643
 20
0.5761
 30
0.0
 10
-0.6643
 20
12.9554
 30
0.0
 10
-0.6643
 20
12.9554
 30
0.0
  0
SPLINE
  5
A2
330
1F
100
AcDbEntity
  8
DEFAULT_3
100
AcDbSpline
210
0.0
220
0.0
230
1.0
 70
     8
 71
     3
 72
     8
 73
     4
 74
     0
 42
0.0000000001
 43
0.0000000001
 40
0.0
 40
0.0
 40
0.0
 40
0.0
 40
1.0
 40
1.0
 40
1.0
 40
1.0
 10
-0.6643
 20
12.9554
 30
0.0
 10
-0.6643
 20
13.2848
 30
0.0
 10
-0.6305
 20
13.6136
 30
0.0
 10
-0.716
 20
13.9335
 30
0.0
  0
SPLINE
  5
A3
330
1F
100
AcDbEntity
  8
DEFAULT_3
100
AcDbSpline
210
0.0
220
0.0
230
1.0
 70
     8
 71
     3
 72
    16
 73
    12
 74
     0
 42
0.0000000001
 43
0.0000000001
 40
0.0
 40
0.0
 40
0.0
 40
0.0
 40
0.25
 40
0.25
 40
0.25
 40
0.25
 40
0.5
 40
0.5
 40
0.5
 40
0.5
 40
1.0
 40
1.0
 40
1.0
 40
1.0
 10
3.8964
 20
13.6069
 30
0.0
 10
3.8637
 20
13.9148
 30
0.0
 10
3.785
 20
14.1788
 30
0.0
 10
3.5459
 20
14.3939
 30
0.0
 10
3.5459
 20
14.3939
 30
0.0
 10
2.9805
 20
14.9026
 30
0.0
 10
2.0619
 20
14.6473
 30
0.0
 10
1.8305
 20
13.9335
 30
0.0
 10
1.8305
 20
13.9335
 30
0.0
 10
1.7343
 20
13.6364
 30
0.0
 10
1.779
 20
13.2369
 30
0.0
 10
1.779
 20
12.9554
 30
0.0
  0
SPLINE
  5
A4
330
1F
100
AcDbEntity
  8
DEFAULT_3
100
AcDbSpline
210
0.0
220
0.0
230
1.0
 70
    24
 71
     3
 72
    12
 73
     8
 74
     0
 42
0.0000000001
 43
0.0000000001
 40
0.0
 40
0.0
 40
0.0
 40
0.0
 40
0.3333333333333333
 40
0.3333333333333333
 40
0.3333333333333333
 40
0.3333333333333333
 40
1.0
 40
1.0
 40
1.0
 40
1.0
 10
1.779
 20
12.9554
 30
0.0
 10
1.779
 20
12.9554
 30
0.0
 10
1.779
 20
0.5761
 30
0.0
 10
1.779
 20
0.5761
 30
0.0
 10
1.779
 20
0.5761
 30
0.0
 10
1.779
 20
0.5761
 30
0.0
 10
1.779
 20
-0.0754
 30
0.0
 10
1.779
 20
-0.0754
 30
0.0
  0
SPLINE
  5
A5
330
1F
100
AcDbEntity
  8
DEFAULT_3
100
AcDbSpline
210
0.0
220
0.0
230
1.0
 70
     8
 71
     3
 72
    12
 73
     8
 74
     0
 42
0.0000000001
 43
0.0000000001
 40
0.0
 40
0.0
 40
0.0
 40
0.0
 40
0.3333333333333333
 40
0.3333333333333333
 40
0.3333333333333333
 40
0.3333333333333333
 40
1.0
 40
1.0
 40
1.0
 40
1.0
 10
1.779
 20
-0.0754
 30
0.0
 10
1.8197
 20
-0.4593
 30
0.0
 10
1.958
 20
-0.7902
 30
0.0
 10
2.3084
 20
-0.9925
 30
0.0
 10
2.3084
 20
-0.9925
 30
0.0
 10
2.92
 20
-1.3454
 30
0.0
 10
3.7245
 20
-0.9935
 30
0.0
 10
3.873
 20
-0.2966
 30
0.0
  0
SPLINE
  5
A6
330
1F
100
AcDbEntity
  8
DEFAULT_3
100
AcDbSpline
210
0.0
220
0.0
230
1.0
 70
     8
 71
     3
 72
    24
 73
    20
 74
     0
 42
0.0000000001
 43
0.0000000001
 40
0.0
 40
0.0
 40
0.0
 40
0.0
 40
0.1666666666666667
 40
0.1666666666666667
 40
0.1666666666666667
 40
0.1666666666666667
 40
0.3333333333333333
 40
0.3333333333333333
 40
0.3333333333333333
 40
0.3333333333333333
 40
0.5
 40
0.5
 40
0.5
 40
0.5
 40
0.6666666666666666
 40
0.6666666666666666
 40
0.6666666666666666
 40
0.6666666666666666
 40
1.0
 40
1.0
 40
1.0
 40
1.0
 10
3.873
 20
-0.2966
 30
0.0
 10
3.873
 20
-0.2966
 30
0.0
 10
3.8964
 20
-0.0754
 30
0.0
 10
3.8964
 20
-0.0754
 30
0.0
 10
3.8964
 20
-0.0754
 30
0.0
 10
3.8964
 20
-0.0754
 30
0.0
 10
3.8964
 20
0.5761
 30
0.0
 10
3.8964
 20
0.5761
 30
0.0
 10
3.8964
 20
0.5761
 30
0.0
 10
3.8964
 20
0.5761
 30
0.0
 10
3.8964
 20
12.9554
 30
0.0
 10
3.8964
 20
12.9554
 30
0.0
 10
3.8964
 20
12.9554
 30
0.0
 10
3.8964
 20
12.9554
 30
0.0
 10
3.8964
 20
13.6069
 30
0.0
 10
3.8964
 20
13.6069
 30
0.0
 10
3.8964
 20
13.6069
 30
0.0
 10
3.8964
 20
13.6069
 30
0.0
 10
3.8908
 20
13.7166
 30
0.0
 10
3.8908
 20
13.7166
 30
0.0
  0
SPLINE
  5
A7
330
1F
100
AcDbEntity
  8
DEFAULT_3
100
AcDbSpline
210
0.0
220
0.0
230
1.0
 70
     8
 71
     3
 72
    16
 73
    12
 74
     0
 42
0.0000000001
 43
0.0000000001
 40
0.0
 40
0.0
 40
0.0
 40
0.0
 40
0.25
 40
0.25
 40
0.25
 40
0.25
 40
0.5
 40
0.5
 40
0.5
 40
0.5
 40
1.0
 40
1.0
 40
1.0
 40
1.0
 10
8.4573
 20
13.6069
 30
0.0
 10
8.4246
 20
13.9148
 30
0.0
 10
8.3457
 20
14.1788
 30
0.0
 10
8.1065
 20
14.3939
 30
0.0
 10
8.1065
 20
14.3939
 30
0.0
 10
7.5412
 20
14.9026
 30
0.0
 10
6.6228
 20
14.6473
 30
0.0
 10
6.3914
 20
13.9335
 30
0.0
 10
6.3914
 20
13.9335
 30
0.0
 10
6.295
 20
13.6364
 30
0.0
 10
6.3397
 20
13.2369
 30
0.0
 10
6.3397
 20
12.9554
 30
0.0
  0
SPLINE
  5
A8
330
1F
100
AcDbEntity
  8
DEFAULT_3
100
AcDbSpline
210
0.0
220
0.0
230
1.0
 70
    24
 71
     3
 72
    12
 73
     8
 74
     0
 42
0.0000000001
 43
0.0000000001
 40
0.0
 40
0.0
 40
0.0
 40
0.0
 40
0.3333333333333333
 40
0.3333333333333333
 40
0.3333333333333333
 40
0.3333333333333333
 40
1.0
 40
1.0
 40
1.0
 40
1.0
 10
6.3397
 20
12.9554
 30
0.0
 10
6.3397
 20
12.9554
 30
0.0
 10
6.3397
 20
0.5761
 30
0.0
 10
6.3397
 20
0.5761
 30
0.0
 10
6.3397
 20
0.5761
 30
0.0
 10
6.3397
 20
0.5761
 30
0.0
 10
6.3397
 20
-0.0754
 30
0.0
 10
6.3397
 20
-0.0754
 30
0.0
  0
SPLINE
  5
A9
330
1F
100
AcDbEntity
  8
DEFAULT_3
100
AcDbSpline
210
0.0
220
0.0
230
1.0
 70
     8
 71
     3
 72
    12
 73
     8
 74
     0
 42
0.0000000001
 43
0.0000000001
 40
0.0
 40
0.0
 40
0.0
 40
0.0
 40
0.3333333333333333
 40
0.3333333333333333
 40
0.3333333333333333
 40
0.3333333333333333
 40
1.0
 40
1.0
 40
1.0
 40
1.0
 10
6.3397
 20
-0.0754
 30
0.0
 10
6.3805
 20
-0.4593
 30
0.0
 10
6.5187
 20
-0.7902
 30
0.0
 10
6.8694
 20
-0.9925
 30
0.0
 10
6.8694
 20
-0.9925
 30
0.0
 10
7.4809
 20
-1.3454
 30
0.0
 10
8.2855
 20
-0.9935
 30
0.0
 10
8.4337
 20
-0.2966
 30
0.0
  0
SPLINE
  5
AA
330
1F
100
AcDbEntity
  8
DEFAULT_3
100
AcDbSpline
210
0.0
220
0.0
230
1.0
 70
     8
 71
     3
 72
    24
 73
    20
 74
     0
 42
0.0000000001
 43
0.0000000001
 40
0.0
 40
0.0
 40
0.0
 40
0.0
 40
0.1666666666666667
 40
0.1666666666666667
 40
0.1666666666666667
 40
0.1666666666666667
 40
0.3333333333333333
 40
0.3333333333333333
 40
0.3333333333333333
 40
0.3333333333333333
 40
0.5
 40
0.5
 40
0.5
 40
0.5
 40
0.6666666666666666
 40
0.6666666666666666
 40
0.6666666666666666
 40
0.6666666666666666
 40
1.0
 40
1.0
 40
1.0
 40
1.0
 10
8.4337
 20
-0.2966
 30
0.0
 10
8.4337
 20
-0.2966
 30
0.0
 10
8.4573
 20
-0.0754
 30
0.0
 10
8.4573
 20
-0.0754
 30
0.0
 10
8.4573
 20
-0.0754
 30
0.0
 10
8.4573
 20
-0.0754
 30
0.0
 10
8.4573
 20
0.5761
 30
0.0
 10
8.4573
 20
0.5761
 30
0.0
 10
8.4573
 20
0.5761
 30
0.0
 10
8.4573
 20
0.5761
 30
0.0
 10
8.4573
 20
12.9554
 30
0.0
 10
8.4573
 20
12.9554
 30
0.0
 10
8.4573
 20
12.9554
 30
0.0
 10
8.4573
 20
12.9554
 30
0.0
 10
8.4573
 20
13.6069
 30
0.0
 10
8.4573
 20
13.6069
 30
0.0
 10
8.4573
 20
13.6069
 30
0.0
 10
8.4573
 20
13.6069
 30
0.0
 10
8.4514
 20
13.7166
 30
0.0
 10
8.4514
 20
13.7166
 30
0.0
  0
SPLINE
  5
AB
330
1F
100
AcDbEntity
  8
DEFAULT_3
100
AcDbSpline
210
0.0
220
0.0
230
1.0
 70
     8
 71
     3
 72
    16
 73
    12
 74
     0
 42
0.0000000001
 43
0.0000000001
 40
0.0
 40
0.0
 40
0.0
 40
0.0
 40
0.25
 40
0.25
 40
0.25
 40
0.25
 40
0.5
 40
0.5
 40
0.5
 40
0.5
 40
1.0
 40
1.0
 40
1.0
 40
1.0
 10
-7.587
 20
3.4266
 30
0.0
 10
-7.2791
 20
3.4592
 30
0.0
 10
-7.0151
 20
3.5381
 30
0.0
 10
-6.8001
 20
3.7771
 30
0.0
 10
-6.8001
 20
3.7771
 30
0.0
 10
-6.2934
 20
4.3402
 30
0.0
 10
-6.5425
 20
5.2596
 30
0.0
 10
-7.2607
 20
5.4925
 30
0.0
 10
-7.2607
 20
5.4925
 30
0.0
 10
-7.5576
 20
5.5887
 30
0.0
 10
-7.9571
 20
5.544
 30
0.0
 10
-8.2387
 20
5.544
 30
0.0
  0
SPLINE
  5
AC
330
1F
100
AcDbEntity
  8
DEFAULT_3
100
AcDbSpline
210
0.0
220
0.0
230
1.0
 70
     8
 71
     3
 72
    16
 73
    12
 74
     0
 42
0.0000000001
 43
0.0000000001
 40
0.0
 40
0.0
 40
0.0
 40
0.0
 40
0.25
 40
0.25
 40
0.25
 40
0.25
 40
0.5
 40
0.5
 40
0.5
 40
0.5
 40
1.0
 40
1.0
 40
1.0
 40
1.0
 10
-8.2387
 20
5.544
 30
0.0
 10
-8.2387
 20
5.544
 30
0.0
 10
-20.618
 20
5.544
 30
0.0
 10
-20.618
 20
5.544
 30
0.0
 10
-20.618
 20
5.544
 30
0.0
 10
-20.618
 20
5.544
 30
0.0
 10
-21.2695
 20
5.544
 30
0.0
 10
-21.2695
 20
5.544
 30
0.0
 10
-21.2695
 20
5.544
 30
0.0
 10
-21.2695
 20
5.544
 30
0.0
 10
-21.4907
 20
5.5207
 30
0.0
 10
-21.4907
 20
5.5207
 30
0.0
  0
SPLINE
  5
AD
330
1F
100
AcDbEntity
  8
DEFAULT_3
100
AcDbSpline
210
0.0
220
0.0
230
1.0
 70
     8
 71
     3
 72
    16
 73
    12
 74
     0
 42
0.0000000001
 43
0.0000000001
 40
0.0
 40
0.0
 40
0.0
 40
0.0
 40
0.25
 40
0.25
 40
0.25
 40
0.25
 40
0.5
 40
0.5
 40
0.5
 40
0.5
 40
1.0
 40
1.0
 40
1.0
 40
1.0
 10
-21.4907
 20
5.5207
 30
0.0
 10
-21.8569
 20
5.4427
 30
0.0
 10
-22.1609
 20
5.1683
 30
0.0
 10
-22.2765
 20
4.8124
 30
0.0
 10
-22.2765
 20
4.8124
 30
0.0
 10
-22.3248
 20
4.6639
 30
0.0
 10
-22.3215
 20
4.6175
 30
0.0
 10
-22.3282
 20
4.4853
 30
0.0
 10
-22.3282
 20
4.4853
 30
0.0
 10
-22.3034
 20
4.0092
 30
0.0
 10
-21.993
 20
3.5293
 30
0.0
 10
-21.4894
 20
3.4497
 30
0.0
  0
SPLINE
  5
AE
330
1F
100
AcDbEntity
  8
DEFAULT_3
100
AcDbSpline
210
0.0
220
0.0
230
1.0
 70
     8
 71
     3
 72
    24
 73
    20
 74
     0
 42
0.0000000001
 43
0.0000000001
 40
0.0
 40
0.0
 40
0.0
 40
0.0
 40
0.1666666666666667
 40
0.1666666666666667
 40
0.1666666666666667
 40
0.1666666666666667
 40
0.3333333333333333
 40
0.3333333333333333
 40
0.3333333333333333
 40
0.3333333333333333
 40
0.5
 40
0.5
 40
0.5
 40
0.5
 40
0.6666666666666666
 40
0.6666666666666666
 40
0.6666666666666666
 40
0.6666666666666666
 40
1.0
 40
1.0
 40
1.0
 40
1.0
 10
-21.4894
 20
3.4497
 30
0.0
 10
-21.4894
 20
3.4497
 30
0.0
 10
-21.2695
 20
3.4266
 30
0.0
 10
-21.2695
 20
3.4266
 30
0.0
 10
-21.2695
 20
3.4266
 30
0.0
 10
-21.2695
 20
3.4266
 30
0.0
 10
-20.618
 20
3.4266
 30
0.0
 10
-20.618
 20
3.4266
 30
0.0
 10
-20.618
 20
3.4266
 30
0.0
 10
-20.618
 20
3.4266
 30
0.0
 10
-8.2387
 20
3.4266
 30
0.0
 10
-8.2387
 20
3.4266
 30
0.0
 10
-8.2387
 20
3.4266
 30
0.0
 10
-8.2387
 20
3.4266
 30
0.0
 10
-7.587
 20
3.4266
 30
0.0
 10
-7.587
 20
3.4266
 30
0.0
 10
-7.587
 20
3.4266
 30
0.0
 10
-7.587
 20
3.4266
 30
0.0
 10
-7.4774
 20
3.4322
 30
0.0
 10
-7.4774
 20
3.4322
 30
0.0
  0
SPLINE
  5
AF
330
1F
100
AcDbEntity
  8
DEFAULT_3
100
AcDbSpline
210
0.0
220
0.0
230
1.0
 70
     8
 71
     3
 72
    16
 73
    12
 74
     0
 42
0.0000000001
 43
0.0000000001
 40
0.0
 40
0.0
 40
0.0
 40
0.0
 40
0.25
 40
0.25
 40
0.25
 40
0.25
 40
0.5
 40
0.5
 40
0.5
 40
0.5
 40
1.0
 40
1.0
 40
1.0
 40
1.0
 10
-7.3659
 20
8.0109
 30
0.0
 10
-7.1442
 20
8.0832
 30
0.0
 10
-6.9605
 20
8.1596
 30
0.0
 10
-6.8001
 20
8.3381
 30
0.0
 10
-6.8001
 20
8.3381
 30
0.0
 10
-6.3645
 20
8.8221
 30
0.0
 10
-6.4846
 20
9.514
 30
0.0
 10
-6.9649
 20
9.9028
 30
0.0
 10
-6.9649
 20
9.9028
 30
0.0
 10
-7.3107
 20
10.1826
 30
0.0
 10
-7.8427
 20
10.1049
 30
0.0
 10
-8.2387
 20
10.1049
 30
0.0
  0
SPLINE
  5
B0
330
1F
100
AcDbEntity
  8
DEFAULT_3
100
AcDbSpline
210
0.0
220
0.0
230
1.0
 70
     8
 71
     3
 72
    16
 73
    12
 74
     0
 42
0.0000000001
 43
0.0000000001
 40
0.0
 40
0.0
 40
0.0
 40
0.0
 40
0.25
 40
0.25
 40
0.25
 40
0.25
 40
0.5
 40
0.5
 40
0.5
 40
0.5
 40
1.0
 40
1.0
 40
1.0
 40
1.0
 10
-8.2387
 20
10.1049
 30
0.0
 10
-8.2387
 20
10.1049
 30
0.0
 10
-20.618
 20
10.1049
 30
0.0
 10
-20.618
 20
10.1049
 30
0.0
 10
-20.618
 20
10.1049
 30
0.0
 10
-20.618
 20
10.1049
 30
0.0
 10
-21.2695
 20
10.1049
 30
0.0
 10
-21.2695
 20
10.1049
 30
0.0
 10
-21.2695
 20
10.1049
 30
0.0
 10
-21.2695
 20
10.1049
 30
0.0
 10
-21.4907
 20
10.0814
 30
0.0
 10
-21.4907
 20
10.0814
 30
0.0
  0
SPLINE
  5
B1
330
1F
100
AcDbEntity
  8
DEFAULT_3
100
AcDbSpline
210
0.0
220
0.0
230
1.0
 70
     8
 71
     3
 72
    16
 73
    12
 74
     0
 42
0.0000000001
 43
0.0000000001
 40
0.0
 40
0.0
 40
0.0
 40
0.0
 40
0.25
 40
0.25
 40
0.25
 40
0.25
 40
0.5
 40
0.5
 40
0.5
 40
0.5
 40
1.0
 40
1.0
 40
1.0
 40
1.0
 10
-21.4907
 20
10.0814
 30
0.0
 10
-21.8569
 20
10.0035
 30
0.0
 10
-22.1609
 20
9.7292
 30
0.0
 10
-22.2765
 20
9.3731
 30
0.0
 10
-22.2765
 20
9.3731
 30
0.0
 10
-22.3248
 20
9.2248
 30
0.0
 10
-22.3215
 20
9.1784
 30
0.0
 10
-22.3282
 20
9.0462
 30
0.0
 10
-22.3282
 20
9.0462
 30
0.0
 10
-22.3034
 20
8.5701
 30
0.0
 10
-21.993
 20
8.0901
 30
0.0
 10
-21.4894
 20
8.0104
 30
0.0
  0
SPLINE
  5
B2
330
1F
100
AcDbEntity
  8
DEFAULT_3
100
AcDbSpline
210
0.0
220
0.0
230
1.0
 70
     8
 71
     3
 72
    24
 73
    20
 74
     0
 42
0.0000000001
 43
0.0000000001
 40
0.0
 40
0.0
 40
0.0
 40
0.0
 40
0.1666666666666667
 40
0.1666666666666667
 40
0.1666666666666667
 40
0.1666666666666667
 40
0.3333333333333333
 40
0.3333333333333333
 40
0.3333333333333333
 40
0.3333333333333333
 40
0.5
 40
0.5
 40
0.5
 40
0.5
 40
0.6666666666666666
 40
0.6666666666666666
 40
0.6666666666666666
 40
0.6666666666666666
 40
1.0
 40
1.0
 40
1.0
 40
1.0
 10
-21.4894
 20
8.0104
 30
0.0
 10
-21.4894
 20
8.0104
 30
0.0
 10
-21.2695
 20
7.9873
 30
0.0
 10
-21.2695
 20
7.9873
 30
0.0
 10
-21.2695
 20
7.9873
 30
0.0
 10
-21.2695
 20
7.9873
 30
0.0
 10
-20.618
 20
7.9873
 30
0.0
 10
-20.618
 20
7.9873
 30
0.0
 10
-20.618
 20
7.9873
 30
0.0
 10
-20.618
 20
7.9873
 30
0.0
 10
-8.2387
 20
7.9873
 30
0.0
 10
-8.2387
 20
7.9873
 30
0.0
 10
-8.2387
 20
7.9873
 30
0.0
 10
-8.2387
 20
7.9873
 30
0.0
 10
-7.587
 20
7.9873
 30
0.0
 10
-7.587
 20
7.9873
 30
0.0
 10
-7.587
 20
7.9873
 30
0.0
 10
-7.587
 20
7.9873
 30
0.0
 10
-7.4774
 20
7.9932
 30
0.0
 10
-7.4774
 20
7.9932
 30
0.0
  0
SPLINE
  5
B3
330
1F
100
AcDbEntity
  8
DEFAULT_3
100
AcDbSpline
210
0.0
220
0.0
230
1.0
 70
     8
 71
     3
 72
    16
 73
    12
 74
     0
 42
0.0000000001
 43
0.0000000001
 40
0.0
 40
0.0
 40
0.0
 40
0.0
 40
0.25
 40
0.25
 40
0.25
 40
0.25
 40
0.5
 40
0.5
 40
0.5
 40
0.5
 40
1.0
 40
1.0
 40
1.0
 40
1.0
 10
-7.3659
 20
12.5716
 30
0.0
 10
-7.1442
 20
12.6439
 30
0.0
 10
-6.9605
 20
12.7203
 30
0.0
 10
-6.8001
 20
12.8988
 30
0.0
 10
-6.8001
 20
12.8988
 30
0.0
 10
-6.3645
 20
13.3831
 30
0.0
 10
-6.4846
 20
14.0749
 30
0.0
 10
-6.9649
 20
14.4636
 30
0.0
 10
-6.9649
 20
14.4636
 30
0.0
 10
-7.3107
 20
14.7436
 30
0.0
 10
-7.8427
 20
14.6656
 30
0.0
 10
-8.2387
 20
14.6656
 30
0.0
  0
SPLINE
  5
B4
330
1F
100
AcDbEntity
  8
DEFAULT_3
100
AcDbSpline
210
0.0
220
0.0
230
1.0
 70
     8
 71
     3
 72
    16
 73
    12
 74
     0
 42
0.0000000001
 43
0.0000000001
 40
0.0
 40
0.0
 40
0.0
 40
0.0
 40
0.25
 40
0.25
 40
0.25
 40
0.25
 40
0.5
 40
0.5
 40
0.5
 40
0.5
 40
1.0
 40
1.0
 40
1.0
 40
1.0
 10
-8.2387
 20
14.6656
 30
0.0
 10
-8.2387
 20
14.6656
 30
0.0
 10
-20.618
 20
14.6656
 30
0.0
 10
-20.618
 20
14.6656
 30
0.0
 10
-20.618
 20
14.6656
 30
0.0
 10
-20.618
 20
14.6656
 30
0.0
 10
-21.2695
 20
14.6656
 30
0.0
 10
-21.2695
 20
14.6656
 30
0.0
 10
-21.2695
 20
14.6656
 30
0.0
 10
-21.2695
 20
14.6656
 30
0.0
 10
-21.4907
 20
14.6423
 30
0.0
 10
-21.4907
 20
14.6423
 30
0.0
  0
SPLINE
  5
B5
330
1F
100
AcDbEntity
  8
DEFAULT_3
100
AcDbSpline
210
0.0
220
0.0
230
1.0
 70
     8
 71
     3
 72
    16
 73
    12
 74
     0
 42
0.0000000001
 43
0.0000000001
 40
0.0
 40
0.0
 40
0.0
 40
0.0
 40
0.25
 40
0.25
 40
0.25
 40
0.25
 40
0.5
 40
0.5
 40
0.5
 40
0.5
 40
1.0
 40
1.0
 40
1.0
 40
1.0
 10
-21.4907
 20
14.6423
 30
0.0
 10
-21.8569
 20
14.5644
 30
0.0
 10
-22.1609
 20
14.2899
 30
0.0
 10
-22.2765
 20
13.934
 30
0.0
 10
-22.2765
 20
13.934
 30
0.0
 10
-22.3248
 20
13.7855
 30
0.0
 10
-22.3215
 20
13.7391
 30
0.0
 10
-22.3282
 20
13.6069
 30
0.0
 10
-22.3282
 20
13.6069
 30
0.0
 10
-22.3034
 20
13.131
 30
0.0
 10
-21.993
 20
12.651
 30
0.0
 10
-21.4894
 20
12.5713
 30
0.0
  0
SPLINE
  5
B6
330
1F
100
AcDbEntity
  8
DEFAULT_3
100
AcDbSpline
210
0.0
220
0.0
230
1.0
 70
     8
 71
     3
 72
    16
 73
    12
 74
     0
 42
0.0000000001
 43
0.0000000001
 40
0.0
 40
0.0
 40
0.0
 40
0.0
 40
0.25
 40
0.25
 40
0.25
 40
0.25
 40
0.5
 40
0.5
 40
0.5
 40
0.5
 40
1.0
 40
1.0
 40
1.0
 40
1.0
 10
-21.4894
 20
12.5713
 30
0.0
 10
-21.4894
 20
12.5713
 30
0.0
 10
-21.2695
 20
12.5482
 30
0.0
 10
-21.2695
 20
12.5482
 30
0.0
 10
-21.2695
 20
12.5482
 30
0.0
 10
-21.2695
 20
12.5482
 30
0.0
 10
-20.618
 20
12.5482
 30
0.0
 10
-20.618
 20
12.5482
 30
0.0
 10
-20.618
 20
12.5482
 30
0.0
 10
-20.618
 20
12.5482
 30
0.0
 10
-8.2387
 20
12.5482
 30
0.0
 10
-8.2387
 20
12.5482
 30
0.0
  0
SPLINE
  5
B7
330
1F
100
AcDbEntity
  8
DEFAULT_3
100
AcDbSpline
210
0.0
220
0.0
230
1.0
 70
     8
 71
     3
 72
     8
 73
     4
 74
     0
 42
0.0000000001
 43
0.0000000001
 40
0.0
 40
0.0
 40
0.0
 40
0.0
 40
1.0
 40
1.0
 40
1.0
 40
1.0
 10
-8.2387
 20
12.5482
 30
0.0
 10
-7.9095
 20
12.5482
 30
0.0
 10
-7.5803
 20
12.5145
 30
0.0
 10
-7.2607
 20
12.5997
 30
0.0
  0
ENDSEC
  0
SECTION
  2
OBJECTS
  0
DICTIONARY
  5
C
330
0
100
AcDbDictionary
  3
ACAD_GROUP
350
D
  3
ACAD_LAYOUT
350
1A
  3
ACAD_MATERIAL
350
3B
  3
ACAD_MLEADERSTYLE
350
DA
  3
ACAD_MLINESTYLE
350
17
  3
ACAD_PLOTSETTINGS
350
19
  3
ACAD_VISUALSTYLE
350
2A
  3
ACDBHEADERROUNDTRIPXREC
350
B8
  3
ACDBVARIABLEDICTIONARY
350
D8
  0
DICTIONARY
  5
D
102
{ACAD_REACTORS
330
C
102
}
330
C
100
AcDbDictionary
  0
DICTIONARY
  5
1A
102
{ACAD_REACTORS
330
C
102
}
330
C
100
AcDbDictionary
  0
DICTIONARY
  5
3B
102
{ACAD_REACTORS
330
C
102
}
330
C
100
AcDbDictionary
  3
BYBLOCK
350
3D
  3
BYLAYER
350
3C
  3
GLOBAL
350
3E
  0
DICTIONARY
  5
DA
102
{ACAD_REACTORS
330
C
102
}
330
C
100
AcDbDictionary
  0
DICTIONARY
  5
17
102
{ACAD_REACTORS
330
C
102
}
330
C
100
AcDbDictionary
  3
STANDARD
350
18
  0
DICTIONARY
  5
19
102
{ACAD_REACTORS
330
C
102
}
330
C
100
AcDbDictionary
  0
DICTIONARY
  5
2A
102
{ACAD_REACTORS
330
C
102
}
330
C
100
AcDbDictionary
  3
2DWIREFRAME
350
2F
  3
3D_HIDDEN
350
31
  3
3DWIREFRAME
350
30
  3
BASIC
350
32
  3
BRIGHTEN
350
36
  3
COLORCHANGE
350
3A
  3
CONCEPTUAL
350
34
  3
DIM
350
35
  3
FACEPATTERN
350
39
  3
FLAT
350
2B
  3
FLATWITHEDGES
350
2C
  3
GOURAUD
350
2D
  3
GOURAUDWITHEDGES
350
2E
  3
LINEPATTERN
350
38
  3
REALISTIC
350
33
  3
THICKEN
350
37
  0
DICTIONARY
  5
B8
102
{ACAD_REACTORS
330
C
102
}
330
C
100
AcDbDictionary
  3
CEPSNTYPE
350
C1
  3
DIMSTYLEDATA
350
D7
  3
FINGERPRINTGUID
350
C2
  3
HYPERLINKBASE
350
BB
  3
INSUNITS
350
C0
  3
LAYOUTDICT
350
BD
  3
LWETCUNION
350
BF
  3
PLOTSETDICT
350
BE
  3
PSVPSCALE
350
C4
  3
PUCSBASE
350
C7
  3
PUCSORGBACK
350
CD
  3
PUCSORGBOTTOM
350
C9
  3
PUCSORGFRONT
350
CC
  3
PUCSORGLEFT
350
CA
  3
PUCSORGRIGHT
350
CB
  3
PUCSORGTOP
350
C8
  3
PUCSORTHOREF
350
C5
  3
PUCSORTHOVIEW
350
C6
  3
STYLESHEET
350
BC
  3
TSTACKALIGN
350
B9
  3
TSTACKSIZE
350
BA
  3
UCSBASE
350
D0
  3
UCSORGBACK
350
D6
  3
UCSORGBOTTOM
350
D2
  3
UCSORGFRONT
350
D5
  3
UCSORGLEFT
350
D3
  3
UCSORGRIGHT
350
D4
  3
UCSORGTOP
350
D1
  3
UCSORTHOREF
350
CE
  3
UCSORTHOVIEW
350
CF
  3
VERSIONGUID
350
C3
  0
DICTIONARY
  5
D8
102
{ACAD_REACTORS
330
C
102
}
330
C
100
AcDbDictionary
  3
DIMASSOC
350
DB
  3
HIDETEXT
350
DC
  0
MATERIAL
  5
3D
102
{ACAD_REACTORS
330
3B
102
}
102
{ACAD_XDICTIONARY
360
DF
102
}
330
3B
100
AcDbMaterial
  1
ByBlock
  0
MATERIAL
  5
3C
102
{ACAD_REACTORS
330
3B
102
}
102
{ACAD_XDICTIONARY
360
DD
102
}
330
3B
100
AcDbMaterial
  1
ByLayer
  0
MATERIAL
  5
3E
102
{ACAD_REACTORS
330
3B
102
}
102
{ACAD_XDICTIONARY
360
E1
102
}
330
3B
100
AcDbMaterial
  1
Global
  0
MLINESTYLE
  5
18
102
{ACAD_REACTORS
330
17
102
}
330
17
100
AcDbMlineStyle
  2
Standard
 70
     0
  3

 62
   256
 51
90.0
 52
90.0
 71
     2
 49
0.5
 62
   256
  6
BYLAYER
 49
-0.5
 62
   256
  6
BYLAYER
  0
ACAD_PROXY_OBJECT
  5
2F
102
{ACAD_REACTORS
330
2A
102
}
330
2A
100
AcDbProxyObject
 90
      499
 91
      501
 93
      436
310
42CC9915DA5C99599C985B595049028333333333333E3BF0000000000000FB0107901411070040501600405405064090741402480A0340
1001
ACAD
1000
AcDbSavedByObjectVersion
1070
     0
  0
ACAD_PROXY_OBJECT
  5
31
102
{ACAD_REACTORS
330
2A
102
}
330
2A
100
AcDbProxyObject
 90
      499
 91
      501
 93
      500
310
424CD108121A5919195B90640502408333333333333E3BF0000000000000FB01079024090700405020000000000001110200405405064090740C02480A0340
1001
ACAD
1000
AcDbSavedByObjectVersion
1070
     0
  0
ACAD_PROXY_OBJECT
  5
30
102
{ACAD_REACTORS
330
2A
102
}
330
2A
100
AcDbProxyObject
 90
      499
 91
      501
 93
      436
310
42CCD915DA5C99599C985B595059028333333333333E3BF0000000000000FB0107901411070040501600405405064090741402480A0340
1001
ACAD
1000
AcDbSavedByObjectVersion
1070
     0
  0
ACAD_PROXY_OBJECT
  5
32
102
{ACAD_REACTORS
330
2A
102
}
330
2A
100
AcDbProxyObject
 90
      499
 91
      501
 93
      388
310
4150985CDA58D07406404333333333333E3BF0000000000000FB0107A41107004050150841D405064090741402480A0350
1001
ACAD
1000
AcDbSavedByObjectVersion
1070
     0
  0
ACAD_PROXY_OBJECT
  5
36
102
{ACAD_REACTORS
330
2A
102
}
330
2A
100
AcDbProxyObject
 90
      499
 91
      501
 93
      428
310
42109C9A59DA1D195B90C409028333333333333E3BF0000000000000FB010790141107004050150841D405064090741402480A029950
1001
ACAD
1000
AcDbSavedByObjectVersion
1070
     0
  0
ACAD_PROXY_OBJECT
  5
3A
102
{ACAD_REACTORS
330
2A
102
}
330
2A
100
AcDbProxyObject
 90
      499
 91
      501
 93
      452
310
42D0DBDB1BDC90DA185B99D95104090240C333333333333E3BF0000000000000FB0108901411070040501508421405064090741402480A0350
1001
ACAD
1000
AcDbSavedByObjectVersion
1070
     0
  0
ACAD_PROXY_OBJECT
  5
34
102
{ACAD_REACTORS
330
2A
102
}
330
2A
100
AcDbProxyObject
 90
      499
 91
      501
 93
      500
310
4290DBDB98D95C1D1D585B10940D028333333333333E3BF0000000000000FB0107902409070040501000000000000111010841D405064090740C02480A0340
1001
ACAD
1000
AcDbSavedByObjectVersion
1070
     0
  0
ACAD_PROXY_OBJECT
  5
35
102
{ACAD_REACTORS
330
2A
102
}
330
2A
100
AcDbProxyObject
 90
      499
 91
      501
 93
      412
310
40D11A5B50B409028333333333333E3BF0000000000000FB010790141107004050150841D405064090741402480A02677FFFFFD0
1001
ACAD
1000
AcDbSavedByObjectVersion
1070
     0
  0
ACAD_PROXY_OBJECT
  5
39
102
{ACAD_REACTORS
330
2A
102
}
330
2A
100
AcDbProxyObject
 90
      499
 91
      501
 93
      444
310
42D19858D95C185D1D195C9B90F409028333333333333E3BF0000000000000FB010790141107004050150841D405064090741402480A0350
1001
ACAD
1000
AcDbSavedByObjectVersion
1070
     0
  0
ACAD_PROXY_OBJECT
  5
2B
102
{ACAD_REACTORS
330
2A
102
}
330
2A
100
AcDbProxyObject
 90
      499
 91
      501
 93
      388
310
41119B185D240901404333333333333E3BF0000000000000F9010740A41107004050150841D405064090741402480A1B50
1001
ACAD
1000
AcDbSavedByObjectVersion
1070
     0
  0
ACAD_PROXY_OBJECT
  5
2C
102
{ACAD_REACTORS
330
2A
102
}
330
2A
100
AcDbProxyObject
 90
      499
 91
      501
 93
      476
310
43519B185D15DA5D1A115919D95CD0140901404333333333333E3BF0000000000000F9010740901411070040501600405405064090741402480A1B50
1001
ACAD
1000
AcDbSavedByObjectVersion
1070
     0
  0
ACAD_PROXY_OBJECT
  5
2D
102
{ACAD_REACTORS
330
2A
102
}
330
2A
100
AcDbProxyObject
 90
      499
 91
      501
 93
      412
310
41D1DBDD5C985D5910240902404333333333333E3BF0000000000000F9010740A411070040501641D405064090741402480A1B50
1001
ACAD
1000
AcDbSavedByObjectVersion
1070
     0
  0
ACAD_PROXY_OBJECT
  5
2E
102
{ACAD_REACTORS
330
2A
102
}
330
2A
100
AcDbProxyObject
 90
      499
 91
      501
 93
      500
310
4411DBDD5C985D5915DA5D1A115919D95CD0340902404333333333333E3BF0000000000000F9010740901411070040501600405405064090741402480A1B50
1001
ACAD
1000
AcDbSavedByObjectVersion
1070
     0
  0
ACAD_PROXY_OBJECT
  5
38
102
{ACAD_REACTORS
330
2A
102
}
330
2A
100
AcDbProxyObject
 90
      499
 91
      501
 93
      444
310
42D31A5B995C185D1D195C9B90E409028333333333333E3BF0000000000000FB010790141107004050750841D405064090741402483A0350
1001
ACAD
1000
AcDbSavedByObjectVersion
1070
     0
  0
ACAD_PROXY_OBJECT
  5
33
102
{ACAD_REACTORS
330
2A
102
}
330
2A
100
AcDbProxyObject
 90
      499
 91
      501
 93
      420
310
425499585B1A5CDD1A58D08409028333333333333E3BF0000000000000FB01079019070040501508421405064090741402480A1B40
1001
ACAD
1000
AcDbSavedByObjectVersion
1070
     0
  0
ACAD_PROXY_OBJECT
  5
37
102
{ACAD_REACTORS
330
2A
102
}
330
2A
100
AcDbProxyObject
 90
      499
 91
      501
 93
      412
310
41D51A1A58DAD95B90D409028333333333333E3BF0000000000000FB010790141107004050150C41D405064090741402480A0350
1001
ACAD
1000
AcDbSavedByObjectVersion
1070
     0
  0
XRECORD
  5
C1
102
{ACAD_REACTORS
330
B8
102
}
330
B8
100
AcDbXrecord
 90
        0
  0
XRECORD
  5
D7
102
{ACAD_REACTORS
330
B8
102
}
330
B8
100
AcDbXrecord
1000
DSTYLE
1002
{
1070
   340
340
11
1002
}
  0
XRECORD
  5
C2
102
{ACAD_REACTORS
330
B8
102
}
330
B8
100
AcDbXrecord
  1
{C24E9062-CEBA-4AEA-9A66-D8776B0807D4}
  0
XRECORD
  5
BB
102
{ACAD_REACTORS
330
B8
102
}
330
B8
100
AcDbXrecord
  1

  0
XRECORD
  5
C0
102
{ACAD_REACTORS
330
B8
102
}
330
B8
100
AcDbXrecord
 90
        4
  0
XRECORD
  5
BD
102
{ACAD_REACTORS
330
B8
102
}
330
B8
100
AcDbXrecord
340
1A
  0
XRECORD
  5
BF
102
{ACAD_REACTORS
330
B8
102
}
330
B8
100
AcDbXrecord
 90
    10781
  0
XRECORD
  5
BE
102
{ACAD_REACTORS
330
B8
102
}
330
B8
100
AcDbXrecord
340
19
  0
XRECORD
  5
C4
102
{ACAD_REACTORS
330
B8
102
}
330
B8
100
AcDbXrecord
 40
0.0
  0
XRECORD
  5
C7
102
{ACAD_REACTORS
330
B8
102
}
330
B8
100
AcDbXrecord
340
0
  0
XRECORD
  5
CD
102
{ACAD_REACTORS
330
B8
102
}
330
B8
100
AcDbXrecord
 10
0.0
 20
0.0
 30
0.0
  0
XRECORD
  5
C9
102
{ACAD_REACTORS
330
B8
102
}
330
B8
100
AcDbXrecord
 10
0.0
 20
0.0
 30
0.0
  0
XRECORD
  5
CC
102
{ACAD_REACTORS
330
B8
102
}
330
B8
100
AcDbXrecord
 10
0.0
 20
0.0
 30
0.0
  0
XRECORD
  5
CA
102
{ACAD_REACTORS
330
B8
102
}
330
B8
100
AcDbXrecord
 10
0.0
 20
0.0
 30
0.0
  0
XRECORD
  5
CB
102
{ACAD_REACTORS
330
B8
102
}
330
B8
100
AcDbXrecord
 10
0.0
 20
0.0
 30
0.0
  0
XRECORD
  5
C8
102
{ACAD_REACTORS
330
B8
102
}
330
B8
100
AcDbXrecord
 10
0.0
 20
0.0
 30
0.0
  0
XRECORD
  5
C5
102
{ACAD_REACTORS
330
B8
102
}
330
B8
100
AcDbXrecord
340
0
  0
XRECORD
  5
C6
102
{ACAD_REACTORS
330
B8
102
}
330
B8
100
AcDbXrecord
 70
     0
  0
XRECORD
  5
BC
102
{ACAD_REACTORS
330
B8
102
}
330
B8
100
AcDbXrecord
  1

  0
XRECORD
  5
B9
102
{ACAD_REACTORS
330
B8
102
}
330
B8
100
AcDbXrecord
 90
        1
  0
XRECORD
  5
BA
102
{ACAD_REACTORS
330
B8
102
}
330
B8
100
AcDbXrecord
 90
       70
  0
XRECORD
  5
D0
102
{ACAD_REACTORS
330
B8
102
}
330
B8
100
AcDbXrecord
340
0
  0
XRECORD
  5
D6
102
{ACAD_REACTORS
330
B8
102
}
330
B8
100
AcDbXrecord
 10
0.0
 20
0.0
 30
0.0
  0
XRECORD
  5
D2
102
{ACAD_REACTORS
330
B8
102
}
330
B8
100
AcDbXrecord
 10
0.0
 20
0.0
 30
0.0
  0
XRECORD
  5
D5
102
{ACAD_REACTORS
330
B8
102
}
330
B8
100
AcDbXrecord
 10
0.0
 20
0.0
 30
0.0
  0
XRECORD
  5
D3
102
{ACAD_REACTORS
330
B8
102
}
330
B8
100
AcDbXrecord
 10
0.0
 20
0.0
 30
0.0
  0
XRECORD
  5
D4
102
{ACAD_REACTORS
330
B8
102
}
330
B8
100
AcDbXrecord
 10
0.0
 20
0.0
 30
0.0
  0
XRECORD
  5
D1
102
{ACAD_REACTORS
330
B8
102
}
330
B8
100
AcDbXrecord
 10
0.0
 20
0.0
 30
0.0
  0
XRECORD
  5
CE
102
{ACAD_REACTORS
330
B8
102
}
330
B8
100
AcDbXrecord
340
0
  0
XRECORD
  5
CF
102
{ACAD_REACTORS
330
B8
102
}
330
B8
100
AcDbXrecord
 70
     0
  0
XRECORD
  5
C3
102
{ACAD_REACTORS
330
B8
102
}
330
B8
100
AcDbXrecord
  1
{FAEB1C32-E019-11D5-929B-00C0DF256EC4}
  0
DICTIONARYVAR
  5
DB
102
{ACAD_REACTORS
330
D8
102
}
330
D8
100
DictionaryVariables
280
     0
  1
2
  0
DICTIONARYVAR
  5
DC
102
{ACAD_REACTORS
330
D8
102
}
330
D8
100
DictionaryVariables
280
     0
  1
1
  0
DICTIONARY
  5
DF
330
3D
100
AcDbDictionary
280
     1
  3
ACAD_XREC_ROUNDTRIP
360
E0
  0
DICTIONARY
  5
DD
330
3C
100
AcDbDictionary
280
     1
  3
ACAD_XREC_ROUNDTRIP
360
DE
  0
DICTIONARY
  5
E1
330
3E
100
AcDbDictionary
280
     1
  3
ACAD_XREC_ROUNDTRIP
360
E2
  0
XRECORD
  5
E0
102
{ACAD_REACTORS
330
DF
102
}
330
DF
100
AcDbXrecord
102
MATERIAL
148
0.0
149
0.0
149
0.0
 93
        0
 94
      127
282
     0
 72
     1
 77
     1
171
     1
175
     1
179
     1
273
     0
  0
XRECORD
  5
DE
102
{ACAD_REACTORS
330
DD
102
}
330
DD
100
AcDbXrecord
102
MATERIAL
148
0.0
149
0.0
149
0.0
 93
        0
 94
      127
282
     0
 72
     1
 77
     1
171
     1
175
     1
179
     1
273
     0
  0
XRECORD
  5
E2
102
{ACAD_REACTORS
330
E1
102
}
330
E1
100
AcDbXrecord
102
MATERIAL
148
0.0
149
0.0
149
0.0
 93
        0
 94
      127
282
     0
 72
     1
 77
     1
171
     1
175
     1
179
     1
273
     0
  0
ENDSEC
  0
EOF
