  0
SECTION
  2
HEADER
  9
$ACADVER
  1
AC1014
  9
$ACADMAINTVER
 70
     9
  9
$DWGCODEPAGE
  3
ANSI_1250
  9
$INSBASE
 10
0.0
 20
0.0
 30
0.0
  9
$EXTMIN
 10
-50.8542
 20
-34.1134
 30
0.0
  9
$EXTMAX
 10
50.8051
 20
34.0162
 30
0.0
  9
$LIMMIN
 10
0.0
 20
0.0
  9
$LIMMAX
 10
12.0
 20
9.0
  9
$ORTHOMODE
 70
     0
  9
$REGENMODE
 70
     1
  9
$FILLMODE
 70
     1
  9
$QTEXTMODE
 70
     0
  9
$MIRRTEXT
 70
     1
  9
$DRAGMODE
 70
     2
  9
$LTSCALE
 40
1.0
  9
$OSMODE
 70
    37
  9
$ATTMODE
 70
     1
  9
$TEXTSIZE
 40
0.2
  9
$TRACEWID
 40
0.05
  9
$TEXTSTYLE
  7
STANDARD
  9
$CLAYER
  8
0
  9
$CELTYPE
  6
BYLAYER
  9
$CECOLOR
 62
   256
  9
$CELTSCALE
 40
1.0
  9
$DELOBJ
 70
     1
  9
$DISPSILH
 70
     0
  9
$DIMSCALE
 40
1.0
  9
$DIMASZ
 40
0.18
  9
$DIMEXO
 40
0.0625
  9
$DIMDLI
 40
0.38
  9
$DIMRND
 40
0.0
  9
$DIMDLE
 40
0.0
  9
$DIMEXE
 40
0.18
  9
$DIMTP
 40
0.0
  9
$DIMTM
 40
0.0
  9
$DIMTXT
 40
0.18
  9
$DIMCEN
 40
0.09
  9
$DIMTSZ
 40
0.0
  9
$DIMTOL
 70
     0
  9
$DIMLIM
 70
     0
  9
$DIMTIH
 70
     1
  9
$DIMTOH
 70
     1
  9
$DIMSE1
 70
     0
  9
$DIMSE2
 70
     0
  9
$DIMTAD
 70
     0
  9
$DIMZIN
 70
     0
  9
$DIMBLK
  1

  9
$DIMASO
 70
     1
  9
$DIMSHO
 70
     1
  9
$DIMPOST
  1

  9
$DIMAPOST
  1

  9
$DIMALT
 70
     0
  9
$DIMALTD
 70
     2
  9
$DIMALTF
 40
25.4
  9
$DIMLFAC
 40
1.0
  9
$DIMTOFL
 70
     0
  9
$DIMTVP
 40
0.0
  9
$DIMTIX
 70
     0
  9
$DIMSOXD
 70
     0
  9
$DIMSAH
 70
     0
  9
$DIMBLK1
  1

  9
$DIMBLK2
  1

  9
$DIMSTYLE
  2
STANDARD
  9
$DIMCLRD
 70
     0
  9
$DIMCLRE
 70
     0
  9
$DIMCLRT
 70
     0
  9
$DIMTFAC
 40
1.0
  9
$DIMGAP
 40
0.09
  9
$DIMJUST
 70
     0
  9
$DIMSD1
 70
     0
  9
$DIMSD2
 70
     0
  9
$DIMTOLJ
 70
     1
  9
$DIMTZIN
 70
     0
  9
$DIMALTZ
 70
     0
  9
$DIMALTTZ
 70
     0
  9
$DIMFIT
 70
     3
  9
$DIMUPT
 70
     0
  9
$DIMUNIT
 70
     2
  9
$DIMDEC
 70
     4
  9
$DIMTDEC
 70
     4
  9
$DIMALTU
 70
     2
  9
$DIMALTTD
 70
     2
  9
$DIMTXSTY
  7
STANDARD
  9
$DIMAUNIT
 70
     0
  9
$LUNITS
 70
     2
  9
$LUPREC
 70
     4
  9
$SKETCHINC
 40
0.1
  9
$FILLETRAD
 40
0.5
  9
$AUNITS
 70
     0
  9
$AUPREC
 70
     0
  9
$MENU
  1
.
  9
$ELEVATION
 40
0.0
  9
$PELEVATION
 40
0.0
  9
$THICKNESS
 40
0.0
  9
$LIMCHECK
 70
     0
  9
$CHAMFERA
 40
0.5
  9
$CHAMFERB
 40
0.5
  9
$CHAMFERC
 40
1.0
  9
$CHAMFERD
 40
0.0
  9
$SKPOLY
 70
     0
  9
$TDCREATE
 40
2456268.552301759
  9
$TDUPDATE
 40
2456268.552301771
  9
$TDINDWG
 40
0.0000000116
  9
$TDUSRTIMER
 40
0.0000000116
  9
$USRTIMER
 70
     1
  9
$ANGBASE
 50
0.0
  9
$ANGDIR
 70
     0
  9
$PDMODE
 70
     0
  9
$PDSIZE
 40
0.0
  9
$PLINEWID
 40
0.0
  9
$COORDS
 70
     1
  9
$SPLFRAME
 70
     0
  9
$SPLINETYPE
 70
     6
  9
$SPLINESEGS
 70
     8
  9
$ATTDIA
 70
     0
  9
$ATTREQ
 70
     1
  9
$HANDLING
 70
     1
  9
$HANDSEED
  5
106
  9
$SURFTAB1
 70
     6
  9
$SURFTAB2
 70
     6
  9
$SURFTYPE
 70
     6
  9
$SURFU
 70
     6
  9
$SURFV
 70
     6
  9
$UCSNAME
  2

  9
$UCSORG
 10
0.0
 20
0.0
 30
0.0
  9
$UCSXDIR
 10
1.0
 20
0.0
 30
0.0
  9
$UCSYDIR
 10
0.0
 20
1.0
 30
0.0
  9
$PUCSNAME
  2

  9
$PUCSORG
 10
0.0
 20
0.0
 30
0.0
  9
$PUCSXDIR
 10
1.0
 20
0.0
 30
0.0
  9
$PUCSYDIR
 10
0.0
 20
1.0
 30
0.0
  9
$USERI1
 70
     0
  9
$USERI2
 70
     0
  9
$USERI3
 70
     0
  9
$USERI4
 70
     0
  9
$USERI5
 70
     0
  9
$USERR1
 40
0.0
  9
$USERR2
 40
0.0
  9
$USERR3
 40
0.0
  9
$USERR4
 40
0.0
  9
$USERR5
 40
0.0
  9
$WORLDVIEW
 70
     1
  9
$SHADEDGE
 70
     3
  9
$SHADEDIF
 70
    70
  9
$TILEMODE
 70
     1
  9
$MAXACTVP
 70
    64
  9
$PINSBASE
 10
0.0
 20
0.0
 30
0.0
  9
$PLIMCHECK
 70
     0
  9
$PEXTMIN
 10
1.000000000000000E+20
 20
1.000000000000000E+20
 30
1.000000000000000E+20
  9
$PEXTMAX
 10
-1.000000000000000E+20
 20
-1.000000000000000E+20
 30
-1.000000000000000E+20
  9
$PLIMMIN
 10
0.0
 20
0.0
  9
$PLIMMAX
 10
12.0
 20
9.0
  9
$UNITMODE
 70
     0
  9
$VISRETAIN
 70
     1
  9
$PLINEGEN
 70
     0
  9
$PSLTSCALE
 70
     1
  9
$TREEDEPTH
 70
  3020
  9
$PICKSTYLE
 70
     1
  9
$CMLSTYLE
  2
STANDARD
  9
$CMLJUST
 70
     0
  9
$CMLSCALE
 40
1.0
  9
$PROXYGRAPHICS
 70
     1
  9
$MEASUREMENT
 70
     0
  0
ENDSEC
  0
SECTION
  2
CLASSES
  0
CLASS
  1
ACDBDICTIONARYWDFLT
  2
AcDbDictionaryWithDefault
  3
ObjectDBX Classes
 90
        0
280
     0
281
     0
  0
CLASS
  1
VISUALSTYLE
  2
AcDbVisualStyle
  3
ObjectDBX Classes
 90
     4095
280
     0
281
     0
  0
CLASS
  1
MATERIAL
  2
AcDbMaterial
  3
ObjectDBX Classes
 90
     1153
280
     0
281
     0
  0
CLASS
  1
DICTIONARYVAR
  2
AcDbDictionaryVar
  3
ObjectDBX Classes
 90
        0
280
     0
281
     0
  0
CLASS
  1
XRECORD
  2
AcDbXrecord
  3
AutoCAD 2000
 90
        0
280
     0
281
     0
  0
CLASS
  1
LWPOLYLINE
  2
AcDbPolyline
  3
AutoCAD 2000
 90
        0
280
     0
281
     1
  0
CLASS
  1
HATCH
  2
AcDbHatch
  3
AutoCAD 2000
 90
        0
280
     0
281
     1
  0
CLASS
  1
ACDBPLACEHOLDER
  2
AcDbPlaceHolder
  3
ObjectDBX Classes
 90
        0
280
     0
281
     0
  0
CLASS
  1
LAYOUT
  2
AcDbLayout
  3
ObjectDBX Classes
 90
        0
280
     0
281
     0
  0
ENDSEC
  0
SECTION
  2
TABLES
  0
TABLE
  2
VPORT
  5
8
330
0
100
AcDbSymbolTable
 70
     1
  0
VPORT
  5
29
330
8
100
AcDbSymbolTableRecord
100
AcDbViewportTableRecord
  2
*ACTIVE
 70
     0
 10
0.0
 20
0.0
 11
1.0
 21
1.0
 12
10.42990654205607
 22
4.5
 13
0.0
 23
0.0
 14
0.5
 24
0.5
 15
0.5
 25
0.5
 16
0.0
 26
0.0
 36
1.0
 17
0.0
 27
0.0
 37
0.0
 40
9.0
 41
1.972972972850329
 42
50.0
 43
0.0
 44
0.0
 50
0.0
 51
0.0
 71
     0
 72
   100
 73
     1
 74
     3
 75
     0
 76
     0
 77
     0
 78
     0
  0
ENDTAB
  0
TABLE
  2
LTYPE
  5
5
330
0
100
AcDbSymbolTable
 70
    19
  0
LTYPE
  5
14
330
5
100
AcDbSymbolTableRecord
100
AcDbLinetypeTableRecord
  2
BYBLOCK
 70
     0
  3

 72
    65
 73
     0
 40
0.0
  0
LTYPE
  5
15
330
5
100
AcDbSymbolTableRecord
100
AcDbLinetypeTableRecord
  2
BYLAYER
 70
     0
  3

 72
    65
 73
     0
 40
0.0
  0
LTYPE
  5
16
330
5
100
AcDbSymbolTableRecord
100
AcDbLinetypeTableRecord
  2
CONTINUOUS
 70
     0
  3
Solid line
 72
    65
 73
     0
 40
0.0
  0
LTYPE
  5
6F
330
5
100
AcDbSymbolTableRecord
100
AcDbLinetypeTableRecord
  2
NEW_LINE1
 70
     0
  3

 72
    65
 73
     4
 40
1.1
 49
0.2
 74
     4
 75
     0
340
0
 46
1.0
 50
0.0
 44
0.0
 45
0.0
 49
-0.2
 74
     4
 75
     0
340
0
 46
1.0
 50
0.0
 44
0.0
 45
0.0
 49
0.5
 74
     4
 75
     0
340
0
 46
1.0
 50
0.0
 44
0.0
 45
0.0
 49
-0.2
 74
     4
 75
     0
340
0
 46
1.0
 50
0.0
 44
0.0
 45
0.0
  0
LTYPE
  5
71
330
5
100
AcDbSymbolTableRecord
100
AcDbLinetypeTableRecord
  2
NEW_LINE2
 70
     0
  3

 72
    65
 73
     4
 40
1.1
 49
0.2
 74
     4
 75
     0
340
0
 46
1.0
 50
0.0
 44
0.0
 45
0.0
 49
-0.2
 74
     4
 75
     0
340
0
 46
1.0
 50
0.0
 44
0.0
 45
0.0
 49
0.5
 74
     4
 75
     0
340
0
 46
1.0
 50
0.0
 44
0.0
 45
0.0
 49
-0.2
 74
     4
 75
     0
340
0
 46
1.0
 50
0.0
 44
0.0
 45
0.0
  0
LTYPE
  5
84
330
5
100
AcDbSymbolTableRecord
100
AcDbLinetypeTableRecord
  2
NEW_LINE3
 70
     0
  3

 72
    65
 73
     4
 40
0.7999999999999999
 49
0.5
 74
     4
 75
     0
340
0
 46
1.0
 50
0.0
 44
0.0
 45
0.0
 49
-0.1
 74
     4
 75
     0
340
0
 46
1.0
 50
0.0
 44
0.0
 45
0.0
 49
0.1
 74
     4
 75
     0
340
0
 46
1.0
 50
0.0
 44
0.0
 45
0.0
 49
-0.1
 74
     4
 75
     0
340
0
 46
1.0
 50
0.0
 44
0.0
 45
0.0
  0
LTYPE
  5
86
330
5
100
AcDbSymbolTableRecord
100
AcDbLinetypeTableRecord
  2
NEW_LINE4
 70
     0
  3

 72
    65
 73
     4
 40
0.7999999999999999
 49
0.5
 74
     4
 75
     0
340
0
 46
1.0
 50
0.0
 44
0.0
 45
0.0
 49
-0.1
 74
     4
 75
     0
340
0
 46
1.0
 50
0.0
 44
0.0
 45
0.0
 49
0.1
 74
     4
 75
     0
340
0
 46
1.0
 50
0.0
 44
0.0
 45
0.0
 49
-0.1
 74
     4
 75
     0
340
0
 46
1.0
 50
0.0
 44
0.0
 45
0.0
  0
LTYPE
  5
88
330
5
100
AcDbSymbolTableRecord
100
AcDbLinetypeTableRecord
  2
NEW_LINE5
 70
     0
  3

 72
    65
 73
     4
 40
0.7999999999999999
 49
0.5
 74
     4
 75
     0
340
0
 46
1.0
 50
0.0
 44
0.0
 45
0.0
 49
-0.1
 74
     4
 75
     0
340
0
 46
1.0
 50
0.0
 44
0.0
 45
0.0
 49
0.1
 74
     4
 75
     0
340
0
 46
1.0
 50
0.0
 44
0.0
 45
0.0
 49
-0.1
 74
     4
 75
     0
340
0
 46
1.0
 50
0.0
 44
0.0
 45
0.0
  0
LTYPE
  5
8A
330
5
100
AcDbSymbolTableRecord
100
AcDbLinetypeTableRecord
  2
NEW_LINE6
 70
     0
  3

 72
    65
 73
     4
 40
0.7999999999999999
 49
0.5
 74
     4
 75
     0
340
0
 46
1.0
 50
0.0
 44
0.0
 45
0.0
 49
-0.1
 74
     4
 75
     0
340
0
 46
1.0
 50
0.0
 44
0.0
 45
0.0
 49
0.1
 74
     4
 75
     0
340
0
 46
1.0
 50
0.0
 44
0.0
 45
0.0
 49
-0.1
 74
     4
 75
     0
340
0
 46
1.0
 50
0.0
 44
0.0
 45
0.0
  0
LTYPE
  5
9F
330
5
100
AcDbSymbolTableRecord
100
AcDbLinetypeTableRecord
  2
NEW_LINE7
 70
     0
  3

 72
    65
 73
     4
 40
0.7999999999999999
 49
0.5
 74
     4
 75
     0
340
0
 46
1.0
 50
0.0
 44
0.0
 45
0.0
 49
-0.1
 74
     4
 75
     0
340
0
 46
1.0
 50
0.0
 44
0.0
 45
0.0
 49
0.1
 74
     4
 75
     0
340
0
 46
1.0
 50
0.0
 44
0.0
 45
0.0
 49
-0.1
 74
     4
 75
     0
340
0
 46
1.0
 50
0.0
 44
0.0
 45
0.0
  0
LTYPE
  5
A1
330
5
100
AcDbSymbolTableRecord
100
AcDbLinetypeTableRecord
  2
NEW_LINE8
 70
     0
  3

 72
    65
 73
     4
 40
0.7999999999999999
 49
0.5
 74
     4
 75
     0
340
0
 46
1.0
 50
0.0
 44
0.0
 45
0.0
 49
-0.1
 74
     4
 75
     0
340
0
 46
1.0
 50
0.0
 44
0.0
 45
0.0
 49
0.1
 74
     4
 75
     0
340
0
 46
1.0
 50
0.0
 44
0.0
 45
0.0
 49
-0.1
 74
     4
 75
     0
340
0
 46
1.0
 50
0.0
 44
0.0
 45
0.0
  0
LTYPE
  5
A3
330
5
100
AcDbSymbolTableRecord
100
AcDbLinetypeTableRecord
  2
NEW_LINE9
 70
     0
  3

 72
    65
 73
     4
 40
0.7999999999999999
 49
0.5
 74
     4
 75
     0
340
0
 46
1.0
 50
0.0
 44
0.0
 45
0.0
 49
-0.1
 74
     4
 75
     0
340
0
 46
1.0
 50
0.0
 44
0.0
 45
0.0
 49
0.1
 74
     4
 75
     0
340
0
 46
1.0
 50
0.0
 44
0.0
 45
0.0
 49
-0.1
 74
     4
 75
     0
340
0
 46
1.0
 50
0.0
 44
0.0
 45
0.0
  0
LTYPE
  5
A5
330
5
100
AcDbSymbolTableRecord
100
AcDbLinetypeTableRecord
  2
NEW_LINE10
 70
     0
  3

 72
    65
 73
     4
 40
0.7999999999999999
 49
0.5
 74
     4
 75
     0
340
0
 46
1.0
 50
0.0
 44
0.0
 45
0.0
 49
-0.1
 74
     4
 75
     0
340
0
 46
1.0
 50
0.0
 44
0.0
 45
0.0
 49
0.1
 74
     4
 75
     0
340
0
 46
1.0
 50
0.0
 44
0.0
 45
0.0
 49
-0.1
 74
     4
 75
     0
340
0
 46
1.0
 50
0.0
 44
0.0
 45
0.0
  0
LTYPE
  5
A7
330
5
100
AcDbSymbolTableRecord
100
AcDbLinetypeTableRecord
  2
NEW_LINE11
 70
     0
  3

 72
    65
 73
     4
 40
0.7999999999999999
 49
0.5
 74
     4
 75
     0
340
0
 46
1.0
 50
0.0
 44
0.0
 45
0.0
 49
-0.1
 74
     4
 75
     0
340
0
 46
1.0
 50
0.0
 44
0.0
 45
0.0
 49
0.1
 74
     4
 75
     0
340
0
 46
1.0
 50
0.0
 44
0.0
 45
0.0
 49
-0.1
 74
     4
 75
     0
340
0
 46
1.0
 50
0.0
 44
0.0
 45
0.0
  0
LTYPE
  5
B6
330
5
100
AcDbSymbolTableRecord
100
AcDbLinetypeTableRecord
  2
NEW_LINE12
 70
     0
  3

 72
    65
 73
     4
 40
0.7999999999999999
 49
0.5
 74
     4
 75
     0
340
0
 46
1.0
 50
0.0
 44
0.0
 45
0.0
 49
-0.1
 74
     4
 75
     0
340
0
 46
1.0
 50
0.0
 44
0.0
 45
0.0
 49
0.1
 74
     4
 75
     0
340
0
 46
1.0
 50
0.0
 44
0.0
 45
0.0
 49
-0.1
 74
     4
 75
     0
340
0
 46
1.0
 50
0.0
 44
0.0
 45
0.0
  0
LTYPE
  5
B8
330
5
100
AcDbSymbolTableRecord
100
AcDbLinetypeTableRecord
  2
NEW_LINE13
 70
     0
  3

 72
    65
 73
     4
 40
0.7999999999999999
 49
0.5
 74
     4
 75
     0
340
0
 46
1.0
 50
0.0
 44
0.0
 45
0.0
 49
-0.1
 74
     4
 75
     0
340
0
 46
1.0
 50
0.0
 44
0.0
 45
0.0
 49
0.1
 74
     4
 75
     0
340
0
 46
1.0
 50
0.0
 44
0.0
 45
0.0
 49
-0.1
 74
     4
 75
     0
340
0
 46
1.0
 50
0.0
 44
0.0
 45
0.0
  0
LTYPE
  5
BA
330
5
100
AcDbSymbolTableRecord
100
AcDbLinetypeTableRecord
  2
NEW_LINE14
 70
     0
  3

 72
    65
 73
     4
 40
0.7999999999999999
 49
0.5
 74
     4
 75
     0
340
0
 46
1.0
 50
0.0
 44
0.0
 45
0.0
 49
-0.1
 74
     4
 75
     0
340
0
 46
1.0
 50
0.0
 44
0.0
 45
0.0
 49
0.1
 74
     4
 75
     0
340
0
 46
1.0
 50
0.0
 44
0.0
 45
0.0
 49
-0.1
 74
     4
 75
     0
340
0
 46
1.0
 50
0.0
 44
0.0
 45
0.0
  0
LTYPE
  5
BC
330
5
100
AcDbSymbolTableRecord
100
AcDbLinetypeTableRecord
  2
NEW_LINE15
 70
     0
  3

 72
    65
 73
     4
 40
0.7999999999999999
 49
0.5
 74
     4
 75
     0
340
0
 46
1.0
 50
0.0
 44
0.0
 45
0.0
 49
-0.1
 74
     4
 75
     0
340
0
 46
1.0
 50
0.0
 44
0.0
 45
0.0
 49
0.1
 74
     4
 75
     0
340
0
 46
1.0
 50
0.0
 44
0.0
 45
0.0
 49
-0.1
 74
     4
 75
     0
340
0
 46
1.0
 50
0.0
 44
0.0
 45
0.0
  0
LTYPE
  5
CF
330
5
100
AcDbSymbolTableRecord
100
AcDbLinetypeTableRecord
  2
NEW_LINE16
 70
     0
  3

 72
    65
 73
     4
 40
0.7999999999999999
 49
0.5
 74
     4
 75
     0
340
0
 46
1.0
 50
0.0
 44
0.0
 45
0.0
 49
-0.1
 74
     4
 75
     0
340
0
 46
1.0
 50
0.0
 44
0.0
 45
0.0
 49
0.1
 74
     4
 75
     0
340
0
 46
1.0
 50
0.0
 44
0.0
 45
0.0
 49
-0.1
 74
     4
 75
     0
340
0
 46
1.0
 50
0.0
 44
0.0
 45
0.0
  0
LTYPE
  5
D1
330
5
100
AcDbSymbolTableRecord
100
AcDbLinetypeTableRecord
  2
NEW_LINE17
 70
     0
  3

 72
    65
 73
     4
 40
0.7999999999999999
 49
0.5
 74
     4
 75
     0
340
0
 46
1.0
 50
0.0
 44
0.0
 45
0.0
 49
-0.1
 74
     4
 75
     0
340
0
 46
1.0
 50
0.0
 44
0.0
 45
0.0
 49
0.1
 74
     4
 75
     0
340
0
 46
1.0
 50
0.0
 44
0.0
 45
0.0
 49
-0.1
 74
     4
 75
     0
340
0
 46
1.0
 50
0.0
 44
0.0
 45
0.0
  0
LTYPE
  5
D3
330
5
100
AcDbSymbolTableRecord
100
AcDbLinetypeTableRecord
  2
NEW_LINE18
 70
     0
  3

 72
    65
 73
     4
 40
0.7999999999999999
 49
0.5
 74
     4
 75
     0
340
0
 46
1.0
 50
0.0
 44
0.0
 45
0.0
 49
-0.1
 74
     4
 75
     0
340
0
 46
1.0
 50
0.0
 44
0.0
 45
0.0
 49
0.1
 74
     4
 75
     0
340
0
 46
1.0
 50
0.0
 44
0.0
 45
0.0
 49
-0.1
 74
     4
 75
     0
340
0
 46
1.0
 50
0.0
 44
0.0
 45
0.0
  0
ENDTAB
  0
TABLE
  2
LAYER
  5
2
330
0
100
AcDbSymbolTable
 70
     2
  0
LAYER
  5
10
330
2
100
AcDbSymbolTableRecord
100
AcDbLayerTableRecord
  2
0
 70
     0
 62
     7
  6
CONTINUOUS
  0
LAYER
  5
40
330
2
100
AcDbSymbolTableRecord
100
AcDbLayerTableRecord
  2
ROUND
 70
     0
 62
     7
  6
CONTINUOUS
  0
ENDTAB
  0
TABLE
  2
STYLE
  5
3
330
0
100
AcDbSymbolTable
 70
     1
  0
STYLE
  5
11
330
3
100
AcDbSymbolTableRecord
100
AcDbTextStyleTableRecord
  2
STANDARD
 70
     0
 40
0.0
 41
1.0
 50
0.0
 71
     0
 42
0.2
  3
txt
  4

  0
ENDTAB
  0
TABLE
  2
VIEW
  5
6
330
0
100
AcDbSymbolTable
 70
     0
  0
ENDTAB
  0
TABLE
  2
UCS
  5
7
330
0
100
AcDbSymbolTable
 70
     0
  0
ENDTAB
  0
TABLE
  2
APPID
  5
9
330
0
100
AcDbSymbolTable
 70
     2
  0
APPID
  5
12
330
9
100
AcDbSymbolTableRecord
100
AcDbRegAppTableRecord
  2
ACAD
 70
     0
  0
APPID
  5
3F
330
9
100
AcDbSymbolTableRecord
100
AcDbRegAppTableRecord
  2
ODA
 70
     0
  0
ENDTAB
  0
TABLE
  2
DIMSTYLE
  5
A
330
0
100
AcDbSymbolTable
 70
     1
  0
DIMSTYLE
105
27
330
A
100
AcDbSymbolTableRecord
100
AcDbDimStyleTableRecord
  2
STANDARD
 70
     0
  3

  4

  5

  6

  7

 40
1.0
 41
0.18
 42
0.0625
 43
0.38
 44
0.18
 45
0.0
 46
0.0
 47
0.0
 48
0.0
140
0.18
141
0.09
142
0.0
143
25.4
144
1.0
145
0.0
146
1.0
147
0.09
 71
     0
 72
     0
 73
     1
 74
     1
 75
     0
 76
     0
 77
     0
 78
     0
170
     0
171
     2
172
     0
173
     0
174
     0
175
     0
176
     0
177
     0
178
     0
270
     2
271
     4
272
     4
273
     2
274
     2
340
11
275
     0
280
     0
281
     0
282
     0
283
     1
284
     0
285
     0
286
     0
287
     3
288
     0
  0
ENDTAB
  0
TABLE
  2
BLOCK_RECORD
  5
1
330
0
100
AcDbSymbolTable
 70
     1
  0
BLOCK_RECORD
  5
1F
330
1
100
AcDbSymbolTableRecord
100
AcDbBlockTableRecord
  2
*MODEL_SPACE
  0
BLOCK_RECORD
  5
1B
330
1
100
AcDbSymbolTableRecord
100
AcDbBlockTableRecord
  2
*PAPER_SPACE
  0
ENDTAB
  0
ENDSEC
  0
SECTION
  2
BLOCKS
  0
BLOCK
  5
20
330
1F
100
AcDbEntity
  8
0
100
AcDbBlockBegin
  2
*MODEL_SPACE
 70
     0
 10
0.0
 20
0.0
 30
0.0
  3
*MODEL_SPACE
  1

  0
ENDBLK
  5
21
330
1F
100
AcDbEntity
  8
0
100
AcDbBlockEnd
  0
BLOCK
  5
1C
330
1B
100
AcDbEntity
 67
     1
  8
0
100
AcDbBlockBegin
  2
*PAPER_SPACE
 70
     0
 10
0.0
 20
0.0
 30
0.0
  3
*PAPER_SPACE
  1

  0
ENDBLK
  5
1D
330
1B
100
AcDbEntity
 67
     1
  8
0
100
AcDbBlockEnd
  0
ENDSEC
  0
SECTION
  2
ENTITIES
  0
SPLINE
  5
41
330
1F
100
AcDbEntity
  8
ROUND
 62
   250
100
AcDbSpline
210
0.0
220
0.0
230
1.0
 70
    11
 71
     3
 72
    84
 73
    80
 74
     0
 42
0.0000000001
 43
0.0000000001
 40
0.0
 40
0.0
 40
0.0
 40
0.0
 40
0.0476190476190476
 40
0.0476190476190476
 40
0.0476190476190476
 40
0.0476190476190476
 40
0.0952380952380952
 40
0.0952380952380952
 40
0.0952380952380952
 40
0.0952380952380952
 40
0.1428571428571428
 40
0.1428571428571428
 40
0.1428571428571428
 40
0.1428571428571428
 40
0.1904761904761905
 40
0.1904761904761905
 40
0.1904761904761905
 40
0.1904761904761905
 40
0.2380952380952381
 40
0.2380952380952381
 40
0.2380952380952381
 40
0.2380952380952381
 40
0.2857142857142857
 40
0.2857142857142857
 40
0.2857142857142857
 40
0.2857142857142857
 40
0.3333333333333333
 40
0.3333333333333333
 40
0.3333333333333333
 40
0.3333333333333333
 40
0.3809523809523809
 40
0.3809523809523809
 40
0.3809523809523809
 40
0.3809523809523809
 40
0.4285714285714285
 40
0.4285714285714285
 40
0.4285714285714285
 40
0.4285714285714285
 40
0.4761904761904762
 40
0.4761904761904762
 40
0.4761904761904762
 40
0.4761904761904762
 40
0.5238095238095238
 40
0.5238095238095238
 40
0.5238095238095238
 40
0.5238095238095238
 40
0.5714285714285714
 40
0.5714285714285714
 40
0.5714285714285714
 40
0.5714285714285714
 40
0.6190476190476191
 40
0.6190476190476191
 40
0.6190476190476191
 40
0.6190476190476191
 40
0.6666666666666666
 40
0.6666666666666666
 40
0.6666666666666666
 40
0.6666666666666666
 40
0.7142857142857143
 40
0.7142857142857143
 40
0.7142857142857143
 40
0.7142857142857143
 40
0.7619047619047619
 40
0.7619047619047619
 40
0.7619047619047619
 40
0.7619047619047619
 40
0.8095238095238095
 40
0.8095238095238095
 40
0.8095238095238095
 40
0.8095238095238095
 40
0.8571428571428571
 40
0.8571428571428571
 40
0.8571428571428571
 40
0.8571428571428571
 40
0.9047619047619048
 40
0.9047619047619048
 40
0.9047619047619048
 40
0.9047619047619048
 40
1.0
 40
1.0
 40
1.0
 40
1.0
 10
-26.4683
 20
33.7571
 30
0.0
 10
-26.4683
 20
33.7571
 30
0.0
 10
-26.2369
 20
34.0162
 30
0.0
 10
-26.2369
 20
34.0162
 30
0.0
 10
-26.2369
 20
34.0162
 30
0.0
 10
-26.2369
 20
34.0162
 30
0.0
 10
-26.1005
 20
33.9005
 30
0.0
 10
-26.1005
 20
33.9005
 30
0.0
 10
-26.1005
 20
33.9005
 30
0.0
 10
-26.1005
 20
33.9005
 30
0.0
 10
-26.3427
 20
33.6277
 30
0.0
 10
-26.3427
 20
33.6277
 30
0.0
 10
-26.3427
 20
33.6277
 30
0.0
 10
-26.2637
 20
33.5101
 30
0.0
 10
-26.2106
 20
33.4071
 30
0.0
 10
-26.1828
 20
33.3192
 30
0.0
 10
-26.1828
 20
33.3192
 30
0.0
 10
-26.1461
 20
33.2034
 30
0.0
 10
-26.1278
 20
33.0736
 30
0.0
 10
-26.1278
 20
32.9306
 30
0.0
 10
-26.1278
 20
32.9306
 30
0.0
 10
-26.1278
 20
32.7237
 30
0.0
 10
-26.1696
 20
32.5393
 30
0.0
 10
-26.2534
 20
32.378
 30
0.0
 10
-26.2534
 20
32.378
 30
0.0
 10
-26.3371
 20
32.2161
 30
0.0
 10
-26.4542
 20
32.0939
 30
0.0
 10
-26.6052
 20
32.0111
 30
0.0
 10
-26.6052
 20
32.0111
 30
0.0
 10
-26.7567
 20
31.9288
 30
0.0
 10
-26.917
 20
31.8874
 30
0.0
 10
-27.0868
 20
31.8874
 30
0.0
 10
-27.0868
 20
31.8874
 30
0.0
 10
-27.2138
 20
31.8874
 30
0.0
 10
-27.3286
 20
31.9052
 30
0.0
 10
-27.4316
 20
31.941
 30
0.0
 10
-27.4316
 20
31.941
 30
0.0
 10
-27.5106
 20
31.9687
 30
0.0
 10
-27.6028
 20
32.0214
 30
0.0
 10
-27.7087
 20
32.0995
 30
0.0
 10
-27.7087
 20
32.0995
 30
0.0
 10
-27.7087
 20
32.0995
 30
0.0
 10
-27.9401
 20
31.8403
 30
0.0
 10
-27.9401
 20
31.8403
 30
0.0
 10
-27.9401
 20
31.8403
 30
0.0
 10
-27.9401
 20
31.8403
 30
0.0
 10
-28.0765
 20
31.956
 30
0.0
 10
-28.0765
 20
31.956
 30
0.0
 10
-28.0765
 20
31.956
 30
0.0
 10
-28.0765
 20
31.956
 30
0.0
 10
-27.8338
 20
32.2274
 30
0.0
 10
-27.8338
 20
32.2274
 30
0.0
 10
-27.8338
 20
32.2274
 30
0.0
 10
-27.9241
 20
32.3643
 30
0.0
 10
-27.9843
 20
32.4814
 30
0.0
 10
-28.0144
 20
32.5783
 30
0.0
 10
-28.0144
 20
32.5783
 30
0.0
 10
-28.0445
 20
32.6752
 30
0.0
 10
-28.06
 20
32.7919
 30
0.0
 10
-28.06
 20
32.9278
 30
0.0
 10
-28.06
 20
32.9278
 30
0.0
 10
-28.06
 20
33.1352
 30
0.0
 10
-28.0186
 20
33.3201
 30
0.0
 10
-27.9359
 20
33.4824
 30
0.0
 10
-27.9359
 20
33.4824
 30
0.0
 10
-27.8531
 20
33.6447
 30
0.0
 10
-27.7374
 20
33.7674
 30
0.0
 10
-27.5878
 20
33.8511
 30
0.0
 10
-27.5878
 20
33.8511
 30
0.0
 10
-27.4387
 20
33.9344
 30
0.0
 10
-27.2726
 20
33.9763
 30
0.0
 10
-27.0897
 20
33.9763
 30
0.0
 10
-27.0897
 20
33.9763
 30
0.0
 10
-26.9664
 20
33.9763
 30
0.0
 10
-26.8587
 20
33.9603
 30
0.0
 10
-26.7665
 20
33.9273
 30
0.0
 10
-26.7665
 20
33.9273
 30
0.0
 10
-26.6743
 20
33.8949
 30
0.0
 10
-26.5746
 20
33.838
 30
0.0
 10
-26.4683
 20
33.7571
 30
0.0
  0
SPLINE
  5
42
330
1F
100
AcDbEntity
  8
ROUND
 62
   250
100
AcDbSpline
210
0.0
220
0.0
230
1.0
 70
    11
 71
     3
 72
    32
 73
    28
 74
     0
 42
0.0000000001
 43
0.0000000001
 40
0.0
 40
0.0
 40
0.0
 40
0.0
 40
0.125
 40
0.125
 40
0.125
 40
0.125
 40
0.25
 40
0.25
 40
0.25
 40
0.25
 40
0.375
 40
0.375
 40
0.375
 40
0.375
 40
0.5
 40
0.5
 40
0.5
 40
0.5
 40
0.625
 40
0.625
 40
0.625
 40
0.625
 40
0.75
 40
0.75
 40
0.75
 40
0.75
 40
1.0
 40
1.0
 40
1.0
 40
1.0
 10
-26.6334
 20
33.5713
 30
0.0
 10
-26.72
 20
33.639
 30
0.0
 10
-26.7957
 20
33.6856
 30
0.0
 10
-26.8601
 20
33.7105
 30
0.0
 10
-26.8601
 20
33.7105
 30
0.0
 10
-26.925
 20
33.735
 30
0.0
 10
-27.0012
 20
33.7477
 30
0.0
 10
-27.0883
 20
33.7477
 30
0.0
 10
-27.0883
 20
33.7477
 30
0.0
 10
-27.2896
 20
33.7477
 30
0.0
 10
-27.4556
 20
33.6795
 30
0.0
 10
-27.5873
 20
33.5431
 30
0.0
 10
-27.5873
 20
33.5431
 30
0.0
 10
-27.7186
 20
33.4066
 30
0.0
 10
-27.7844
 20
33.203
 30
0.0
 10
-27.7844
 20
32.9316
 30
0.0
 10
-27.7844
 20
32.9316
 30
0.0
 10
-27.7844
 20
32.8253
 30
0.0
 10
-27.7741
 20
32.7307
 30
0.0
 10
-27.7538
 20
32.6479
 30
0.0
 10
-27.7538
 20
32.6479
 30
0.0
 10
-27.7392
 20
32.5863
 30
0.0
 10
-27.7087
 20
32.5106
 30
0.0
 10
-27.6616
 20
32.4208
 30
0.0
 10
-27.6616
 20
32.4208
 30
0.0
 10
-27.6616
 20
32.4208
 30
0.0
 10
-26.6334
 20
33.5713
 30
0.0
 10
-26.6334
 20
33.5713
 30
0.0
  0
SPLINE
  5
43
330
1F
100
AcDbEntity
  8
ROUND
 62
   250
100
AcDbSpline
210
0.0
220
0.0
230
1.0
 70
    11
 71
     3
 72
    28
 73
    24
 74
     0
 42
0.0000000001
 43
0.0000000001
 40
0.0
 40
0.0
 40
0.0
 40
0.0
 40
0.1428571428571428
 40
0.1428571428571428
 40
0.1428571428571428
 40
0.1428571428571428
 40
0.2857142857142857
 40
0.2857142857142857
 40
0.2857142857142857
 40
0.2857142857142857
 40
0.4285714285714285
 40
0.4285714285714285
 40
0.4285714285714285
 40
0.4285714285714285
 40
0.5714285714285714
 40
0.5714285714285714
 40
0.5714285714285714
 40
0.5714285714285714
 40
0.7142857142857143
 40
0.7142857142857143
 40
0.7142857142857143
 40
0.7142857142857143
 40
1.0
 40
1.0
 40
1.0
 40
1.0
 10
-26.5205
 20
33.4292
 30
0.0
 10
-26.5205
 20
33.4292
 30
0.0
 10
-27.5445
 20
32.2829
 30
0.0
 10
-27.5445
 20
32.2829
 30
0.0
 10
-27.5445
 20
32.2829
 30
0.0
 10
-27.474
 20
32.2251
 30
0.0
 10
-27.4086
 20
32.1846
 30
0.0
 10
-27.3488
 20
32.1616
 30
0.0
 10
-27.3488
 20
32.1616
 30
0.0
 10
-27.2708
 20
32.131
 30
0.0
 10
-27.1861
 20
32.116
 30
0.0
 10
-27.0953
 20
32.116
 30
0.0
 10
-27.0953
 20
32.116
 30
0.0
 10
-26.8949
 20
32.116
 30
0.0
 10
-26.7298
 20
32.1865
 30
0.0
 10
-26.5991
 20
32.3281
 30
0.0
 10
-26.5991
 20
32.3281
 30
0.0
 10
-26.4688
 20
32.4697
 30
0.0
 10
-26.4034
 20
32.6682
 30
0.0
 10
-26.4034
 20
32.9236
 30
0.0
 10
-26.4034
 20
32.9236
 30
0.0
 10
-26.4034
 20
33.1145
 30
0.0
 10
-26.4424
 20
33.2834
 30
0.0
 10
-26.5205
 20
33.4292
 30
0.0
  0
SPLINE
  5
44
330
1F
100
AcDbEntity
  8
ROUND
 62
   250
100
AcDbSpline
210
0.0
220
0.0
230
1.0
 70
    11
 71
     3
 72
    40
 73
    36
 74
     0
 42
0.0000000001
 43
0.0000000001
 40
0.0
 40
0.0
 40
0.0
 40
0.0
 40
0.1
 40
0.1
 40
0.1
 40
0.1
 40
0.2
 40
0.2
 40
0.2
 40
0.2
 40
0.3
 40
0.3
 40
0.3
 40
0.3
 40
0.4
 40
0.4
 40
0.4
 40
0.4
 40
0.5
 40
0.5
 40
0.5
 40
0.5
 40
0.6
 40
0.6
 40
0.6
 40
0.6
 40
0.7
 40
0.7
 40
0.7
 40
0.7
 40
0.8
 40
0.8
 40
0.8
 40
0.8
 40
1.0
 40
1.0
 40
1.0
 40
1.0
 10
-24.9443
 20
31.9217
 30
0.0
 10
-24.9443
 20
31.9217
 30
0.0
 10
-25.1922
 20
31.9217
 30
0.0
 10
-25.1922
 20
31.9217
 30
0.0
 10
-25.1922
 20
31.9217
 30
0.0
 10
-25.1922
 20
31.9217
 30
0.0
 10
-25.1922
 20
33.5021
 30
0.0
 10
-25.1922
 20
33.5021
 30
0.0
 10
-25.1922
 20
33.5021
 30
0.0
 10
-25.252
 20
33.4452
 30
0.0
 10
-25.33
 20
33.3883
 30
0.0
 10
-25.4269
 20
33.3314
 30
0.0
 10
-25.4269
 20
33.3314
 30
0.0
 10
-25.5243
 20
33.2745
 30
0.0
 10
-25.6113
 20
33.2317
 30
0.0
 10
-25.6885
 20
33.2034
 30
0.0
 10
-25.6885
 20
33.2034
 30
0.0
 10
-25.6885
 20
33.2034
 30
0.0
 10
-25.6885
 20
33.4429
 30
0.0
 10
-25.6885
 20
33.4429
 30
0.0
 10
-25.6885
 20
33.4429
 30
0.0
 10
-25.5497
 20
33.5082
 30
0.0
 10
-25.4283
 20
33.5873
 30
0.0
 10
-25.3244
 20
33.6799
 30
0.0
 10
-25.3244
 20
33.6799
 30
0.0
 10
-25.2209
 20
33.7731
 30
0.0
 10
-25.1471
 20
33.8629
 30
0.0
 10
-25.1038
 20
33.9504
 30
0.0
 10
-25.1038
 20
33.9504
 30
0.0
 10
-25.1038
 20
33.9504
 30
0.0
 10
-24.9443
 20
33.9504
 30
0.0
 10
-24.9443
 20
33.9504
 30
0.0
 10
-24.9443
 20
33.9504
 30
0.0
 10
-24.9443
 20
33.9504
 30
0.0
 10
-24.9443
 20
31.9217
 30
0.0
 10
-24.9443
 20
31.9217
 30
0.0
  0
SPLINE
  5
45
330
1F
100
AcDbEntity
  8
ROUND
 62
   250
100
AcDbSpline
210
0.0
220
0.0
230
1.0
 70
    11
 71
     3
 72
   124
 73
   120
 74
     0
 42
0.0000000001
 43
0.0000000001
 40
0.0
 40
0.0
 40
0.0
 40
0.0
 40
0.032258064516129
 40
0.032258064516129
 40
0.032258064516129
 40
0.032258064516129
 40
0.0645161290322581
 40
0.0645161290322581
 40
0.0645161290322581
 40
0.0645161290322581
 40
0.0967741935483871
 40
0.0967741935483871
 40
0.0967741935483871
 40
0.0967741935483871
 40
0.1290322580645161
 40
0.1290322580645161
 40
0.1290322580645161
 40
0.1290322580645161
 40
0.1612903225806452
 40
0.1612903225806452
 40
0.1612903225806452
 40
0.1612903225806452
 40
0.1935483870967742
 40
0.1935483870967742
 40
0.1935483870967742
 40
0.1935483870967742
 40
0.2258064516129032
 40
0.2258064516129032
 40
0.2258064516129032
 40
0.2258064516129032
 40
0.2580645161290323
 40
0.2580645161290323
 40
0.2580645161290323
 40
0.2580645161290323
 40
0.2903225806451613
 40
0.2903225806451613
 40
0.2903225806451613
 40
0.2903225806451613
 40
0.3225806451612903
 40
0.3225806451612903
 40
0.3225806451612903
 40
0.3225806451612903
 40
0.3548387096774194
 40
0.3548387096774194
 40
0.3548387096774194
 40
0.3548387096774194
 40
0.3870967741935484
 40
0.3870967741935484
 40
0.3870967741935484
 40
0.3870967741935484
 40
0.4193548387096774
 40
0.4193548387096774
 40
0.4193548387096774
 40
0.4193548387096774
 40
0.4516129032258064
 40
0.4516129032258064
 40
0.4516129032258064
 40
0.4516129032258064
 40
0.4838709677419355
 40
0.4838709677419355
 40
0.4838709677419355
 40
0.4838709677419355
 40
0.5161290322580645
 40
0.5161290322580645
 40
0.5161290322580645
 40
0.5161290322580645
 40
0.5483870967741935
 40
0.5483870967741935
 40
0.5483870967741935
 40
0.5483870967741935
 40
0.5806451612903226
 40
0.5806451612903226
 40
0.5806451612903226
 40
0.5806451612903226
 40
0.6129032258064516
 40
0.6129032258064516
 40
0.6129032258064516
 40
0.6129032258064516
 40
0.6451612903225806
 40
0.6451612903225806
 40
0.6451612903225806
 40
0.6451612903225806
 40
0.6774193548387096
 40
0.6774193548387096
 40
0.6774193548387096
 40
0.6774193548387096
 40
0.7096774193548387
 40
0.7096774193548387
 40
0.7096774193548387
 40
0.7096774193548387
 40
0.7419354838709677
 40
0.7419354838709677
 40
0.7419354838709677
 40
0.7419354838709677
 40
0.7741935483870968
 40
0.7741935483870968
 40
0.7741935483870968
 40
0.7741935483870968
 40
0.8064516129032258
 40
0.8064516129032258
 40
0.8064516129032258
 40
0.8064516129032258
 40
0.8387096774193549
 40
0.8387096774193549
 40
0.8387096774193549
 40
0.8387096774193549
 40
0.8709677419354839
 40
0.8709677419354839
 40
0.8709677419354839
 40
0.8709677419354839
 40
0.9032258064516129
 40
0.9032258064516129
 40
0.9032258064516129
 40
0.9032258064516129
 40
0.9354838709677419
 40
0.9354838709677419
 40
0.9354838709677419
 40
0.9354838709677419
 40
1.0
 40
1.0
 40
1.0
 40
1.0
 10
-24.3075
 20
32.4551
 30
0.0
 10
-24.3075
 20
32.4551
 30
0.0
 10
-24.0596
 20
32.488
 30
0.0
 10
-24.0596
 20
32.488
 30
0.0
 10
-24.0596
 20
32.488
 30
0.0
 10
-24.0309
 20
32.3474
 30
0.0
 10
-23.9824
 20
32.2463
 30
0.0
 10
-23.9142
 20
32.1842
 30
0.0
 10
-23.9142
 20
32.1842
 30
0.0
 10
-23.8456
 20
32.1221
 30
0.0
 10
-23.7623
 20
32.091
 30
0.0
 10
-23.664
 20
32.091
 30
0.0
 10
-23.664
 20
32.091
 30
0.0
 10
-23.5474
 20
32.091
 30
0.0
 10
-23.4486
 20
32.1315
 30
0.0
 10
-23.3681
 20
32.2124
 30
0.0
 10
-23.3681
 20
32.2124
 30
0.0
 10
-23.2882
 20
32.2933
 30
0.0
 10
-23.2477
 20
32.3935
 30
0.0
 10
-23.2477
 20
32.513
 30
0.0
 10
-23.2477
 20
32.513
 30
0.0
 10
-23.2477
 20
32.6268
 30
0.0
 10
-23.2849
 20
32.7209
 30
0.0
 10
-23.3592
 20
32.7947
 30
0.0
 10
-23.3592
 20
32.7947
 30
0.0
 10
-23.434
 20
32.8685
 30
0.0
 10
-23.5285
 20
32.9057
 30
0.0
 10
-23.6433
 20
32.9057
 30
0.0
 10
-23.6433
 20
32.9057
 30
0.0
 10
-23.6903
 20
32.9057
 30
0.0
 10
-23.7487
 20
32.8963
 30
0.0
 10
-23.8183
 20
32.878
 30
0.0
 10
-23.8183
 20
32.878
 30
0.0
 10
-23.8183
 20
32.878
 30
0.0
 10
-23.7905
 20
33.0957
 30
0.0
 10
-23.7905
 20
33.0957
 30
0.0
 10
-23.7905
 20
33.0957
 30
0.0
 10
-23.7741
 20
33.0939
 30
0.0
 10
-23.7609
 20
33.0929
 30
0.0
 10
-23.7506
 20
33.0929
 30
0.0
 10
-23.7506
 20
33.0929
 30
0.0
 10
-23.6452
 20
33.0929
 30
0.0
 10
-23.5502
 20
33.1207
 30
0.0
 10
-23.4655
 20
33.1757
 30
0.0
 10
-23.4655
 20
33.1757
 30
0.0
 10
-23.3808
 20
33.2307
 30
0.0
 10
-23.3385
 20
33.3159
 30
0.0
 10
-23.3385
 20
33.4306
 30
0.0
 10
-23.3385
 20
33.4306
 30
0.0
 10
-23.3385
 20
33.5214
 30
0.0
 10
-23.3696
 20
33.5971
 30
0.0
 10
-23.4312
 20
33.6564
 30
0.0
 10
-23.4312
 20
33.6564
 30
0.0
 10
-23.4928
 20
33.7161
 30
0.0
 10
-23.5723
 20
33.7463
 30
0.0
 10
-23.6697
 20
33.7463
 30
0.0
 10
-23.6697
 20
33.7463
 30
0.0
 10
-23.7661
 20
33.7463
 30
0.0
 10
-23.8465
 20
33.7157
 30
0.0
 10
-23.9105
 20
33.6555
 30
0.0
 10
-23.9105
 20
33.6555
 30
0.0
 10
-23.9749
 20
33.5948
 30
0.0
 10
-24.0163
 20
33.5035
 30
0.0
 10
-24.0347
 20
33.3822
 30
0.0
 10
-24.0347
 20
33.3822
 30
0.0
 10
-24.0347
 20
33.3822
 30
0.0
 10
-24.2825
 20
33.4264
 30
0.0
 10
-24.2825
 20
33.4264
 30
0.0
 10
-24.2825
 20
33.4264
 30
0.0
 10
-24.2524
 20
33.5929
 30
0.0
 10
-24.1833
 20
33.7218
 30
0.0
 10
-24.076
 20
33.813
 30
0.0
 10
-24.076
 20
33.813
 30
0.0
 10
-23.9683
 20
33.9043
 30
0.0
 10
-23.8347
 20
33.9504
 30
0.0
 10
-23.6748
 20
33.9504
 30
0.0
 10
-23.6748
 20
33.9504
 30
0.0
 10
-23.5648
 20
33.9504
 30
0.0
 10
-23.4632
 20
33.9264
 30
0.0
 10
-23.3705
 20
33.8794
 30
0.0
 10
-23.3705
 20
33.8794
 30
0.0
 10
-23.2778
 20
33.8319
 30
0.0
 10
-23.2068
 20
33.7674
 30
0.0
 10
-23.1574
 20
33.6856
 30
0.0
 10
-23.1574
 20
33.6856
 30
0.0
 10
-23.1085
 20
33.6037
 30
0.0
 10
-23.0836
 20
33.5172
 30
0.0
 10
-23.0836
 20
33.425
 30
0.0
 10
-23.0836
 20
33.425
 30
0.0
 10
-23.0836
 20
33.338
 30
0.0
 10
-23.1071
 20
33.2585
 30
0.0
 10
-23.1541
 20
33.1865
 30
0.0
 10
-23.1541
 20
33.1865
 30
0.0
 10
-23.2012
 20
33.115
 30
0.0
 10
-23.2703
 20
33.0581
 30
0.0
 10
-23.362
 20
33.0158
 30
0.0
 10
-23.362
 20
33.0158
 30
0.0
 10
-23.2426
 20
32.9885
 30
0.0
 10
-23.1499
 20
32.9311
 30
0.0
 10
-23.0836
 20
32.8441
 30
0.0
 10
-23.0836
 20
32.8441
 30
0.0
 10
-23.0177
 20
32.7575
 30
0.0
 10
-22.9848
 20
32.6489
 30
0.0
 10
-22.9848
 20
32.5186
 30
0.0
 10
-22.9848
 20
32.5186
 30
0.0
 10
-22.9848
 20
32.3422
 30
0.0
 10
-23.0488
 20
32.1926
 30
0.0
 10
-23.1776
 20
32.0699
 30
0.0
 10
-23.1776
 20
32.0699
 30
0.0
 10
-23.3061
 20
31.9471
 30
0.0
 10
-23.4688
 20
31.886
 30
0.0
 10
-23.6654
 20
31.886
 30
0.0
 10
-23.6654
 20
31.886
 30
0.0
 10
-23.8427
 20
31.886
 30
0.0
 10
-23.99
 20
31.9386
 30
0.0
 10
-24.1071
 20
32.0445
 30
0.0
 10
-24.1071
 20
32.0445
 30
0.0
 10
-24.2242
 20
32.1498
 30
0.0
 10
-24.291
 20
32.2867
 30
0.0
 10
-24.3075
 20
32.4551
 30
0.0
  0
SPLINE
  5
46
330
1F
100
AcDbEntity
  8
ROUND
 62
   250
100
AcDbSpline
210
0.0
220
0.0
230
1.0
 70
    11
 71
     3
 72
    40
 73
    36
 74
     0
 42
0.0000000001
 43
0.0000000001
 40
0.0
 40
0.0
 40
0.0
 40
0.0
 40
0.1
 40
0.1
 40
0.1
 40
0.1
 40
0.2
 40
0.2
 40
0.2
 40
0.2
 40
0.3
 40
0.3
 40
0.3
 40
0.3
 40
0.4
 40
0.4
 40
0.4
 40
0.4
 40
0.5
 40
0.5
 40
0.5
 40
0.5
 40
0.6
 40
0.6
 40
0.6
 40
0.6
 40
0.7
 40
0.7
 40
0.7
 40
0.7
 40
0.8
 40
0.8
 40
0.8
 40
0.8
 40
1.0
 40
1.0
 40
1.0
 40
1.0
 10
-21.8051
 20
31.9217
 30
0.0
 10
-21.8051
 20
31.9217
 30
0.0
 10
-22.053
 20
31.9217
 30
0.0
 10
-22.053
 20
31.9217
 30
0.0
 10
-22.053
 20
31.9217
 30
0.0
 10
-22.053
 20
31.9217
 30
0.0
 10
-22.053
 20
33.5021
 30
0.0
 10
-22.053
 20
33.5021
 30
0.0
 10
-22.053
 20
33.5021
 30
0.0
 10
-22.1128
 20
33.4452
 30
0.0
 10
-22.1908
 20
33.3883
 30
0.0
 10
-22.2877
 20
33.3314
 30
0.0
 10
-22.2877
 20
33.3314
 30
0.0
 10
-22.3851
 20
33.2745
 30
0.0
 10
-22.4721
 20
33.2317
 30
0.0
 10
-22.5493
 20
33.2034
 30
0.0
 10
-22.5493
 20
33.2034
 30
0.0
 10
-22.5493
 20
33.2034
 30
0.0
 10
-22.5493
 20
33.4429
 30
0.0
 10
-22.5493
 20
33.4429
 30
0.0
 10
-22.5493
 20
33.4429
 30
0.0
 10
-22.4105
 20
33.5082
 30
0.0
 10
-22.2891
 20
33.5873
 30
0.0
 10
-22.1852
 20
33.6799
 30
0.0
 10
-22.1852
 20
33.6799
 30
0.0
 10
-22.0817
 20
33.7731
 30
0.0
 10
-22.0079
 20
33.8629
 30
0.0
 10
-21.9646
 20
33.9504
 30
0.0
 10
-21.9646
 20
33.9504
 30
0.0
 10
-21.9646
 20
33.9504
 30
0.0
 10
-21.8051
 20
33.9504
 30
0.0
 10
-21.8051
 20
33.9504
 30
0.0
 10
-21.8051
 20
33.9504
 30
0.0
 10
-21.8051
 20
33.9504
 30
0.0
 10
-21.8051
 20
31.9217
 30
0.0
 10
-21.8051
 20
31.9217
 30
0.0
  0
SPLINE
  5
47
330
1F
100
AcDbEntity
  8
ROUND
 62
   250
100
AcDbSpline
210
0.0
220
0.0
230
1.0
 70
    11
 71
     3
 72
    40
 73
    36
 74
     0
 42
0.0000000001
 43
0.0000000001
 40
0.0
 40
0.0
 40
0.0
 40
0.0
 40
0.1
 40
0.1
 40
0.1
 40
0.1
 40
0.2
 40
0.2
 40
0.2
 40
0.2
 40
0.3
 40
0.3
 40
0.3
 40
0.3
 40
0.4
 40
0.4
 40
0.4
 40
0.4
 40
0.5
 40
0.5
 40
0.5
 40
0.5
 40
0.6
 40
0.6
 40
0.6
 40
0.6
 40
0.7
 40
0.7
 40
0.7
 40
0.7
 40
0.8
 40
0.8
 40
0.8
 40
0.8
 40
1.0
 40
1.0
 40
1.0
 40
1.0
 10
-21.0361
 20
31.9217
 30
0.0
 10
-21.0361
 20
31.9217
 30
0.0
 10
-21.0361
 20
32.2044
 30
0.0
 10
-21.0361
 20
32.2044
 30
0.0
 10
-21.0361
 20
32.2044
 30
0.0
 10
-21.0361
 20
32.2044
 30
0.0
 10
-20.7534
 20
32.2044
 30
0.0
 10
-20.7534
 20
32.2044
 30
0.0
 10
-20.7534
 20
32.2044
 30
0.0
 10
-20.7534
 20
32.2044
 30
0.0
 10
-20.7534
 20
31.9217
 30
0.0
 10
-20.7534
 20
31.9217
 30
0.0
 10
-20.7534
 20
31.9217
 30
0.0
 10
-20.7534
 20
31.8177
 30
0.0
 10
-20.7717
 20
31.734
 30
0.0
 10
-20.8084
 20
31.6701
 30
0.0
 10
-20.8084
 20
31.6701
 30
0.0
 10
-20.8456
 20
31.6066
 30
0.0
 10
-20.9039
 20
31.5572
 30
0.0
 10
-20.9834
 20
31.5219
 30
0.0
 10
-20.9834
 20
31.5219
 30
0.0
 10
-20.9834
 20
31.5219
 30
0.0
 10
-21.0526
 20
31.6282
 30
0.0
 10
-21.0526
 20
31.6282
 30
0.0
 10
-21.0526
 20
31.6282
 30
0.0
 10
-21.0003
 20
31.6512
 30
0.0
 10
-20.9618
 20
31.6851
 30
0.0
 10
-20.9368
 20
31.7293
 30
0.0
 10
-20.9368
 20
31.7293
 30
0.0
 10
-20.9119
 20
31.774
 30
0.0
 10
-20.8983
 20
31.838
 30
0.0
 10
-20.8955
 20
31.9217
 30
0.0
 10
-20.8955
 20
31.9217
 30
0.0
 10
-20.8955
 20
31.9217
 30
0.0
 10
-21.0361
 20
31.9217
 30
0.0
 10
-21.0361
 20
31.9217
 30
0.0
  0
SPLINE
  5
48
330
1F
100
AcDbEntity
  8
ROUND
 62
   250
100
AcDbSpline
210
0.0
220
0.0
230
1.0
 70
    11
 71
     3
 72
    92
 73
    88
 74
     0
 42
0.0000000001
 43
0.0000000001
 40
0.0
 40
0.0
 40
0.0
 40
0.0
 40
0.0434782608695652
 40
0.0434782608695652
 40
0.0434782608695652
 40
0.0434782608695652
 40
0.0869565217391304
 40
0.0869565217391304
 40
0.0869565217391304
 40
0.0869565217391304
 40
0.1304347826086956
 40
0.1304347826086956
 40
0.1304347826086956
 40
0.1304347826086956
 40
0.1739130434782609
 40
0.1739130434782609
 40
0.1739130434782609
 40
0.1739130434782609
 40
0.2173913043478261
 40
0.2173913043478261
 40
0.2173913043478261
 40
0.2173913043478261
 40
0.2608695652173913
 40
0.2608695652173913
 40
0.2608695652173913
 40
0.2608695652173913
 40
0.3043478260869565
 40
0.3043478260869565
 40
0.3043478260869565
 40
0.3043478260869565
 40
0.3478260869565217
 40
0.3478260869565217
 40
0.3478260869565217
 40
0.3478260869565217
 40
0.391304347826087
 40
0.391304347826087
 40
0.391304347826087
 40
0.391304347826087
 40
0.4347826086956522
 40
0.4347826086956522
 40
0.4347826086956522
 40
0.4347826086956522
 40
0.4782608695652174
 40
0.4782608695652174
 40
0.4782608695652174
 40
0.4782608695652174
 40
0.5217391304347826
 40
0.5217391304347826
 40
0.5217391304347826
 40
0.5217391304347826
 40
0.5652173913043478
 40
0.5652173913043478
 40
0.5652173913043478
 40
0.5652173913043478
 40
0.6086956521739131
 40
0.6086956521739131
 40
0.6086956521739131
 40
0.6086956521739131
 40
0.6521739130434783
 40
0.6521739130434783
 40
0.6521739130434783
 40
0.6521739130434783
 40
0.6956521739130435
 40
0.6956521739130435
 40
0.6956521739130435
 40
0.6956521739130435
 40
0.7391304347826086
 40
0.7391304347826086
 40
0.7391304347826086
 40
0.7391304347826086
 40
0.782608695652174
 40
0.782608695652174
 40
0.782608695652174
 40
0.782608695652174
 40
0.8260869565217391
 40
0.8260869565217391
 40
0.8260869565217391
 40
0.8260869565217391
 40
0.8695652173913043
 40
0.8695652173913043
 40
0.8695652173913043
 40
0.8695652173913043
 40
0.9130434782608695
 40
0.9130434782608695
 40
0.9130434782608695
 40
0.9130434782608695
 40
1.0
 40
1.0
 40
1.0
 40
1.0
 10
-20.3856
 20
32.4509
 30
0.0
 10
-20.3856
 20
32.4509
 30
0.0
 10
-20.125
 20
32.473
 30
0.0
 10
-20.125
 20
32.473
 30
0.0
 10
-20.125
 20
32.473
 30
0.0
 10
-20.1057
 20
32.346
 30
0.0
 10
-20.061
 20
32.251
 30
0.0
 10
-19.9909
 20
32.187
 30
0.0
 10
-19.9909
 20
32.187
 30
0.0
 10
-19.9204
 20
32.123
 30
0.0
 10
-19.8357
 20
32.091
 30
0.0
 10
-19.7365
 20
32.091
 30
0.0
 10
-19.7365
 20
32.091
 30
0.0
 10
-19.617
 20
32.091
 30
0.0
 10
-19.5159
 20
32.1362
 30
0.0
 10
-19.4336
 20
32.226
 30
0.0
 10
-19.4336
 20
32.226
 30
0.0
 10
-19.3508
 20
32.3163
 30
0.0
 10
-19.3094
 20
32.4358
 30
0.0
 10
-19.3094
 20
32.5844
 30
0.0
 10
-19.3094
 20
32.5844
 30
0.0
 10
-19.3094
 20
32.726
 30
0.0
 10
-19.3489
 20
32.8375
 30
0.0
 10
-19.4284
 20
32.9193
 30
0.0
 10
-19.4284
 20
32.9193
 30
0.0
 10
-19.5079
 20
33.0012
 30
0.0
 10
-19.6118
 20
33.0421
 30
0.0
 10
-19.7407
 20
33.0421
 30
0.0
 10
-19.7407
 20
33.0421
 30
0.0
 10
-19.8207
 20
33.0421
 30
0.0
 10
-19.8926
 20
33.0238
 30
0.0
 10
-19.9571
 20
32.9876
 30
0.0
 10
-19.9571
 20
32.9876
 30
0.0
 10
-20.0215
 20
32.9513
 30
0.0
 10
-20.0718
 20
32.9043
 30
0.0
 10
-20.1085
 20
32.8464
 30
0.0
 10
-20.1085
 20
32.8464
 30
0.0
 10
-20.1085
 20
32.8464
 30
0.0
 10
-20.3414
 20
32.8765
 30
0.0
 10
-20.3414
 20
32.8765
 30
0.0
 10
-20.3414
 20
32.8765
 30
0.0
 10
-20.3414
 20
32.8765
 30
0.0
 10
-20.1457
 20
33.9142
 30
0.0
 10
-20.1457
 20
33.9142
 30
0.0
 10
-20.1457
 20
33.9142
 30
0.0
 10
-20.1457
 20
33.9142
 30
0.0
 10
-19.141
 20
33.9142
 30
0.0
 10
-19.141
 20
33.9142
 30
0.0
 10
-19.141
 20
33.9142
 30
0.0
 10
-19.141
 20
33.9142
 30
0.0
 10
-19.141
 20
33.6771
 30
0.0
 10
-19.141
 20
33.6771
 30
0.0
 10
-19.141
 20
33.6771
 30
0.0
 10
-19.141
 20
33.6771
 30
0.0
 10
-19.9472
 20
33.6771
 30
0.0
 10
-19.9472
 20
33.6771
 30
0.0
 10
-19.9472
 20
33.6771
 30
0.0
 10
-19.9472
 20
33.6771
 30
0.0
 10
-20.0563
 20
33.1343
 30
0.0
 10
-20.0563
 20
33.1343
 30
0.0
 10
-20.0563
 20
33.1343
 30
0.0
 10
-19.935
 20
33.219
 30
0.0
 10
-19.8075
 20
33.2613
 30
0.0
 10
-19.6744
 20
33.2613
 30
0.0
 10
-19.6744
 20
33.2613
 30
0.0
 10
-19.498
 20
33.2613
 30
0.0
 10
-19.3494
 20
33.2002
 30
0.0
 10
-19.228
 20
33.0779
 30
0.0
 10
-19.228
 20
33.0779
 30
0.0
 10
-19.1067
 20
32.9556
 30
0.0
 10
-19.046
 20
32.7985
 30
0.0
 10
-19.046
 20
32.6066
 30
0.0
 10
-19.046
 20
32.6066
 30
0.0
 10
-19.046
 20
32.4236
 30
0.0
 10
-19.0996
 20
32.2655
 30
0.0
 10
-19.2059
 20
32.1324
 30
0.0
 10
-19.2059
 20
32.1324
 30
0.0
 10
-19.3357
 20
31.9692
 30
0.0
 10
-19.5126
 20
31.8874
 30
0.0
 10
-19.7365
 20
31.8874
 30
0.0
 10
-19.7365
 20
31.8874
 30
0.0
 10
-19.9204
 20
31.8874
 30
0.0
 10
-20.0704
 20
31.9386
 30
0.0
 10
-20.1866
 20
32.0416
 30
0.0
 10
-20.1866
 20
32.0416
 30
0.0
 10
-20.3028
 20
32.1447
 30
0.0
 10
-20.3691
 20
32.2811
 30
0.0
 10
-20.3856
 20
32.4509
 30
0.0
  0
SPLINE
  5
49
330
1F
100
AcDbEntity
  8
ROUND
 62
   250
100
AcDbSpline
210
0.0
220
0.0
230
1.0
 70
    24
 71
     3
 72
     8
 73
     4
 74
     0
 42
0.0000000001
 43
0.0000000001
 40
0.0
 40
0.0
 40
0.0
 40
0.0
 40
1.0
 40
1.0
 40
1.0
 40
1.0
 10
-45.0895
 20
27.3839
 30
0.0
 10
-45.0895
 20
27.3839
 30
0.0
 10
-45.0895
 20
31.6629
 30
0.0
 10
-45.0895
 20
31.6629
 30
0.0
  0
SPLINE
  5
4A
330
1F
100
AcDbEntity
  8
ROUND
 62
   250
100
AcDbSpline
210
0.0
220
0.0
230
1.0
 70
    24
 71
     3
 72
     8
 73
     4
 74
     0
 42
0.0000000001
 43
0.0000000001
 40
0.0
 40
0.0
 40
0.0
 40
0.0
 40
1.0
 40
1.0
 40
1.0
 40
1.0
 10
-1.6587
 20
27.423
 30
0.0
 10
-1.6587
 20
27.423
 30
0.0
 10
-1.6587
 20
31.702
 30
0.0
 10
-1.6587
 20
31.702
 30
0.0
  0
SPLINE
  5
4B
330
1F
100
AcDbEntity
  8
ROUND
 62
   250
100
AcDbSpline
210
0.0
220
0.0
230
1.0
 70
    24
 71
     3
 72
     8
 73
     4
 74
     0
 42
0.0000000001
 43
0.0000000001
 40
0.0
 40
0.0
 40
0.0
 40
0.0
 40
1.0
 40
1.0
 40
1.0
 40
1.0
 10
-2.2543
 20
31.2123
 30
0.0
 10
-2.2543
 20
31.2123
 30
0.0
 10
-44.6432
 20
31.2123
 30
0.0
 10
-44.6432
 20
31.2123
 30
0.0
  0
SPLINE
  5
4C
330
1F
100
AcDbEntity
  8
ROUND
 62
   250
100
AcDbSpline
210
0.0
220
0.0
230
1.0
 70
    11
 71
     3
 72
    20
 73
    16
 74
     0
 42
0.0000000001
 43
0.0000000001
 40
0.0
 40
0.0
 40
0.0
 40
0.0
 40
0.2
 40
0.2
 40
0.2
 40
0.2
 40
0.4
 40
0.4
 40
0.4
 40
0.4
 40
0.6
 40
0.6
 40
0.6
 40
0.6
 40
1.0
 40
1.0
 40
1.0
 40
1.0
 10
-4.6655
 20
31.6697
 30
0.0
 10
-4.6655
 20
31.6697
 30
0.0
 10
-1.7312
 20
31.2556
 30
0.0
 10
-1.7312
 20
31.2556
 30
0.0
 10
-1.7312
 20
31.2556
 30
0.0
 10
-1.7312
 20
31.2556
 30
0.0
 10
-1.7312
 20
31.1636
 30
0.0
 10
-1.7312
 20
31.1636
 30
0.0
 10
-1.7312
 20
31.1636
 30
0.0
 10
-1.7312
 20
31.1636
 30
0.0
 10
-4.6655
 20
30.722
 30
0.0
 10
-4.6655
 20
30.722
 30
0.0
 10
-4.6655
 20
30.722
 30
0.0
 10
-4.6655
 20
30.722
 30
0.0
 10
-4.6655
 20
31.6697
 30
0.0
 10
-4.6655
 20
31.6697
 30
0.0
  0
SPLINE
  5
4D
330
1F
100
AcDbEntity
  8
ROUND
 62
   250
100
AcDbSpline
210
0.0
220
0.0
230
1.0
 70
    11
 71
     3
 72
    20
 73
    16
 74
     0
 42
0.0000000001
 43
0.0000000001
 40
0.0
 40
0.0
 40
0.0
 40
0.0
 40
0.2
 40
0.2
 40
0.2
 40
0.2
 40
0.4
 40
0.4
 40
0.4
 40
0.4
 40
0.6
 40
0.6
 40
0.6
 40
0.6
 40
1.0
 40
1.0
 40
1.0
 40
1.0
 10
-42.0718
 20
30.7566
 30
0.0
 10
-42.0718
 20
30.7566
 30
0.0
 10
-45.006
 20
31.1707
 30
0.0
 10
-45.006
 20
31.1707
 30
0.0
 10
-45.006
 20
31.1707
 30
0.0
 10
-45.006
 20
31.1707
 30
0.0
 10
-45.006
 20
31.2627
 30
0.0
 10
-45.006
 20
31.2627
 30
0.0
 10
-45.006
 20
31.2627
 30
0.0
 10
-45.006
 20
31.2627
 30
0.0
 10
-42.0718
 20
31.7043
 30
0.0
 10
-42.0718
 20
31.7043
 30
0.0
 10
-42.0718
 20
31.7043
 30
0.0
 10
-42.0718
 20
31.7043
 30
0.0
 10
-42.0718
 20
30.7566
 30
0.0
 10
-42.0718
 20
30.7566
 30
0.0
  0
SPLINE
  5
4E
330
1F
100
AcDbEntity
  8
ROUND
 62
   250
100
AcDbSpline
210
0.0
220
0.0
230
1.0
 70
    24
 71
     3
 72
     8
 73
     4
 74
     0
 42
0.0000000001
 43
0.0000000001
 40
0.0
 40
0.0
 40
0.0
 40
0.0
 40
1.0
 40
1.0
 40
1.0
 40
1.0
 10
-42.8395
 20
24.4131
 30
0.0
 10
-42.8395
 20
24.4131
 30
0.0
 10
-48.7862
 20
24.4131
 30
0.0
 10
-48.7862
 20
24.4131
 30
0.0
  0
SPLINE
  5
4F
330
1F
100
AcDbEntity
  8
ROUND
 62
   250
100
AcDbSpline
210
0.0
220
0.0
230
1.0
 70
    24
 71
     3
 72
     8
 73
     4
 74
     0
 42
0.0000000001
 43
0.0000000001
 40
0.0
 40
0.0
 40
0.0
 40
0.0
 40
1.0
 40
1.0
 40
1.0
 40
1.0
 10
-45.475
 20
27.153
 30
0.0
 10
-45.475
 20
27.153
 30
0.0
 10
-48.6098
 20
27.153
 30
0.0
 10
-48.6098
 20
27.153
 30
0.0
  0
SPLINE
  5
50
330
1F
100
AcDbEntity
  8
ROUND
 62
   250
100
AcDbSpline
210
0.0
220
0.0
230
1.0
 70
    24
 71
     3
 72
     8
 73
     4
 74
     0
 42
0.0000000001
 43
0.0000000001
 40
0.0
 40
0.0
 40
0.0
 40
0.0
 40
1.0
 40
1.0
 40
1.0
 40
1.0
 10
-48.2778
 20
31.5355
 30
0.0
 10
-48.2778
 20
31.5355
 30
0.0
 10
-48.2778
 20
20.2466
 30
0.0
 10
-48.2778
 20
20.2466
 30
0.0
  0
SPLINE
  5
51
330
1F
100
AcDbEntity
  8
ROUND
 62
   250
100
AcDbSpline
210
0.0
220
0.0
230
1.0
 70
    11
 71
     3
 72
    68
 73
    64
 74
     0
 42
0.0000000001
 43
0.0000000001
 40
0.0
 40
0.0
 40
0.0
 40
0.0
 40
0.0588235294117647
 40
0.0588235294117647
 40
0.0588235294117647
 40
0.0588235294117647
 40
0.1176470588235294
 40
0.1176470588235294
 40
0.1176470588235294
 40
0.1176470588235294
 40
0.1764705882352941
 40
0.1764705882352941
 40
0.1764705882352941
 40
0.1764705882352941
 40
0.2352941176470588
 40
0.2352941176470588
 40
0.2352941176470588
 40
0.2352941176470588
 40
0.2941176470588235
 40
0.2941176470588235
 40
0.2941176470588235
 40
0.2941176470588235
 40
0.3529411764705883
 40
0.3529411764705883
 40
0.3529411764705883
 40
0.3529411764705883
 40
0.4117647058823529
 40
0.4117647058823529
 40
0.4117647058823529
 40
0.4117647058823529
 40
0.4705882352941176
 40
0.4705882352941176
 40
0.4705882352941176
 40
0.4705882352941176
 40
0.5294117647058824
 40
0.5294117647058824
 40
0.5294117647058824
 40
0.5294117647058824
 40
0.5882352941176471
 40
0.5882352941176471
 40
0.5882352941176471
 40
0.5882352941176471
 40
0.6470588235294118
 40
0.6470588235294118
 40
0.6470588235294118
 40
0.6470588235294118
 40
0.7058823529411765
 40
0.7058823529411765
 40
0.7058823529411765
 40
0.7058823529411765
 40
0.7647058823529411
 40
0.7647058823529411
 40
0.7647058823529411
 40
0.7647058823529411
 40
0.8235294117647058
 40
0.8235294117647058
 40
0.8235294117647058
 40
0.8235294117647058
 40
0.8823529411764706
 40
0.8823529411764706
 40
0.8823529411764706
 40
0.8823529411764706
 40
1.0
 40
1.0
 40
1.0
 40
1.0
 10
-49.921
 20
25.5444
 30
0.0
 10
-49.9586
 20
25.4413
 30
0.0
 10
-50.0122
 20
25.3651
 30
0.0
 10
-50.0823
 20
25.3153
 30
0.0
 10
-50.0823
 20
25.3153
 30
0.0
 10
-50.1519
 20
25.2659
 30
0.0
 10
-50.2357
 20
25.241
 30
0.0
 10
-50.333
 20
25.241
 30
0.0
 10
-50.333
 20
25.241
 30
0.0
 10
-50.4802
 20
25.241
 30
0.0
 10
-50.6035
 20
25.2937
 30
0.0
 10
-50.7037
 20
25.3995
 30
0.0
 10
-50.7037
 20
25.3995
 30
0.0
 10
-50.8039
 20
25.5053
 30
0.0
 10
-50.8542
 20
25.6455
 30
0.0
 10
-50.8542
 20
25.8209
 30
0.0
 10
-50.8542
 20
25.8209
 30
0.0
 10
-50.8542
 20
25.9973
 30
0.0
 10
-50.8029
 20
26.1394
 30
0.0
 10
-50.7004
 20
26.2471
 30
0.0
 10
-50.7004
 20
26.2471
 30
0.0
 10
-50.5978
 20
26.3543
 30
0.0
 10
-50.4732
 20
26.408
 30
0.0
 10
-50.326
 20
26.408
 30
0.0
 10
-50.326
 20
26.408
 30
0.0
 10
-50.2324
 20
26.408
 30
0.0
 10
-50.151
 20
26.3835
 30
0.0
 10
-50.0814
 20
26.3346
 30
0.0
 10
-50.0814
 20
26.3346
 30
0.0
 10
-50.0122
 20
26.2852
 30
0.0
 10
-49.9586
 20
26.2109
 30
0.0
 10
-49.921
 20
26.1107
 30
0.0
 10
-49.921
 20
26.1107
 30
0.0
 10
-49.8805
 20
26.2344
 30
0.0
 10
-49.8156
 20
26.3289
 30
0.0
 10
-49.7253
 20
26.3938
 30
0.0
 10
-49.7253
 20
26.3938
 30
0.0
 10
-49.6355
 20
26.4583
 30
0.0
 10
-49.5278
 20
26.4907
 30
0.0
 10
-49.4031
 20
26.4907
 30
0.0
 10
-49.4031
 20
26.4907
 30
0.0
 10
-49.23
 20
26.4907
 30
0.0
 10
-49.0851
 20
26.4296
 30
0.0
 10
-48.9676
 20
26.3078
 30
0.0
 10
-48.9676
 20
26.3078
 30
0.0
 10
-48.85
 20
26.1855
 30
0.0
 10
-48.7912
 20
26.0246
 30
0.0
 10
-48.7912
 20
25.8252
 30
0.0
 10
-48.7912
 20
25.8252
 30
0.0
 10
-48.7912
 20
25.6257
 30
0.0
 10
-48.85
 20
25.4653
 30
0.0
 10
-48.968
 20
25.343
 30
0.0
 10
-48.968
 20
25.343
 30
0.0
 10
-49.0861
 20
25.2207
 30
0.0
 10
-49.2333
 20
25.1596
 30
0.0
 10
-49.4097
 20
25.1596
 30
0.0
 10
-49.4097
 20
25.1596
 30
0.0
 10
-49.5409
 20
25.1596
 30
0.0
 10
-49.651
 20
25.193
 30
0.0
 10
-49.7399
 20
25.2598
 30
0.0
 10
-49.7399
 20
25.2598
 30
0.0
 10
-49.8283
 20
25.3261
 30
0.0
 10
-49.889
 20
25.4211
 30
0.0
 10
-49.921
 20
25.5444
 30
0.0
  0
SPLINE
  5
52
330
1F
100
AcDbEntity
  8
ROUND
 62
   250
100
AcDbSpline
210
0.0
220
0.0
230
1.0
 70
    11
 71
     3
 72
    36
 73
    32
 74
     0
 42
0.0000000001
 43
0.0000000001
 40
0.0
 40
0.0
 40
0.0
 40
0.0
 40
0.1111111111111111
 40
0.1111111111111111
 40
0.1111111111111111
 40
0.1111111111111111
 40
0.2222222222222222
 40
0.2222222222222222
 40
0.2222222222222222
 40
0.2222222222222222
 40
0.3333333333333333
 40
0.3333333333333333
 40
0.3333333333333333
 40
0.3333333333333333
 40
0.4444444444444444
 40
0.4444444444444444
 40
0.4444444444444444
 40
0.4444444444444444
 40
0.5555555555555556
 40
0.5555555555555556
 40
0.5555555555555556
 40
0.5555555555555556
 40
0.6666666666666666
 40
0.6666666666666666
 40
0.6666666666666666
 40
0.6666666666666666
 40
0.7777777777777778
 40
0.7777777777777778
 40
0.7777777777777778
 40
0.7777777777777778
 40
1.0
 40
1.0
 40
1.0
 40
1.0
 10
-50.3415
 20
25.4945
 30
0.0
 10
-50.246
 20
25.4945
 30
0.0
 10
-50.1679
 20
25.5255
 30
0.0
 10
-50.1072
 20
25.5867
 30
0.0
 10
-50.1072
 20
25.5867
 30
0.0
 10
-50.0466
 20
25.6483
 30
0.0
 10
-50.016
 20
25.7283
 30
0.0
 10
-50.016
 20
25.8266
 30
0.0
 10
-50.016
 20
25.8266
 30
0.0
 10
-50.016
 20
25.9221
 30
0.0
 10
-50.0461
 20
26.0006
 30
0.0
 10
-50.1063
 20
26.0618
 30
0.0
 10
-50.1063
 20
26.0618
 30
0.0
 10
-50.1665
 20
26.1229
 30
0.0
 10
-50.2404
 20
26.153
 30
0.0
 10
-50.3274
 20
26.153
 30
0.0
 10
-50.3274
 20
26.153
 30
0.0
 10
-50.4186
 20
26.153
 30
0.0
 10
-50.4948
 20
26.122
 30
0.0
 10
-50.5569
 20
26.0589
 30
0.0
 10
-50.5569
 20
26.0589
 30
0.0
 10
-50.619
 20
25.9959
 30
0.0
 10
-50.6501
 20
25.9178
 30
0.0
 10
-50.6501
 20
25.8238
 30
0.0
 10
-50.6501
 20
25.8238
 30
0.0
 10
-50.6501
 20
25.7292
 30
0.0
 10
-50.6195
 20
25.6507
 30
0.0
 10
-50.5593
 20
25.5881
 30
0.0
 10
-50.5593
 20
25.5881
 30
0.0
 10
-50.4986
 20
25.5255
 30
0.0
 10
-50.4257
 20
25.4945
 30
0.0
 10
-50.3415
 20
25.4945
 30
0.0
  0
SPLINE
  5
53
330
1F
100
AcDbEntity
  8
ROUND
 62
   250
100
AcDbSpline
210
0.0
220
0.0
230
1.0
 70
    11
 71
     3
 72
    40
 73
    36
 74
     0
 42
0.0000000001
 43
0.0000000001
 40
0.0
 40
0.0
 40
0.0
 40
0.0
 40
0.1
 40
0.1
 40
0.1
 40
0.1
 40
0.2
 40
0.2
 40
0.2
 40
0.2
 40
0.3
 40
0.3
 40
0.3
 40
0.3
 40
0.4
 40
0.4
 40
0.4
 40
0.4
 40
0.5
 40
0.5
 40
0.5
 40
0.5
 40
0.6
 40
0.6
 40
0.6
 40
0.6
 40
0.7
 40
0.7
 40
0.7
 40
0.7
 40
0.8
 40
0.8
 40
0.8
 40
0.8
 40
1.0
 40
1.0
 40
1.0
 40
1.0
 10
-49.4083
 20
25.4145
 30
0.0
 10
-49.3377
 20
25.4145
 30
0.0
 10
-49.2691
 20
25.4315
 30
0.0
 10
-49.2032
 20
25.4649
 30
0.0
 10
-49.2032
 20
25.4649
 30
0.0
 10
-49.1369
 20
25.4983
 30
0.0
 10
-49.0856
 20
25.5481
 30
0.0
 10
-49.0494
 20
25.6144
 30
0.0
 10
-49.0494
 20
25.6144
 30
0.0
 10
-49.0132
 20
25.6808
 30
0.0
 10
-48.9948
 20
25.7518
 30
0.0
 10
-48.9948
 20
25.828
 30
0.0
 10
-48.9948
 20
25.828
 30
0.0
 10
-48.9948
 20
25.9465
 30
0.0
 10
-49.0329
 20
26.0444
 30
0.0
 10
-49.1096
 20
26.1215
 30
0.0
 10
-49.1096
 20
26.1215
 30
0.0
 10
-49.1858
 20
26.1986
 30
0.0
 10
-49.2827
 20
26.2372
 30
0.0
 10
-49.4003
 20
26.2372
 30
0.0
 10
-49.4003
 20
26.2372
 30
0.0
 10
-49.5198
 20
26.2372
 30
0.0
 10
-49.6185
 20
26.1977
 30
0.0
 10
-49.6966
 20
26.1182
 30
0.0
 10
-49.6966
 20
26.1182
 30
0.0
 10
-49.7747
 20
26.0387
 30
0.0
 10
-49.8137
 20
25.939
 30
0.0
 10
-49.8137
 20
25.8195
 30
0.0
 10
-49.8137
 20
25.8195
 30
0.0
 10
-49.8137
 20
25.7029
 30
0.0
 10
-49.7752
 20
25.6064
 30
0.0
 10
-49.698
 20
25.5298
 30
0.0
 10
-49.698
 20
25.5298
 30
0.0
 10
-49.6204
 20
25.4531
 30
0.0
 10
-49.524
 20
25.4145
 30
0.0
 10
-49.4083
 20
25.4145
 30
0.0
  0
SPLINE
  5
54
330
1F
100
AcDbEntity
  8
ROUND
 62
   250
100
AcDbSpline
210
0.0
220
0.0
230
1.0
 70
    11
 71
     3
 72
    20
 73
    16
 74
     0
 42
0.0000000001
 43
0.0000000001
 40
0.0
 40
0.0
 40
0.0
 40
0.0
 40
0.2
 40
0.2
 40
0.2
 40
0.2
 40
0.4
 40
0.4
 40
0.4
 40
0.4
 40
0.6
 40
0.6
 40
0.6
 40
0.6
 40
1.0
 40
1.0
 40
1.0
 40
1.0
 10
-48.7292
 20
21.4669
 30
0.0
 10
-48.7292
 20
21.4669
 30
0.0
 10
-48.3151
 20
24.4012
 30
0.0
 10
-48.3151
 20
24.4012
 30
0.0
 10
-48.3151
 20
24.4012
 30
0.0
 10
-48.3151
 20
24.4012
 30
0.0
 10
-48.2231
 20
24.4012
 30
0.0
 10
-48.2231
 20
24.4012
 30
0.0
 10
-48.2231
 20
24.4012
 30
0.0
 10
-48.2231
 20
24.4012
 30
0.0
 10
-47.7815
 20
21.4669
 30
0.0
 10
-47.7815
 20
21.4669
 30
0.0
 10
-47.7815
 20
21.4669
 30
0.0
 10
-47.7815
 20
21.4669
 30
0.0
 10
-48.7292
 20
21.4669
 30
0.0
 10
-48.7292
 20
21.4669
 30
0.0
  0
SPLINE
  5
55
330
1F
100
AcDbEntity
  8
ROUND
 62
   250
100
AcDbSpline
210
0.0
220
0.0
230
1.0
 70
    11
 71
     3
 72
    20
 73
    16
 74
     0
 42
0.0000000001
 43
0.0000000001
 40
0.0
 40
0.0
 40
0.0
 40
0.0
 40
0.2
 40
0.2
 40
0.2
 40
0.2
 40
0.4
 40
0.4
 40
0.4
 40
0.4
 40
0.6
 40
0.6
 40
0.6
 40
0.6
 40
1.0
 40
1.0
 40
1.0
 40
1.0
 10
-47.8163
 20
30.2297
 30
0.0
 10
-47.8163
 20
30.2297
 30
0.0
 10
-48.2305
 20
27.2954
 30
0.0
 10
-48.2305
 20
27.2954
 30
0.0
 10
-48.2305
 20
27.2954
 30
0.0
 10
-48.2305
 20
27.2954
 30
0.0
 10
-48.3224
 20
27.2954
 30
0.0
 10
-48.3224
 20
27.2954
 30
0.0
 10
-48.3224
 20
27.2954
 30
0.0
 10
-48.3224
 20
27.2954
 30
0.0
 10
-48.7641
 20
30.2297
 30
0.0
 10
-48.7641
 20
30.2297
 30
0.0
 10
-48.7641
 20
30.2297
 30
0.0
 10
-48.7641
 20
30.2297
 30
0.0
 10
-47.8163
 20
30.2297
 30
0.0
 10
-47.8163
 20
30.2297
 30
0.0
  0
SPLINE
  5
56
330
1F
100
AcDbEntity
  8
ROUND
100
AcDbSpline
210
0.0
220
0.0
230
1.0
 70
    24
 71
     3
 72
     8
 73
     4
 74
     0
 42
0.0000000001
 43
0.0000000001
 40
0.0
 40
0.0
 40
0.0
 40
0.0
 40
1.0
 40
1.0
 40
1.0
 40
1.0
 10
-42.5218
 20
25.1059
 30
0.0
 10
-42.5218
 20
25.1059
 30
0.0
 10
-42.4891
 20
24.4809
 30
0.0
 10
-42.4891
 20
24.4809
 30
0.0
  0
SPLINE
  5
57
330
1F
100
AcDbEntity
  8
ROUND
100
AcDbSpline
210
0.0
220
0.0
230
1.0
 70
    24
 71
     3
 72
     8
 73
     4
 74
     0
 42
0.0000000001
 43
0.0000000001
 40
0.0
 40
0.0
 40
0.0
 40
0.0
 40
1.0
 40
1.0
 40
1.0
 40
1.0
 10
-42.4891
 20
24.4809
 30
0.0
 10
-42.4891
 20
24.4809
 30
0.0
 10
-14.0662
 20
24.4809
 30
0.0
 10
-14.0662
 20
24.4809
 30
0.0
  0
SPLINE
  5
58
330
1F
100
AcDbEntity
  8
ROUND
100
AcDbSpline
210
0.0
220
0.0
230
1.0
 70
    24
 71
     3
 72
     8
 73
     4
 74
     0
 42
0.0000000001
 43
0.0000000001
 40
0.0
 40
0.0
 40
0.0
 40
0.0
 40
1.0
 40
1.0
 40
1.0
 40
1.0
 10
-2.3999
 20
25.1411
 30
0.0
 10
-2.3999
 20
25.1411
 30
0.0
 10
-23.3259
 20
25.1411
 30
0.0
 10
-23.3259
 20
25.1411
 30
0.0
  0
SPLINE
  5
59
330
1F
100
AcDbEntity
  8
ROUND
100
AcDbSpline
210
0.0
220
0.0
230
1.0
 70
    24
 71
     3
 72
     8
 73
     4
 74
     0
 42
0.0000000001
 43
0.0000000001
 40
0.0
 40
0.0
 40
0.0
 40
0.0
 40
1.0
 40
1.0
 40
1.0
 40
1.0
 10
-2.2012
 20
25.6872
 30
0.0
 10
-2.2012
 20
25.6872
 30
0.0
 10
-23.3259
 20
25.6872
 30
0.0
 10
-23.3259
 20
25.6872
 30
0.0
  0
SPLINE
  5
5A
330
1F
100
AcDbEntity
  8
ROUND
100
AcDbSpline
210
0.0
220
0.0
230
1.0
 70
    24
 71
     3
 72
     8
 73
     4
 74
     0
 42
0.0000000001
 43
0.0000000001
 40
0.0
 40
0.0
 40
0.0
 40
0.0
 40
1.0
 40
1.0
 40
1.0
 40
1.0
 10
-2.2803
 20
25.9308
 30
0.0
 10
-2.2803
 20
25.9308
 30
0.0
 10
-23.3259
 20
25.9308
 30
0.0
 10
-23.3259
 20
25.9308
 30
0.0
  0
SPLINE
  5
5B
330
1F
100
AcDbEntity
  8
ROUND
100
AcDbSpline
210
0.0
220
0.0
230
1.0
 70
    24
 71
     3
 72
     8
 73
     4
 74
     0
 42
0.0000000001
 43
0.0000000001
 40
0.0
 40
0.0
 40
0.0
 40
0.0
 40
1.0
 40
1.0
 40
1.0
 40
1.0
 10
-2.3967
 20
26.1497
 30
0.0
 10
-2.3967
 20
26.1497
 30
0.0
 10
-23.3259
 20
26.1497
 30
0.0
 10
-23.3259
 20
26.1497
 30
0.0
  0
SPLINE
  5
5C
330
1F
100
AcDbEntity
  8
ROUND
100
AcDbSpline
210
0.0
220
0.0
230
1.0
 70
    24
 71
     3
 72
     8
 73
     4
 74
     0
 42
0.0000000001
 43
0.0000000001
 40
0.0
 40
0.0
 40
0.0
 40
0.0
 40
1.0
 40
1.0
 40
1.0
 40
1.0
 10
-1.6468
 20
26.6266
 30
0.0
 10
-1.6468
 20
26.6266
 30
0.0
 10
-23.3259
 20
26.6266
 30
0.0
 10
-23.3259
 20
26.6266
 30
0.0
  0
SPLINE
  5
5D
330
1F
100
AcDbEntity
  8
ROUND
100
AcDbSpline
210
0.0
220
0.0
230
1.0
 70
    24
 71
     3
 72
     8
 73
     4
 74
     0
 42
0.0000000001
 43
0.0000000001
 40
0.0
 40
0.0
 40
0.0
 40
0.0
 40
1.0
 40
1.0
 40
1.0
 40
1.0
 10
-1.6209
 20
27.1218
 30
0.0
 10
-1.6209
 20
27.1218
 30
0.0
 10
-45.031
 20
27.1218
 30
0.0
 10
-45.031
 20
27.1218
 30
0.0
  0
SPLINE
  5
5E
330
1F
100
AcDbEntity
  8
ROUND
100
AcDbSpline
210
0.0
220
0.0
230
1.0
 70
    24
 71
     3
 72
     8
 73
     4
 74
     0
 42
0.0000000001
 43
0.0000000001
 40
0.0
 40
0.0
 40
0.0
 40
0.0
 40
1.0
 40
1.0
 40
1.0
 40
1.0
 10
-14.0316
 20
25.1411
 30
0.0
 10
-14.0316
 20
25.1411
 30
0.0
 10
-14.0662
 20
24.4809
 30
0.0
 10
-14.0662
 20
24.4809
 30
0.0
  0
SPLINE
  5
5F
330
1F
100
AcDbEntity
  8
ROUND
100
AcDbSpline
210
0.0
220
0.0
230
1.0
 70
    24
 71
     3
 72
     8
 73
     4
 74
     0
 42
0.0000000001
 43
0.0000000001
 40
0.0
 40
0.0
 40
0.0
 40
0.0
 40
1.0
 40
1.0
 40
1.0
 40
1.0
 10
-2.3967
 20
26.6266
 30
0.0
 10
-2.3967
 20
26.6266
 30
0.0
 10
-2.3967
 20
26.1497
 30
0.0
 10
-2.3967
 20
26.1497
 30
0.0
  0
SPLINE
  5
60
330
1F
100
AcDbEntity
  8
ROUND
100
AcDbSpline
210
0.0
220
0.0
230
1.0
 70
    24
 71
     3
 72
     8
 73
     4
 74
     0
 42
0.0000000001
 43
0.0000000001
 40
0.0
 40
0.0
 40
0.0
 40
0.0
 40
1.0
 40
1.0
 40
1.0
 40
1.0
 10
-1.6209
 20
27.1218
 30
0.0
 10
-1.6209
 20
27.1218
 30
0.0
 10
-1.6468
 20
26.6266
 30
0.0
 10
-1.6468
 20
26.6266
 30
0.0
  0
SPLINE
  5
61
330
1F
100
AcDbEntity
  8
ROUND
100
AcDbSpline
210
0.0
220
0.0
230
1.0
 70
    24
 71
     3
 72
     8
 73
     4
 74
     0
 42
0.0000000001
 43
0.0000000001
 40
0.0
 40
0.0
 40
0.0
 40
0.0
 40
1.0
 40
1.0
 40
1.0
 40
1.0
 10
-2.2012
 20
25.6872
 30
0.0
 10
-2.2012
 20
25.6872
 30
0.0
 10
-2.3999
 20
25.1411
 30
0.0
 10
-2.3999
 20
25.1411
 30
0.0
  0
SPLINE
  5
62
330
1F
100
AcDbEntity
  8
ROUND
100
AcDbSpline
210
0.0
220
0.0
230
1.0
 70
     8
 71
     3
 72
     8
 73
     4
 74
     0
 42
0.0000000001
 43
0.0000000001
 40
0.0
 40
0.0
 40
0.0
 40
0.0
 40
1.0
 40
1.0
 40
1.0
 40
1.0
 10
-2.3967
 20
26.1497
 30
0.0
 10
-2.3967
 20
26.062
 30
0.0
 10
-2.3531
 20
25.9799
 30
0.0
 10
-2.2803
 20
25.9308
 30
0.0
  0
SPLINE
  5
63
330
1F
100
AcDbEntity
  8
ROUND
100
AcDbSpline
210
0.0
220
0.0
230
1.0
 70
     8
 71
     3
 72
     8
 73
     4
 74
     0
 42
0.0000000001
 43
0.0000000001
 40
0.0
 40
0.0
 40
0.0
 40
0.0
 40
1.0
 40
1.0
 40
1.0
 40
1.0
 10
-2.2803
 20
25.9308
 30
0.0
 10
-2.2011
 20
25.8774
 30
0.0
 10
-2.1685
 20
25.777
 30
0.0
 10
-2.2012
 20
25.6872
 30
0.0
  0
SPLINE
  5
64
330
1F
100
AcDbEntity
  8
ROUND
100
AcDbSpline
210
0.0
220
0.0
230
1.0
 70
    24
 71
     3
 72
     8
 73
     4
 74
     0
 42
0.0000000001
 43
0.0000000001
 40
0.0
 40
0.0
 40
0.0
 40
0.0
 40
1.0
 40
1.0
 40
1.0
 40
1.0
 10
-44.2441
 20
25.1431
 30
0.0
 10
-44.2441
 20
25.1431
 30
0.0
 10
-23.3181
 20
25.1431
 30
0.0
 10
-23.3181
 20
25.1431
 30
0.0
  0
SPLINE
  5
65
330
1F
100
AcDbEntity
  8
ROUND
100
AcDbSpline
210
0.0
220
0.0
230
1.0
 70
    24
 71
     3
 72
     8
 73
     4
 74
     0
 42
0.0000000001
 43
0.0000000001
 40
0.0
 40
0.0
 40
0.0
 40
0.0
 40
1.0
 40
1.0
 40
1.0
 40
1.0
 10
-44.4429
 20
25.6892
 30
0.0
 10
-44.4429
 20
25.6892
 30
0.0
 10
-23.3181
 20
25.6892
 30
0.0
 10
-23.3181
 20
25.6892
 30
0.0
  0
SPLINE
  5
66
330
1F
100
AcDbEntity
  8
ROUND
100
AcDbSpline
210
0.0
220
0.0
230
1.0
 70
    24
 71
     3
 72
     8
 73
     4
 74
     0
 42
0.0000000001
 43
0.0000000001
 40
0.0
 40
0.0
 40
0.0
 40
0.0
 40
1.0
 40
1.0
 40
1.0
 40
1.0
 10
-44.3638
 20
25.9328
 30
0.0
 10
-44.3638
 20
25.9328
 30
0.0
 10
-23.3181
 20
25.9328
 30
0.0
 10
-23.3181
 20
25.9328
 30
0.0
  0
SPLINE
  5
67
330
1F
100
AcDbEntity
  8
ROUND
100
AcDbSpline
210
0.0
220
0.0
230
1.0
 70
    24
 71
     3
 72
     8
 73
     4
 74
     0
 42
0.0000000001
 43
0.0000000001
 40
0.0
 40
0.0
 40
0.0
 40
0.0
 40
1.0
 40
1.0
 40
1.0
 40
1.0
 10
-44.2474
 20
26.1517
 30
0.0
 10
-44.2474
 20
26.1517
 30
0.0
 10
-23.3181
 20
26.1517
 30
0.0
 10
-23.3181
 20
26.1517
 30
0.0
  0
SPLINE
  5
68
330
1F
100
AcDbEntity
  8
ROUND
100
AcDbSpline
210
0.0
220
0.0
230
1.0
 70
    24
 71
     3
 72
     8
 73
     4
 74
     0
 42
0.0000000001
 43
0.0000000001
 40
0.0
 40
0.0
 40
0.0
 40
0.0
 40
1.0
 40
1.0
 40
1.0
 40
1.0
 10
-44.9972
 20
26.6286
 30
0.0
 10
-44.9972
 20
26.6286
 30
0.0
 10
-23.3181
 20
26.6286
 30
0.0
 10
-23.3181
 20
26.6286
 30
0.0
  0
SPLINE
  5
69
330
1F
100
AcDbEntity
  8
ROUND
100
AcDbSpline
210
0.0
220
0.0
230
1.0
 70
    24
 71
     3
 72
     8
 73
     4
 74
     0
 42
0.0000000001
 43
0.0000000001
 40
0.0
 40
0.0
 40
0.0
 40
0.0
 40
1.0
 40
1.0
 40
1.0
 40
1.0
 10
-44.2474
 20
26.6286
 30
0.0
 10
-44.2474
 20
26.6286
 30
0.0
 10
-44.2474
 20
26.1517
 30
0.0
 10
-44.2474
 20
26.1517
 30
0.0
  0
SPLINE
  5
6A
330
1F
100
AcDbEntity
  8
ROUND
100
AcDbSpline
210
0.0
220
0.0
230
1.0
 70
    24
 71
     3
 72
     8
 73
     4
 74
     0
 42
0.0000000001
 43
0.0000000001
 40
0.0
 40
0.0
 40
0.0
 40
0.0
 40
1.0
 40
1.0
 40
1.0
 40
1.0
 10
-45.0232
 20
27.1238
 30
0.0
 10
-45.0232
 20
27.1238
 30
0.0
 10
-44.9972
 20
26.6286
 30
0.0
 10
-44.9972
 20
26.6286
 30
0.0
  0
SPLINE
  5
6B
330
1F
100
AcDbEntity
  8
ROUND
100
AcDbSpline
210
0.0
220
0.0
230
1.0
 70
    24
 71
     3
 72
     8
 73
     4
 74
     0
 42
0.0000000001
 43
0.0000000001
 40
0.0
 40
0.0
 40
0.0
 40
0.0
 40
1.0
 40
1.0
 40
1.0
 40
1.0
 10
-44.4429
 20
25.6892
 30
0.0
 10
-44.4429
 20
25.6892
 30
0.0
 10
-44.2441
 20
25.1431
 30
0.0
 10
-44.2441
 20
25.1431
 30
0.0
  0
SPLINE
  5
6C
330
1F
100
AcDbEntity
  8
ROUND
100
AcDbSpline
210
0.0
220
0.0
230
1.0
 70
     8
 71
     3
 72
     8
 73
     4
 74
     0
 42
0.0000000001
 43
0.0000000001
 40
0.0
 40
0.0
 40
0.0
 40
0.0
 40
1.0
 40
1.0
 40
1.0
 40
1.0
 10
-44.2474
 20
26.1517
 30
0.0
 10
-44.2474
 20
26.064
 30
0.0
 10
-44.291
 20
25.9819
 30
0.0
 10
-44.3638
 20
25.9328
 30
0.0
  0
SPLINE
  5
6D
330
1F
100
AcDbEntity
  8
ROUND
100
AcDbSpline
210
0.0
220
0.0
230
1.0
 70
     8
 71
     3
 72
     8
 73
     4
 74
     0
 42
0.0000000001
 43
0.0000000001
 40
0.0
 40
0.0
 40
0.0
 40
0.0
 40
1.0
 40
1.0
 40
1.0
 40
1.0
 10
-44.3638
 20
25.9328
 30
0.0
 10
-44.4429
 20
25.8794
 30
0.0
 10
-44.4755
 20
25.7789
 30
0.0
 10
-44.4429
 20
25.6892
 30
0.0
  0
SPLINE
  5
6E
330
1F
100
AcDbEntity
  8
ROUND
  6
NEW_LINE1
100
AcDbSpline
210
0.0
220
0.0
230
1.0
 70
    24
 71
     3
 72
     8
 73
     4
 74
     0
 42
0.0000000001
 43
0.0000000001
 40
0.0
 40
0.0
 40
0.0
 40
0.0
 40
1.0
 40
1.0
 40
1.0
 40
1.0
 10
-23.3259
 20
27.1218
 30
0.0
 10
-23.3259
 20
27.1218
 30
0.0
 10
-23.9862
 20
27.1218
 30
0.0
 10
-23.9862
 20
27.1218
 30
0.0
  0
SPLINE
  5
70
330
1F
100
AcDbEntity
  8
ROUND
  6
NEW_LINE2
100
AcDbSpline
210
0.0
220
0.0
230
1.0
 70
    24
 71
     3
 72
     8
 73
     4
 74
     0
 42
0.0000000001
 43
0.0000000001
 40
0.0
 40
0.0
 40
0.0
 40
0.0
 40
1.0
 40
1.0
 40
1.0
 40
1.0
 10
-23.3259
 20
27.1218
 30
0.0
 10
-23.3259
 20
27.1218
 30
0.0
 10
-22.6657
 20
27.1218
 30
0.0
 10
-22.6657
 20
27.1218
 30
0.0
  0
SPLINE
  5
72
330
1F
100
AcDbEntity
  8
ROUND
 62
   250
100
AcDbSpline
210
0.0
220
0.0
230
1.0
 70
    11
 71
     3
 72
    84
 73
    80
 74
     0
 42
0.0000000001
 43
0.0000000001
 40
0.0
 40
0.0
 40
0.0
 40
0.0
 40
0.0476190476190476
 40
0.0476190476190476
 40
0.0476190476190476
 40
0.0476190476190476
 40
0.0952380952380952
 40
0.0952380952380952
 40
0.0952380952380952
 40
0.0952380952380952
 40
0.1428571428571428
 40
0.1428571428571428
 40
0.1428571428571428
 40
0.1428571428571428
 40
0.1904761904761905
 40
0.1904761904761905
 40
0.1904761904761905
 40
0.1904761904761905
 40
0.2380952380952381
 40
0.2380952380952381
 40
0.2380952380952381
 40
0.2380952380952381
 40
0.2857142857142857
 40
0.2857142857142857
 40
0.2857142857142857
 40
0.2857142857142857
 40
0.3333333333333333
 40
0.3333333333333333
 40
0.3333333333333333
 40
0.3333333333333333
 40
0.3809523809523809
 40
0.3809523809523809
 40
0.3809523809523809
 40
0.3809523809523809
 40
0.4285714285714285
 40
0.4285714285714285
 40
0.4285714285714285
 40
0.4285714285714285
 40
0.4761904761904762
 40
0.4761904761904762
 40
0.4761904761904762
 40
0.4761904761904762
 40
0.5238095238095238
 40
0.5238095238095238
 40
0.5238095238095238
 40
0.5238095238095238
 40
0.5714285714285714
 40
0.5714285714285714
 40
0.5714285714285714
 40
0.5714285714285714
 40
0.6190476190476191
 40
0.6190476190476191
 40
0.6190476190476191
 40
0.6190476190476191
 40
0.6666666666666666
 40
0.6666666666666666
 40
0.6666666666666666
 40
0.6666666666666666
 40
0.7142857142857143
 40
0.7142857142857143
 40
0.7142857142857143
 40
0.7142857142857143
 40
0.7619047619047619
 40
0.7619047619047619
 40
0.7619047619047619
 40
0.7619047619047619
 40
0.8095238095238095
 40
0.8095238095238095
 40
0.8095238095238095
 40
0.8095238095238095
 40
0.8571428571428571
 40
0.8571428571428571
 40
0.8571428571428571
 40
0.8571428571428571
 40
0.9047619047619048
 40
0.9047619047619048
 40
0.9047619047619048
 40
0.9047619047619048
 40
1.0
 40
1.0
 40
1.0
 40
1.0
 10
-25.704
 20
-0.638
 30
0.0
 10
-25.704
 20
-0.638
 30
0.0
 10
-25.5475
 20
-0.3279
 30
0.0
 10
-25.5475
 20
-0.3279
 30
0.0
 10
-25.5475
 20
-0.3279
 30
0.0
 10
-25.5475
 20
-0.3279
 30
0.0
 10
-25.3858
 20
-0.4043
 30
0.0
 10
-25.3858
 20
-0.4043
 30
0.0
 10
-25.3858
 20
-0.4043
 30
0.0
 10
-25.3858
 20
-0.4043
 30
0.0
 10
-25.5492
 20
-0.7305
 30
0.0
 10
-25.5492
 20
-0.7305
 30
0.0
 10
-25.5492
 20
-0.7305
 30
0.0
 10
-25.4424
 20
-0.8237
 30
0.0
 10
-25.3645
 20
-0.9094
 30
0.0
 10
-25.3149
 20
-0.9871
 30
0.0
 10
-25.3149
 20
-0.9871
 30
0.0
 10
-25.2494
 20
-1.0895
 30
0.0
 10
-25.1982
 20
-1.2101
 30
0.0
 10
-25.1612
 20
-1.3482
 30
0.0
 10
-25.1612
 20
-1.3482
 30
0.0
 10
-25.1076
 20
-1.5481
 30
0.0
 10
-25.1003
 20
-1.737
 30
0.0
 10
-25.1394
 20
-1.9145
 30
0.0
 10
-25.1394
 20
-1.9145
 30
0.0
 10
-25.1784
 20
-2.0926
 30
0.0
 10
-25.2599
 20
-2.2409
 30
0.0
 10
-25.3843
 20
-2.36
 30
0.0
 10
-25.3843
 20
-2.36
 30
0.0
 10
-25.5093
 20
-2.4787
 30
0.0
 10
-25.6535
 20
-2.5602
 30
0.0
 10
-25.8175
 20
-2.6041
 30
0.0
 10
-25.8175
 20
-2.6041
 30
0.0
 10
-25.9401
 20
-2.637
 30
0.0
 10
-26.0556
 20
-2.6495
 30
0.0
 10
-26.1644
 20
-2.6416
 30
0.0
 10
-26.1644
 20
-2.6416
 30
0.0
 10
-26.2479
 20
-2.6353
 30
0.0
 10
-26.3506
 20
-2.6082
 30
0.0
 10
-26.4731
 20
-2.5602
 30
0.0
 10
-26.4731
 20
-2.5602
 30
0.0
 10
-26.4731
 20
-2.5602
 30
0.0
 10
-26.6295
 20
-2.8705
 30
0.0
 10
-26.6295
 20
-2.8705
 30
0.0
 10
-26.6295
 20
-2.8705
 30
0.0
 10
-26.6295
 20
-2.8705
 30
0.0
 10
-26.7912
 20
-2.794
 30
0.0
 10
-26.7912
 20
-2.794
 30
0.0
 10
-26.7912
 20
-2.794
 30
0.0
 10
-26.7912
 20
-2.794
 30
0.0
 10
-26.627
 20
-2.469
 30
0.0
 10
-26.627
 20
-2.469
 30
0.0
 10
-26.627
 20
-2.469
 30
0.0
 10
-26.7497
 20
-2.3602
 30
0.0
 10
-26.8381
 20
-2.2626
 30
0.0
 10
-26.8923
 20
-2.1768
 30
0.0
 10
-26.8923
 20
-2.1768
 30
0.0
 10
-26.9464
 20
-2.091
 30
0.0
 10
-26.9916
 20
-1.9823
 30
0.0
 10
-27.0268
 20
-1.851
 30
0.0
 10
-27.0268
 20
-1.851
 30
0.0
 10
-27.0805
 20
-1.6507
 30
0.0
 10
-27.0883
 20
-1.4614
 30
0.0
 10
-27.0505
 20
-1.2832
 30
0.0
 10
-27.0505
 20
-1.2832
 30
0.0
 10
-27.0125
 20
-1.105
 30
0.0
 10
-26.9325
 20
-0.9566
 30
0.0
 10
-26.8096
 20
-0.837
 30
0.0
 10
-26.8096
 20
-0.837
 30
0.0
 10
-26.6872
 20
-0.7179
 30
0.0
 10
-26.5376
 20
-0.6345
 30
0.0
 10
-26.3609
 20
-0.5871
 30
0.0
 10
-26.3609
 20
-0.5871
 30
0.0
 10
-26.2418
 20
-0.5552
 30
0.0
 10
-26.1337
 20
-0.5428
 30
0.0
 10
-26.0361
 20
-0.5508
 30
0.0
 10
-26.0361
 20
-0.5508
 30
0.0
 10
-25.9386
 20
-0.5582
 30
0.0
 10
-25.8276
 20
-0.5874
 30
0.0
 10
-25.704
 20
-0.638
 30
0.0
  0
SPLINE
  5
73
330
1F
100
AcDbEntity
  8
ROUND
 62
   250
100
AcDbSpline
210
0.0
220
0.0
230
1.0
 70
    11
 71
     3
 72
    32
 73
    28
 74
     0
 42
0.0000000001
 43
0.0000000001
 40
0.0
 40
0.0
 40
0.0
 40
0.0
 40
0.125
 40
0.125
 40
0.125
 40
0.125
 40
0.25
 40
0.25
 40
0.25
 40
0.25
 40
0.375
 40
0.375
 40
0.375
 40
0.375
 40
0.5
 40
0.5
 40
0.5
 40
0.5
 40
0.625
 40
0.625
 40
0.625
 40
0.625
 40
0.75
 40
0.75
 40
0.75
 40
0.75
 40
1.0
 40
1.0
 40
1.0
 40
1.0
 10
-25.8153
 20
-0.8602
 30
0.0
 10
-25.9165
 20
-0.8173
 30
0.0
 10
-26.0017
 20
-0.7918
 30
0.0
 10
-26.0704
 20
-0.7845
 30
0.0
 10
-26.0704
 20
-0.7845
 30
0.0
 10
-26.1394
 20
-0.7776
 30
0.0
 10
-26.2163
 20
-0.785
 30
0.0
 10
-26.3004
 20
-0.8076
 30
0.0
 10
-26.3004
 20
-0.8076
 30
0.0
 10
-26.4948
 20
-0.8597
 30
0.0
 10
-26.6375
 20
-0.9685
 30
0.0
 10
-26.7294
 20
-1.1344
 30
0.0
 10
-26.7294
 20
-1.1344
 30
0.0
 10
-26.8209
 20
-1.3002
 30
0.0
 10
-26.8318
 20
-1.5139
 30
0.0
 10
-26.7616
 20
-1.776
 30
0.0
 10
-26.7616
 20
-1.776
 30
0.0
 10
-26.734
 20
-1.8787
 30
0.0
 10
-26.6996
 20
-1.9674
 30
0.0
 10
-26.6586
 20
-2.0422
 30
0.0
 10
-26.6586
 20
-2.0422
 30
0.0
 10
-26.6285
 20
-2.0979
 30
0.0
 10
-26.5795
 20
-2.1631
 30
0.0
 10
-26.5107
 20
-2.2377
 30
0.0
 10
-26.5107
 20
-2.2377
 30
0.0
 10
-26.5107
 20
-2.2377
 30
0.0
 10
-25.8153
 20
-0.8602
 30
0.0
 10
-25.8153
 20
-0.8602
 30
0.0
  0
SPLINE
  5
74
330
1F
100
AcDbEntity
  8
ROUND
 62
   250
100
AcDbSpline
210
0.0
220
0.0
230
1.0
 70
    11
 71
     3
 72
    28
 73
    24
 74
     0
 42
0.0000000001
 43
0.0000000001
 40
0.0
 40
0.0
 40
0.0
 40
0.0
 40
0.1428571428571428
 40
0.1428571428571428
 40
0.1428571428571428
 40
0.1428571428571428
 40
0.2857142857142857
 40
0.2857142857142857
 40
0.2857142857142857
 40
0.2857142857142857
 40
0.4285714285714285
 40
0.4285714285714285
 40
0.4285714285714285
 40
0.4285714285714285
 40
0.5714285714285714
 40
0.5714285714285714
 40
0.5714285714285714
 40
0.5714285714285714
 40
0.7142857142857143
 40
0.7142857142857143
 40
0.7142857142857143
 40
0.7142857142857143
 40
1.0
 40
1.0
 40
1.0
 40
1.0
 10
-25.6695
 20
-0.9683
 30
0.0
 10
-25.6695
 20
-0.9683
 30
0.0
 10
-26.3619
 20
-2.3405
 30
0.0
 10
-26.3619
 20
-2.3405
 30
0.0
 10
-26.3619
 20
-2.3405
 30
0.0
 10
-26.2789
 20
-2.3781
 30
0.0
 10
-26.2052
 20
-2.4003
 30
0.0
 10
-26.1415
 20
-2.4071
 30
0.0
 10
-26.1415
 20
-2.4071
 30
0.0
 10
-26.0583
 20
-2.4164
 30
0.0
 10
-25.9726
 20
-2.409
 30
0.0
 10
-25.8848
 20
-2.3855
 30
0.0
 10
-25.8848
 20
-2.3855
 30
0.0
 10
-25.6913
 20
-2.3336
 30
0.0
 10
-25.5501
 20
-2.2228
 30
0.0
 10
-25.4605
 20
-2.0522
 30
0.0
 10
-25.4605
 20
-2.0522
 30
0.0
 10
-25.3712
 20
-1.8817
 30
0.0
 10
-25.3594
 20
-1.673
 30
0.0
 10
-25.4255
 20
-1.4263
 30
0.0
 10
-25.4255
 20
-1.4263
 30
0.0
 10
-25.475
 20
-1.2419
 30
0.0
 10
-25.5563
 20
-1.0889
 30
0.0
 10
-25.6695
 20
-0.9683
 30
0.0
  0
SPLINE
  5
75
330
1F
100
AcDbEntity
  8
ROUND
 62
   250
100
AcDbSpline
210
0.0
220
0.0
230
1.0
 70
    11
 71
     3
 72
    68
 73
    64
 74
     0
 42
0.0000000001
 43
0.0000000001
 40
0.0
 40
0.0
 40
0.0
 40
0.0
 40
0.0588235294117647
 40
0.0588235294117647
 40
0.0588235294117647
 40
0.0588235294117647
 40
0.1176470588235294
 40
0.1176470588235294
 40
0.1176470588235294
 40
0.1176470588235294
 40
0.1764705882352941
 40
0.1764705882352941
 40
0.1764705882352941
 40
0.1764705882352941
 40
0.2352941176470588
 40
0.2352941176470588
 40
0.2352941176470588
 40
0.2352941176470588
 40
0.2941176470588235
 40
0.2941176470588235
 40
0.2941176470588235
 40
0.2941176470588235
 40
0.3529411764705883
 40
0.3529411764705883
 40
0.3529411764705883
 40
0.3529411764705883
 40
0.4117647058823529
 40
0.4117647058823529
 40
0.4117647058823529
 40
0.4117647058823529
 40
0.4705882352941176
 40
0.4705882352941176
 40
0.4705882352941176
 40
0.4705882352941176
 40
0.5294117647058824
 40
0.5294117647058824
 40
0.5294117647058824
 40
0.5294117647058824
 40
0.5882352941176471
 40
0.5882352941176471
 40
0.5882352941176471
 40
0.5882352941176471
 40
0.6470588235294118
 40
0.6470588235294118
 40
0.6470588235294118
 40
0.6470588235294118
 40
0.7058823529411765
 40
0.7058823529411765
 40
0.7058823529411765
 40
0.7058823529411765
 40
0.7647058823529411
 40
0.7647058823529411
 40
0.7647058823529411
 40
0.7647058823529411
 40
0.8235294117647058
 40
0.8235294117647058
 40
0.8235294117647058
 40
0.8235294117647058
 40
0.8823529411764706
 40
0.8823529411764706
 40
0.8823529411764706
 40
0.8823529411764706
 40
1.0
 40
1.0
 40
1.0
 40
1.0
 10
-24.5738
 20
-1.1012
 30
0.0
 10
-24.6831
 20
-1.0916
 30
0.0
 10
-24.7706
 20
-1.0595
 30
0.0
 10
-24.8368
 20
-1.0047
 30
0.0
 10
-24.8368
 20
-1.0047
 30
0.0
 10
-24.9025
 20
-0.9503
 30
0.0
 10
-24.9483
 20
-0.8758
 30
0.0
 10
-24.9735
 20
-0.7818
 30
0.0
 10
-24.9735
 20
-0.7818
 30
0.0
 10
-25.0116
 20
-0.6396
 30
0.0
 10
-24.9926
 20
-0.5068
 30
0.0
 10
-24.9163
 20
-0.3827
 30
0.0
 10
-24.9163
 20
-0.3827
 30
0.0
 10
-24.8401
 20
-0.2585
 30
0.0
 10
-24.7176
 20
-0.1736
 30
0.0
 10
-24.5482
 20
-0.1282
 30
0.0
 10
-24.5482
 20
-0.1282
 30
0.0
 10
-24.3778
 20
-0.0826
 30
0.0
 10
-24.2273
 20
-0.0954
 30
0.0
 10
-24.0967
 20
-0.1665
 30
0.0
 10
-24.0967
 20
-0.1665
 30
0.0
 10
-23.9666
 20
-0.2378
 30
0.0
 10
-23.8825
 20
-0.3443
 30
0.0
 10
-23.8444
 20
-0.4865
 30
0.0
 10
-23.8444
 20
-0.4865
 30
0.0
 10
-23.8202
 20
-0.5769
 30
0.0
 10
-23.8228
 20
-0.6619
 30
0.0
 10
-23.852
 20
-0.7418
 30
0.0
 10
-23.852
 20
-0.7418
 30
0.0
 10
-23.8818
 20
-0.8214
 30
0.0
 10
-23.9397
 20
-0.8924
 30
0.0
 10
-24.0268
 20
-0.9546
 30
0.0
 10
-24.0268
 20
-0.9546
 30
0.0
 10
-23.8968
 20
-0.9617
 30
0.0
 10
-23.7887
 20
-1.0
 30
0.0
 10
-23.7027
 20
-1.0704
 30
0.0
 10
-23.7027
 20
-1.0704
 30
0.0
 10
-23.6171
 20
-1.1404
 30
0.0
 10
-23.558
 20
-1.2361
 30
0.0
 10
-23.5257
 20
-1.3565
 30
0.0
 10
-23.5257
 20
-1.3565
 30
0.0
 10
-23.4809
 20
-1.5237
 30
0.0
 10
-23.5024
 20
-1.6795
 30
0.0
 10
-23.5896
 20
-1.8245
 30
0.0
 10
-23.5896
 20
-1.8245
 30
0.0
 10
-23.6773
 20
-1.9698
 30
0.0
 10
-23.8175
 20
-2.0682
 30
0.0
 10
-24.0101
 20
-2.1198
 30
0.0
 10
-24.0101
 20
-2.1198
 30
0.0
 10
-24.2028
 20
-2.1715
 30
0.0
 10
-24.373
 20
-2.1562
 30
0.0
 10
-24.5217
 20
-2.0739
 30
0.0
 10
-24.5217
 20
-2.0739
 30
0.0
 10
-24.6704
 20
-1.9914
 30
0.0
 10
-24.7675
 20
-1.8651
 30
0.0
 10
-24.8131
 20
-1.6947
 30
0.0
 10
-24.8131
 20
-1.6947
 30
0.0
 10
-24.8471
 20
-1.5679
 30
0.0
 10
-24.8433
 20
-1.453
 30
0.0
 10
-24.8018
 20
-1.3498
 30
0.0
 10
-24.8018
 20
-1.3498
 30
0.0
 10
-24.7606
 20
-1.2472
 30
0.0
 10
-24.6846
 20
-1.164
 30
0.0
 10
-24.5738
 20
-1.1012
 30
0.0
  0
SPLINE
  5
76
330
1F
100
AcDbEntity
  8
ROUND
 62
   250
100
AcDbSpline
210
0.0
220
0.0
230
1.0
 70
    11
 71
     3
 72
    36
 73
    32
 74
     0
 42
0.0000000001
 43
0.0000000001
 40
0.0
 40
0.0
 40
0.0
 40
0.0
 40
0.1111111111111111
 40
0.1111111111111111
 40
0.1111111111111111
 40
0.1111111111111111
 40
0.2222222222222222
 40
0.2222222222222222
 40
0.2222222222222222
 40
0.2222222222222222
 40
0.3333333333333333
 40
0.3333333333333333
 40
0.3333333333333333
 40
0.3333333333333333
 40
0.4444444444444444
 40
0.4444444444444444
 40
0.4444444444444444
 40
0.4444444444444444
 40
0.5555555555555556
 40
0.5555555555555556
 40
0.5555555555555556
 40
0.5555555555555556
 40
0.6666666666666666
 40
0.6666666666666666
 40
0.6666666666666666
 40
0.6666666666666666
 40
0.7777777777777778
 40
0.7777777777777778
 40
0.7777777777777778
 40
0.7777777777777778
 40
1.0
 40
1.0
 40
1.0
 40
1.0
 10
-24.7308
 20
-0.7079
 30
0.0
 10
-24.7061
 20
-0.8002
 30
0.0
 10
-24.6559
 20
-0.8676
 30
0.0
 10
-24.5811
 20
-0.9104
 30
0.0
 10
-24.5811
 20
-0.9104
 30
0.0
 10
-24.5059
 20
-0.953
 30
0.0
 10
-24.4207
 20
-0.9618
 30
0.0
 10
-24.3258
 20
-0.9364
 30
0.0
 10
-24.3258
 20
-0.9364
 30
0.0
 10
-24.2335
 20
-0.9117
 30
0.0
 10
-24.1655
 20
-0.8623
 30
0.0
 10
-24.122
 20
-0.7883
 30
0.0
 10
-24.122
 20
-0.7883
 30
0.0
 10
-24.0785
 20
-0.7143
 30
0.0
 10
-24.0686
 20
-0.6352
 30
0.0
 10
-24.0911
 20
-0.5511
 30
0.0
 10
-24.0911
 20
-0.5511
 30
0.0
 10
-24.1147
 20
-0.463
 30
0.0
 10
-24.1644
 20
-0.3975
 30
0.0
 10
-24.2414
 20
-0.3538
 30
0.0
 10
-24.2414
 20
-0.3538
 30
0.0
 10
-24.3183
 20
-0.3101
 30
0.0
 10
-24.4018
 20
-0.3003
 30
0.0
 10
-24.4926
 20
-0.3246
 30
0.0
 10
-24.4926
 20
-0.3246
 30
0.0
 10
-24.584
 20
-0.3491
 30
0.0
 10
-24.6519
 20
-0.399
 30
0.0
 10
-24.6968
 20
-0.4733
 30
0.0
 10
-24.6968
 20
-0.4733
 30
0.0
 10
-24.7415
 20
-0.5482
 30
0.0
 10
-24.7526
 20
-0.6266
 30
0.0
 10
-24.7308
 20
-0.7079
 30
0.0
  0
SPLINE
  5
77
330
1F
100
AcDbEntity
  8
ROUND
 62
   250
100
AcDbSpline
210
0.0
220
0.0
230
1.0
 70
    11
 71
     3
 72
    40
 73
    36
 74
     0
 42
0.0000000001
 43
0.0000000001
 40
0.0
 40
0.0
 40
0.0
 40
0.0
 40
0.1
 40
0.1
 40
0.1
 40
0.1
 40
0.2
 40
0.2
 40
0.2
 40
0.2
 40
0.3
 40
0.3
 40
0.3
 40
0.3
 40
0.4
 40
0.4
 40
0.4
 40
0.4
 40
0.5
 40
0.5
 40
0.5
 40
0.5
 40
0.6
 40
0.6
 40
0.6
 40
0.6
 40
0.7
 40
0.7
 40
0.7
 40
0.7
 40
0.8
 40
0.8
 40
0.8
 40
0.8
 40
1.0
 40
1.0
 40
1.0
 40
1.0
 10
-24.5666
 20
-1.6301
 30
0.0
 10
-24.5483
 20
-1.6983
 30
0.0
 10
-24.5141
 20
-1.7601
 30
0.0
 10
-24.4648
 20
-1.8151
 30
0.0
 10
-24.4648
 20
-1.8151
 30
0.0
 10
-24.4154
 20
-1.8705
 30
0.0
 10
-24.354
 20
-1.9072
 30
0.0
 10
-24.2806
 20
-1.925
 30
0.0
 10
-24.2806
 20
-1.925
 30
0.0
 10
-24.2071
 20
-1.9428
 30
0.0
 10
-24.1337
 20
-1.9422
 30
0.0
 10
-24.0601
 20
-1.9224
 30
0.0
 10
-24.0601
 20
-1.9224
 30
0.0
 10
-23.9457
 20
-1.8918
 30
0.0
 10
-23.861
 20
-1.8296
 30
0.0
 10
-23.8063
 20
-1.7356
 30
0.0
 10
-23.8063
 20
-1.7356
 30
0.0
 10
-23.7516
 20
-1.642
 30
0.0
 10
-23.7394
 20
-1.5384
 30
0.0
 10
-23.7698
 20
-1.4249
 30
0.0
 10
-23.7698
 20
-1.4249
 30
0.0
 10
-23.8007
 20
-1.3094
 30
0.0
 10
-23.8644
 20
-1.2243
 30
0.0
 10
-23.9614
 20
-1.1694
 30
0.0
 10
-23.9614
 20
-1.1694
 30
0.0
 10
-24.0585
 20
-1.1146
 30
0.0
 10
-24.1648
 20
-1.1027
 30
0.0
 10
-24.2803
 20
-1.1336
 30
0.0
 10
-24.2803
 20
-1.1336
 30
0.0
 10
-24.3929
 20
-1.1638
 30
0.0
 10
-24.4762
 20
-1.226
 30
0.0
 10
-24.5302
 20
-1.3204
 30
0.0
 10
-24.5302
 20
-1.3204
 30
0.0
 10
-24.5842
 20
-1.4152
 30
0.0
 10
-24.5965
 20
-1.5183
 30
0.0
 10
-24.5666
 20
-1.6301
 30
0.0
  0
SPLINE
  5
78
330
1F
100
AcDbEntity
  8
ROUND
 62
   250
100
AcDbSpline
210
0.0
220
0.0
230
1.0
 70
    11
 71
     3
 72
    52
 73
    48
 74
     0
 42
0.0000000001
 43
0.0000000001
 40
0.0
 40
0.0
 40
0.0
 40
0.0
 40
0.0769230769230769
 40
0.0769230769230769
 40
0.0769230769230769
 40
0.0769230769230769
 40
0.1538461538461539
 40
0.1538461538461539
 40
0.1538461538461539
 40
0.1538461538461539
 40
0.2307692307692308
 40
0.2307692307692308
 40
0.2307692307692308
 40
0.2307692307692308
 40
0.3076923076923077
 40
0.3076923076923077
 40
0.3076923076923077
 40
0.3076923076923077
 40
0.3846153846153846
 40
0.3846153846153846
 40
0.3846153846153846
 40
0.3846153846153846
 40
0.4615384615384616
 40
0.4615384615384616
 40
0.4615384615384616
 40
0.4615384615384616
 40
0.5384615384615384
 40
0.5384615384615384
 40
0.5384615384615384
 40
0.5384615384615384
 40
0.6153846153846154
 40
0.6153846153846154
 40
0.6153846153846154
 40
0.6153846153846154
 40
0.6923076923076923
 40
0.6923076923076923
 40
0.6923076923076923
 40
0.6923076923076923
 40
0.7692307692307693
 40
0.7692307692307693
 40
0.7692307692307693
 40
0.7692307692307693
 40
0.8461538461538461
 40
0.8461538461538461
 40
0.8461538461538461
 40
0.8461538461538461
 40
1.0
 40
1.0
 40
1.0
 40
1.0
 10
-23.4009
 20
-0.8897
 30
0.0
 10
-23.4628
 20
-0.6589
 30
0.0
 10
-23.4889
 20
-0.4667
 30
0.0
 10
-23.4788
 20
-0.3136
 30
0.0
 10
-23.4788
 20
-0.3136
 30
0.0
 10
-23.4693
 20
-0.1601
 30
0.0
 10
-23.4275
 20
-0.0325
 30
0.0
 10
-23.3544
 20
0.069
 30
0.0
 10
-23.3544
 20
0.069
 30
0.0
 10
-23.2812
 20
0.1704
 30
0.0
 10
-23.1738
 20
0.24
 30
0.0
 10
-23.0321
 20
0.278
 30
0.0
 10
-23.0321
 20
0.278
 30
0.0
 10
-22.9271
 20
0.3061
 30
0.0
 10
-22.8296
 20
0.3094
 30
0.0
 10
-22.7393
 20
0.2882
 30
0.0
 10
-22.7393
 20
0.2882
 30
0.0
 10
-22.649
 20
0.2677
 30
0.0
 10
-22.5677
 20
0.2242
 30
0.0
 10
-22.4946
 20
0.1586
 30
0.0
 10
-22.4946
 20
0.1586
 30
0.0
 10
-22.422
 20
0.0928
 30
0.0
 10
-22.3556
 20
0.0069
 30
0.0
 10
-22.296
 20
-0.0993
 30
0.0
 10
-22.296
 20
-0.0993
 30
0.0
 10
-22.2358
 20
-0.2055
 30
0.0
 10
-22.1802
 20
-0.3552
 30
0.0
 10
-22.1283
 20
-0.5488
 30
0.0
 10
-22.1283
 20
-0.5488
 30
0.0
 10
-22.067
 20
-0.7777
 30
0.0
 10
-22.0411
 20
-0.9685
 30
0.0
 10
-22.0502
 20
-1.1219
 30
0.0
 10
-22.0502
 20
-1.1219
 30
0.0
 10
-22.0597
 20
-1.2754
 30
0.0
 10
-22.1011
 20
-1.4028
 30
0.0
 10
-22.1741
 20
-1.5047
 30
0.0
 10
-22.1741
 20
-1.5047
 30
0.0
 10
-22.2471
 20
-1.6065
 30
0.0
 10
-22.355
 20
-1.6763
 30
0.0
 10
-22.4982
 20
-1.7147
 30
0.0
 10
-22.4982
 20
-1.7147
 30
0.0
 10
-22.6862
 20
-1.7651
 30
0.0
 10
-22.8519
 20
-1.7374
 30
0.0
 10
-22.9953
 20
-1.6312
 30
0.0
 10
-22.9953
 20
-1.6312
 30
0.0
 10
-23.1673
 20
-1.5035
 30
0.0
 10
-23.3028
 20
-1.2559
 30
0.0
 10
-23.4009
 20
-0.8897
 30
0.0
  0
SPLINE
  5
79
330
1F
100
AcDbEntity
  8
ROUND
 62
   250
100
AcDbSpline
210
0.0
220
0.0
230
1.0
 70
    11
 71
     3
 72
    36
 73
    32
 74
     0
 42
0.0000000001
 43
0.0000000001
 40
0.0
 40
0.0
 40
0.0
 40
0.0
 40
0.1111111111111111
 40
0.1111111111111111
 40
0.1111111111111111
 40
0.1111111111111111
 40
0.2222222222222222
 40
0.2222222222222222
 40
0.2222222222222222
 40
0.2222222222222222
 40
0.3333333333333333
 40
0.3333333333333333
 40
0.3333333333333333
 40
0.3333333333333333
 40
0.4444444444444444
 40
0.4444444444444444
 40
0.4444444444444444
 40
0.4444444444444444
 40
0.5555555555555556
 40
0.5555555555555556
 40
0.5555555555555556
 40
0.5555555555555556
 40
0.6666666666666666
 40
0.6666666666666666
 40
0.6666666666666666
 40
0.6666666666666666
 40
0.7777777777777778
 40
0.7777777777777778
 40
0.7777777777777778
 40
0.7777777777777778
 40
1.0
 40
1.0
 40
1.0
 40
1.0
 10
-23.1546
 20
-0.8237
 30
0.0
 10
-23.0688
 20
-1.1441
 30
0.0
 10
-22.974
 20
-1.347
 30
0.0
 10
-22.8706
 20
-1.4332
 30
0.0
 10
-22.8706
 20
-1.4332
 30
0.0
 10
-22.7673
 20
-1.519
 30
0.0
 10
-22.6608
 20
-1.5475
 30
0.0
 10
-22.5509
 20
-1.518
 30
0.0
 10
-22.5509
 20
-1.518
 30
0.0
 10
-22.4405
 20
-1.4885
 30
0.0
 10
-22.3626
 20
-1.4101
 30
0.0
 10
-22.3161
 20
-1.2837
 30
0.0
 10
-22.3161
 20
-1.2837
 30
0.0
 10
-22.2697
 20
-1.1573
 30
0.0
 10
-22.289
 20
-0.9341
 30
0.0
 10
-22.3745
 20
-0.6147
 30
0.0
 10
-22.3745
 20
-0.6147
 30
0.0
 10
-22.4606
 20
-0.2935
 30
0.0
 10
-22.5556
 20
-0.09
 30
0.0
 10
-22.6588
 20
-0.0047
 30
0.0
 10
-22.6588
 20
-0.0047
 30
0.0
 10
-22.7621
 20
0.0811
 30
0.0
 10
-22.8694
 20
0.1088
 30
0.0
 10
-22.9811
 20
0.0788
 30
0.0
 10
-22.9811
 20
0.0788
 30
0.0
 10
-23.0915
 20
0.0492
 30
0.0
 10
-23.1667
 20
-0.021
 30
0.0
 10
-23.2076
 20
-0.1318
 30
0.0
 10
-23.2076
 20
-0.1318
 30
0.0
 10
-23.258
 20
-0.2724
 30
0.0
 10
-23.2405
 20
-0.5034
 30
0.0
 10
-23.1546
 20
-0.8237
 30
0.0
  0
SPLINE
  5
7A
330
1F
100
AcDbEntity
  8
ROUND
 62
   250
100
AcDbSpline
210
0.0
220
0.0
230
1.0
 70
    24
 71
     3
 72
     8
 73
     4
 74
     0
 42
0.0000000001
 43
0.0000000001
 40
0.0
 40
0.0
 40
0.0
 40
0.0
 40
1.0
 40
1.0
 40
1.0
 40
1.0
 10
-16.154
 20
-0.565
 30
0.0
 10
-16.154
 20
-0.565
 30
0.0
 10
-36.091
 20
-5.9071
 30
0.0
 10
-36.091
 20
-5.9071
 30
0.0
  0
SPLINE
  5
7B
330
1F
100
AcDbEntity
  8
ROUND
 62
   250
100
AcDbSpline
210
0.0
220
0.0
230
1.0
 70
    11
 71
     3
 72
    20
 73
    16
 74
     0
 42
0.0000000001
 43
0.0000000001
 40
0.0
 40
0.0
 40
0.0
 40
0.0
 40
0.2
 40
0.2
 40
0.2
 40
0.2
 40
0.4
 40
0.4
 40
0.4
 40
0.4
 40
0.6
 40
0.6
 40
0.6
 40
0.6
 40
1.0
 40
1.0
 40
1.0
 40
1.0
 10
-18.2644
 20
-0.6021
 30
0.0
 10
-18.2644
 20
-0.6021
 30
0.0
 10
-15.323
 20
-0.2427
 30
0.0
 10
-15.323
 20
-0.2427
 30
0.0
 10
-15.323
 20
-0.2427
 30
0.0
 10
-15.323
 20
-0.2427
 30
0.0
 10
-15.2992
 20
-0.3315
 30
0.0
 10
-15.2992
 20
-0.3315
 30
0.0
 10
-15.2992
 20
-0.3315
 30
0.0
 10
-15.2992
 20
-0.3315
 30
0.0
 10
-18.0191
 20
-1.5176
 30
0.0
 10
-18.0191
 20
-1.5176
 30
0.0
 10
-18.0191
 20
-1.5176
 30
0.0
 10
-18.0191
 20
-1.5176
 30
0.0
 10
-18.2644
 20
-0.6021
 30
0.0
 10
-18.2644
 20
-0.6021
 30
0.0
  0
SPLINE
  5
7C
330
1F
100
AcDbEntity
  8
ROUND
 62
   250
100
AcDbSpline
210
0.0
220
0.0
230
1.0
 70
    11
 71
     3
 72
    20
 73
    16
 74
     0
 42
0.0000000001
 43
0.0000000001
 40
0.0
 40
0.0
 40
0.0
 40
0.0
 40
0.2
 40
0.2
 40
0.2
 40
0.2
 40
0.4
 40
0.4
 40
0.4
 40
0.4
 40
0.6
 40
0.6
 40
0.6
 40
0.6
 40
1.0
 40
1.0
 40
1.0
 40
1.0
 10
-33.4128
 20
-5.7167
 30
0.0
 10
-33.4128
 20
-5.7167
 30
0.0
 10
-36.3543
 20
-6.0762
 30
0.0
 10
-36.3543
 20
-6.0762
 30
0.0
 10
-36.3543
 20
-6.0762
 30
0.0
 10
-36.3543
 20
-6.0762
 30
0.0
 10
-36.3781
 20
-5.9873
 30
0.0
 10
-36.3781
 20
-5.9873
 30
0.0
 10
-36.3781
 20
-5.9873
 30
0.0
 10
-36.3781
 20
-5.9873
 30
0.0
 10
-33.6581
 20
-4.8013
 30
0.0
 10
-33.6581
 20
-4.8013
 30
0.0
 10
-33.6581
 20
-4.8013
 30
0.0
 10
-33.6581
 20
-4.8013
 30
0.0
 10
-33.4128
 20
-5.7167
 30
0.0
 10
-33.4128
 20
-5.7167
 30
0.0
  0
SPLINE
  5
7D
330
1F
100
AcDbEntity
  8
ROUND
 62
   250
100
AcDbSpline
210
0.0
220
0.0
230
1.0
 70
    11
 71
     3
 72
    20
 73
    16
 74
     0
 42
0.0000000001
 43
0.0000000001
 40
0.0
 40
0.0
 40
0.0
 40
0.0
 40
0.2
 40
0.2
 40
0.2
 40
0.2
 40
0.4
 40
0.4
 40
0.4
 40
0.4
 40
0.6
 40
0.6
 40
0.6
 40
0.6
 40
1.0
 40
1.0
 40
1.0
 40
1.0
 10
-31.0587
 20
-5.0824
 30
0.0
 10
-31.0587
 20
-5.0824
 30
0.0
 10
-34.0002
 20
-5.4419
 30
0.0
 10
-34.0002
 20
-5.4419
 30
0.0
 10
-34.0002
 20
-5.4419
 30
0.0
 10
-34.0002
 20
-5.4419
 30
0.0
 10
-34.024
 20
-5.353
 30
0.0
 10
-34.024
 20
-5.353
 30
0.0
 10
-34.024
 20
-5.353
 30
0.0
 10
-34.024
 20
-5.353
 30
0.0
 10
-31.304
 20
-4.167
 30
0.0
 10
-31.304
 20
-4.167
 30
0.0
 10
-31.304
 20
-4.167
 30
0.0
 10
-31.304
 20
-4.167
 30
0.0
 10
-31.0587
 20
-5.0824
 30
0.0
 10
-31.0587
 20
-5.0824
 30
0.0
  0
SPLINE
  5
7E
330
1F
100
AcDbEntity
  8
ROUND
100
AcDbSpline
210
0.0
220
0.0
230
1.0
 70
     8
 71
     3
 72
     8
 73
     4
 74
     0
 42
0.0000000001
 43
0.0000000001
 40
0.0
 40
0.0
 40
0.0
 40
0.0
 40
1.0
 40
1.0
 40
1.0
 40
1.0
 10
-23.326
 20
17.7293
 30
0.0
 10
-35.3132
 20
17.7293
 30
0.0
 10
-45.031
 20
8.0115
 30
0.0
 10
-45.031
 20
-3.9757
 30
0.0
  0
SPLINE
  5
7F
330
1F
100
AcDbEntity
  8
ROUND
100
AcDbSpline
210
0.0
220
0.0
230
1.0
 70
     8
 71
     3
 72
     8
 73
     4
 74
     0
 42
0.0000000001
 43
0.0000000001
 40
0.0
 40
0.0
 40
0.0
 40
0.0
 40
1.0
 40
1.0
 40
1.0
 40
1.0
 10
-1.6209
 20
-3.9065
 30
0.0
 10
-1.6583
 20
8.0489
 30
0.0
 10
-11.3617
 20
17.7293
 30
0.0
 10
-23.326
 20
17.7293
 30
0.0
  0
SPLINE
  5
80
330
1F
100
AcDbEntity
  8
ROUND
100
AcDbSpline
210
0.0
220
0.0
230
1.0
 70
    24
 71
     3
 72
     8
 73
     4
 74
     0
 42
0.0000000001
 43
0.0000000001
 40
0.0
 40
0.0
 40
0.0
 40
0.0
 40
1.0
 40
1.0
 40
1.0
 40
1.0
 10
-1.6209
 20
-3.9757
 30
0.0
 10
-1.6209
 20
-3.9527
 30
0.0
 10
-1.6209
 20
-3.9296
 30
0.0
 10
-1.6209
 20
-3.9065
 30
0.0
  0
SPLINE
  5
81
330
1F
100
AcDbEntity
  8
ROUND
100
AcDbSpline
210
0.0
220
0.0
230
1.0
 70
     8
 71
     3
 72
    12
 73
     8
 74
     0
 42
0.0000000001
 43
0.0000000001
 40
0.0
 40
0.0
 40
0.0
 40
0.0
 40
0.3333333333333333
 40
0.3333333333333333
 40
0.3333333333333333
 40
0.3333333333333333
 40
1.0
 40
1.0
 40
1.0
 40
1.0
 10
-14.522
 20
-3.9757
 30
0.0
 10
-14.522
 20
3.6213
 30
0.0
 10
-20.6806
 20
9.7799
 30
0.0
 10
-28.2776
 20
9.7799
 30
0.0
 10
-28.2776
 20
9.7799
 30
0.0
 10
-35.8746
 20
9.7799
 30
0.0
 10
-42.0332
 20
3.6213
 30
0.0
 10
-42.0332
 20
-3.9757
 30
0.0
  0
SPLINE
  5
82
330
1F
100
AcDbEntity
  8
ROUND
100
AcDbSpline
210
0.0
220
0.0
230
1.0
 70
     8
 71
     3
 72
    12
 73
     8
 74
     0
 42
0.0000000001
 43
0.0000000001
 40
0.0
 40
0.0
 40
0.0
 40
0.0
 40
0.3333333333333333
 40
0.3333333333333333
 40
0.3333333333333333
 40
0.3333333333333333
 40
1.0
 40
1.0
 40
1.0
 40
1.0
 10
-14.6604
 20
-3.9757
 30
0.0
 10
-14.6604
 20
3.5448
 30
0.0
 10
-20.7571
 20
9.6414
 30
0.0
 10
-28.2776
 20
9.6414
 30
0.0
 10
-28.2776
 20
9.6414
 30
0.0
 10
-35.7983
 20
9.6414
 30
0.0
 10
-41.8949
 20
3.5448
 30
0.0
 10
-41.8949
 20
-3.9757
 30
0.0
  0
SPLINE
  5
83
330
1F
100
AcDbEntity
  8
ROUND
  6
NEW_LINE3
 62
   250
100
AcDbSpline
210
0.0
220
0.0
230
1.0
 70
    24
 71
     3
 72
     8
 73
     4
 74
     0
 42
0.0000000001
 43
0.0000000001
 40
0.0
 40
0.0
 40
0.0
 40
0.0
 40
1.0
 40
1.0
 40
1.0
 40
1.0
 10
-46.9811
 20
-3.9193
 30
0.0
 10
-46.9811
 20
-3.9193
 30
0.0
 10
0.0541
 20
-3.9193
 30
0.0
 10
0.0541
 20
-3.9193
 30
0.0
  0
SPLINE
  5
85
330
1F
100
AcDbEntity
  8
ROUND
  6
NEW_LINE4
 62
   250
100
AcDbSpline
210
0.0
220
0.0
230
1.0
 70
    24
 71
     3
 72
     8
 73
     4
 74
     0
 42
0.0000000001
 43
0.0000000001
 40
0.0
 40
0.0
 40
0.0
 40
0.0
 40
1.0
 40
1.0
 40
1.0
 40
1.0
 10
-23.4635
 20
-5.8105
 30
0.0
 10
-23.4635
 20
-5.8105
 30
0.0
 10
-23.4635
 20
-2.8562
 30
0.0
 10
-23.4635
 20
-2.8562
 30
0.0
  0
SPLINE
  5
87
330
1F
100
AcDbEntity
  8
ROUND
  6
NEW_LINE5
 62
   250
100
AcDbSpline
210
0.0
220
0.0
230
1.0
 70
    24
 71
     3
 72
     8
 73
     4
 74
     0
 42
0.0000000001
 43
0.0000000001
 40
0.0
 40
0.0
 40
0.0
 40
0.0
 40
1.0
 40
1.0
 40
1.0
 40
1.0
 10
-28.5435
 20
-5.8105
 30
0.0
 10
-28.5435
 20
-5.8105
 30
0.0
 10
-28.5435
 20
19.5983
 30
0.0
 10
-28.5435
 20
19.5983
 30
0.0
  0
SPLINE
  5
89
330
1F
100
AcDbEntity
  8
ROUND
  6
NEW_LINE6
 62
   250
100
AcDbSpline
210
0.0
220
0.0
230
1.0
 70
    24
 71
     3
 72
     8
 73
     4
 74
     0
 42
0.0000000001
 43
0.0000000001
 40
0.0
 40
0.0
 40
0.0
 40
0.0
 40
1.0
 40
1.0
 40
1.0
 40
1.0
 10
-23.4635
 20
1.0902
 30
0.0
 10
-23.4635
 20
1.0902
 30
0.0
 10
-23.4635
 20
27.9903
 30
0.0
 10
-23.4635
 20
27.9903
 30
0.0
  0
SPLINE
  5
8B
330
1F
100
AcDbEntity
  8
ROUND
100
AcDbSpline
210
0.0
220
0.0
230
1.0
 70
     8
 71
     3
 72
     8
 73
     4
 74
     0
 42
0.0000000001
 43
0.0000000001
 40
0.0
 40
0.0
 40
0.0
 40
0.0
 40
1.0
 40
1.0
 40
1.0
 40
1.0
 10
-23.3646
 20
-10.3255
 30
0.0
 10
-35.2978
 20
-10.3255
 30
0.0
 10
-44.9818
 20
-19.9556
 30
0.0
 10
-45.069
 20
-31.8682
 30
0.0
  0
SPLINE
  5
8C
330
1F
100
AcDbEntity
  8
ROUND
100
AcDbSpline
210
0.0
220
0.0
230
1.0
 70
     8
 71
     3
 72
     8
 73
     4
 74
     0
 42
0.0000000001
 43
0.0000000001
 40
0.0
 40
0.0
 40
0.0
 40
0.0
 40
1.0
 40
1.0
 40
1.0
 40
1.0
 10
-1.6602
 20
-31.8624
 30
0.0
 10
-1.7506
 20
-19.9525
 30
0.0
 10
-11.4334
 20
-10.3255
 30
0.0
 10
-23.3646
 20
-10.3255
 30
0.0
  0
SPLINE
  5
8D
330
1F
100
AcDbEntity
  8
ROUND
100
AcDbSpline
210
0.0
220
0.0
230
1.0
 70
     8
 71
     3
 72
     8
 73
     4
 74
     0
 42
0.0000000001
 43
0.0000000001
 40
0.0
 40
0.0
 40
0.0
 40
0.0
 40
1.0
 40
1.0
 40
1.0
 40
1.0
 10
-1.6596
 20
-32.0305
 30
0.0
 10
-1.6596
 20
-31.9744
 30
0.0
 10
-1.6598
 20
-31.9184
 30
0.0
 10
-1.6602
 20
-31.8624
 30
0.0
  0
SPLINE
  5
8E
330
1F
100
AcDbEntity
  8
ROUND
100
AcDbSpline
210
0.0
220
0.0
230
1.0
 70
     8
 71
     3
 72
    12
 73
     8
 74
     0
 42
0.0000000001
 43
0.0000000001
 40
0.0
 40
0.0
 40
0.0
 40
0.0
 40
0.3333333333333333
 40
0.3333333333333333
 40
0.3333333333333333
 40
0.3333333333333333
 40
1.0
 40
1.0
 40
1.0
 40
1.0
 10
-11.2601
 20
-31.9005
 30
0.0
 10
-11.3299
 20
-23.4518
 30
0.0
 10
-18.2005
 20
-16.6243
 30
0.0
 10
-26.6657
 20
-16.6243
 30
0.0
 10
-26.6657
 20
-16.6243
 30
0.0
 10
-35.1143
 20
-16.6243
 30
0.0
 10
-41.9746
 20
-23.4251
 30
0.0
 10
-42.0709
 20
-31.8508
 30
0.0
  0
SPLINE
  5
8F
330
1F
100
AcDbEntity
  8
ROUND
100
AcDbSpline
210
0.0
220
0.0
230
1.0
 70
     8
 71
     3
 72
     8
 73
     4
 74
     0
 42
0.0000000001
 43
0.0000000001
 40
0.0
 40
0.0
 40
0.0
 40
0.0
 40
1.0
 40
1.0
 40
1.0
 40
1.0
 10
-26.6657
 20
-16.7627
 30
0.0
 10
-35.0418
 20
-16.7627
 30
0.0
 10
-41.8424
 20
-23.5076
 30
0.0
 10
-41.9326
 20
-31.8622
 30
0.0
  0
SPLINE
  5
90
330
1F
100
AcDbEntity
  8
ROUND
100
AcDbSpline
210
0.0
220
0.0
230
1.0
 70
     8
 71
     3
 72
     8
 73
     4
 74
     0
 42
0.0000000001
 43
0.0000000001
 40
0.0
 40
0.0
 40
0.0
 40
0.0
 40
1.0
 40
1.0
 40
1.0
 40
1.0
 10
-11.3991
 20
-31.8403
 30
0.0
 10
-11.501
 20
-23.4958
 30
0.0
 10
-18.2971
 20
-16.7627
 30
0.0
 10
-26.6657
 20
-16.7627
 30
0.0
  0
SPLINE
  5
91
330
1F
100
AcDbEntity
  8
ROUND
100
AcDbSpline
210
0.0
220
0.0
230
1.0
 70
     8
 71
     3
 72
     8
 73
     4
 74
     0
 42
0.0000000001
 43
0.0000000001
 40
0.0
 40
0.0
 40
0.0
 40
0.0
 40
1.0
 40
1.0
 40
1.0
 40
1.0
 10
-11.398
 20
-32.0305
 30
0.0
 10
-11.398
 20
-31.967
 30
0.0
 10
-11.3984
 20
-31.9036
 30
0.0
 10
-11.3991
 20
-31.8403
 30
0.0
  0
SPLINE
  5
92
330
1F
100
AcDbEntity
  8
ROUND
 62
   250
100
AcDbSpline
210
0.0
220
0.0
230
1.0
 70
    11
 71
     3
 72
    84
 73
    80
 74
     0
 42
0.0000000001
 43
0.0000000001
 40
0.0
 40
0.0
 40
0.0
 40
0.0
 40
0.0476190476190476
 40
0.0476190476190476
 40
0.0476190476190476
 40
0.0476190476190476
 40
0.0952380952380952
 40
0.0952380952380952
 40
0.0952380952380952
 40
0.0952380952380952
 40
0.1428571428571428
 40
0.1428571428571428
 40
0.1428571428571428
 40
0.1428571428571428
 40
0.1904761904761905
 40
0.1904761904761905
 40
0.1904761904761905
 40
0.1904761904761905
 40
0.2380952380952381
 40
0.2380952380952381
 40
0.2380952380952381
 40
0.2380952380952381
 40
0.2857142857142857
 40
0.2857142857142857
 40
0.2857142857142857
 40
0.2857142857142857
 40
0.3333333333333333
 40
0.3333333333333333
 40
0.3333333333333333
 40
0.3333333333333333
 40
0.3809523809523809
 40
0.3809523809523809
 40
0.3809523809523809
 40
0.3809523809523809
 40
0.4285714285714285
 40
0.4285714285714285
 40
0.4285714285714285
 40
0.4285714285714285
 40
0.4761904761904762
 40
0.4761904761904762
 40
0.4761904761904762
 40
0.4761904761904762
 40
0.5238095238095238
 40
0.5238095238095238
 40
0.5238095238095238
 40
0.5238095238095238
 40
0.5714285714285714
 40
0.5714285714285714
 40
0.5714285714285714
 40
0.5714285714285714
 40
0.6190476190476191
 40
0.6190476190476191
 40
0.6190476190476191
 40
0.6190476190476191
 40
0.6666666666666666
 40
0.6666666666666666
 40
0.6666666666666666
 40
0.6666666666666666
 40
0.7142857142857143
 40
0.7142857142857143
 40
0.7142857142857143
 40
0.7142857142857143
 40
0.7619047619047619
 40
0.7619047619047619
 40
0.7619047619047619
 40
0.7619047619047619
 40
0.8095238095238095
 40
0.8095238095238095
 40
0.8095238095238095
 40
0.8095238095238095
 40
0.8571428571428571
 40
0.8571428571428571
 40
0.8571428571428571
 40
0.8571428571428571
 40
0.9047619047619048
 40
0.9047619047619048
 40
0.9047619047619048
 40
0.9047619047619048
 40
1.0
 40
1.0
 40
1.0
 40
1.0
 10
-24.9543
 20
-28.3796
 30
0.0
 10
-24.9543
 20
-28.3796
 30
0.0
 10
-24.7978
 20
-28.0695
 30
0.0
 10
-24.7978
 20
-28.0695
 30
0.0
 10
-24.7978
 20
-28.0695
 30
0.0
 10
-24.7978
 20
-28.0695
 30
0.0
 10
-24.6361
 20
-28.1459
 30
0.0
 10
-24.6361
 20
-28.1459
 30
0.0
 10
-24.6361
 20
-28.1459
 30
0.0
 10
-24.6361
 20
-28.1459
 30
0.0
 10
-24.7995
 20
-28.4721
 30
0.0
 10
-24.7995
 20
-28.4721
 30
0.0
 10
-24.7995
 20
-28.4721
 30
0.0
 10
-24.6927
 20
-28.5653
 30
0.0
 10
-24.6148
 20
-28.651
 30
0.0
 10
-24.5652
 20
-28.7287
 30
0.0
 10
-24.5652
 20
-28.7287
 30
0.0
 10
-24.4997
 20
-28.8311
 30
0.0
 10
-24.4485
 20
-28.9517
 30
0.0
 10
-24.4115
 20
-29.0898
 30
0.0
 10
-24.4115
 20
-29.0898
 30
0.0
 10
-24.3579
 20
-29.2897
 30
0.0
 10
-24.3506
 20
-29.4786
 30
0.0
 10
-24.3897
 20
-29.6561
 30
0.0
 10
-24.3897
 20
-29.6561
 30
0.0
 10
-24.4287
 20
-29.8342
 30
0.0
 10
-24.5102
 20
-29.9825
 30
0.0
 10
-24.6346
 20
-30.1016
 30
0.0
 10
-24.6346
 20
-30.1016
 30
0.0
 10
-24.7596
 20
-30.2203
 30
0.0
 10
-24.9038
 20
-30.3018
 30
0.0
 10
-25.0678
 20
-30.3457
 30
0.0
 10
-25.0678
 20
-30.3457
 30
0.0
 10
-25.1904
 20
-30.3786
 30
0.0
 10
-25.3059
 20
-30.3911
 30
0.0
 10
-25.4147
 20
-30.3832
 30
0.0
 10
-25.4147
 20
-30.3832
 30
0.0
 10
-25.4982
 20
-30.3769
 30
0.0
 10
-25.6009
 20
-30.3498
 30
0.0
 10
-25.7234
 20
-30.3018
 30
0.0
 10
-25.7234
 20
-30.3018
 30
0.0
 10
-25.7234
 20
-30.3018
 30
0.0
 10
-25.8798
 20
-30.6121
 30
0.0
 10
-25.8798
 20
-30.6121
 30
0.0
 10
-25.8798
 20
-30.6121
 30
0.0
 10
-25.8798
 20
-30.6121
 30
0.0
 10
-26.0415
 20
-30.5356
 30
0.0
 10
-26.0415
 20
-30.5356
 30
0.0
 10
-26.0415
 20
-30.5356
 30
0.0
 10
-26.0415
 20
-30.5356
 30
0.0
 10
-25.8773
 20
-30.2106
 30
0.0
 10
-25.8773
 20
-30.2106
 30
0.0
 10
-25.8773
 20
-30.2106
 30
0.0
 10
-26.0
 20
-30.1018
 30
0.0
 10
-26.0884
 20
-30.0042
 30
0.0
 10
-26.1426
 20
-29.9184
 30
0.0
 10
-26.1426
 20
-29.9184
 30
0.0
 10
-26.1967
 20
-29.8326
 30
0.0
 10
-26.2419
 20
-29.7239
 30
0.0
 10
-26.2771
 20
-29.5926
 30
0.0
 10
-26.2771
 20
-29.5926
 30
0.0
 10
-26.3308
 20
-29.3923
 30
0.0
 10
-26.3386
 20
-29.203
 30
0.0
 10
-26.3008
 20
-29.0248
 30
0.0
 10
-26.3008
 20
-29.0248
 30
0.0
 10
-26.2628
 20
-28.8466
 30
0.0
 10
-26.1828
 20
-28.6982
 30
0.0
 10
-26.0599
 20
-28.5786
 30
0.0
 10
-26.0599
 20
-28.5786
 30
0.0
 10
-25.9375
 20
-28.4595
 30
0.0
 10
-25.7879
 20
-28.3761
 30
0.0
 10
-25.6112
 20
-28.3287
 30
0.0
 10
-25.6112
 20
-28.3287
 30
0.0
 10
-25.4921
 20
-28.2968
 30
0.0
 10
-25.384
 20
-28.2844
 30
0.0
 10
-25.2864
 20
-28.2924
 30
0.0
 10
-25.2864
 20
-28.2924
 30
0.0
 10
-25.1889
 20
-28.2998
 30
0.0
 10
-25.0779
 20
-28.329
 30
0.0
 10
-24.9543
 20
-28.3796
 30
0.0
  0
SPLINE
  5
93
330
1F
100
AcDbEntity
  8
ROUND
 62
   250
100
AcDbSpline
210
0.0
220
0.0
230
1.0
 70
    11
 71
     3
 72
    32
 73
    28
 74
     0
 42
0.0000000001
 43
0.0000000001
 40
0.0
 40
0.0
 40
0.0
 40
0.0
 40
0.125
 40
0.125
 40
0.125
 40
0.125
 40
0.25
 40
0.25
 40
0.25
 40
0.25
 40
0.375
 40
0.375
 40
0.375
 40
0.375
 40
0.5
 40
0.5
 40
0.5
 40
0.5
 40
0.625
 40
0.625
 40
0.625
 40
0.625
 40
0.75
 40
0.75
 40
0.75
 40
0.75
 40
1.0
 40
1.0
 40
1.0
 40
1.0
 10
-25.0656
 20
-28.6018
 30
0.0
 10
-25.1668
 20
-28.5589
 30
0.0
 10
-25.252
 20
-28.5334
 30
0.0
 10
-25.3207
 20
-28.5261
 30
0.0
 10
-25.3207
 20
-28.5261
 30
0.0
 10
-25.3897
 20
-28.5192
 30
0.0
 10
-25.4666
 20
-28.5266
 30
0.0
 10
-25.5507
 20
-28.5492
 30
0.0
 10
-25.5507
 20
-28.5492
 30
0.0
 10
-25.7451
 20
-28.6013
 30
0.0
 10
-25.8878
 20
-28.7101
 30
0.0
 10
-25.9797
 20
-28.876
 30
0.0
 10
-25.9797
 20
-28.876
 30
0.0
 10
-26.0712
 20
-29.0418
 30
0.0
 10
-26.0821
 20
-29.2555
 30
0.0
 10
-26.0119
 20
-29.5176
 30
0.0
 10
-26.0119
 20
-29.5176
 30
0.0
 10
-25.9843
 20
-29.6203
 30
0.0
 10
-25.9499
 20
-29.709
 30
0.0
 10
-25.9089
 20
-29.7838
 30
0.0
 10
-25.9089
 20
-29.7838
 30
0.0
 10
-25.8788
 20
-29.8395
 30
0.0
 10
-25.8298
 20
-29.9047
 30
0.0
 10
-25.761
 20
-29.9793
 30
0.0
 10
-25.761
 20
-29.9793
 30
0.0
 10
-25.761
 20
-29.9793
 30
0.0
 10
-25.0656
 20
-28.6018
 30
0.0
 10
-25.0656
 20
-28.6018
 30
0.0
  0
SPLINE
  5
94
330
1F
100
AcDbEntity
  8
ROUND
 62
   250
100
AcDbSpline
210
0.0
220
0.0
230
1.0
 70
    11
 71
     3
 72
    28
 73
    24
 74
     0
 42
0.0000000001
 43
0.0000000001
 40
0.0
 40
0.0
 40
0.0
 40
0.0
 40
0.1428571428571428
 40
0.1428571428571428
 40
0.1428571428571428
 40
0.1428571428571428
 40
0.2857142857142857
 40
0.2857142857142857
 40
0.2857142857142857
 40
0.2857142857142857
 40
0.4285714285714285
 40
0.4285714285714285
 40
0.4285714285714285
 40
0.4285714285714285
 40
0.5714285714285714
 40
0.5714285714285714
 40
0.5714285714285714
 40
0.5714285714285714
 40
0.7142857142857143
 40
0.7142857142857143
 40
0.7142857142857143
 40
0.7142857142857143
 40
1.0
 40
1.0
 40
1.0
 40
1.0
 10
-24.9198
 20
-28.7099
 30
0.0
 10
-24.9198
 20
-28.7099
 30
0.0
 10
-25.6122
 20
-30.0821
 30
0.0
 10
-25.6122
 20
-30.0821
 30
0.0
 10
-25.6122
 20
-30.0821
 30
0.0
 10
-25.5292
 20
-30.1197
 30
0.0
 10
-25.4555
 20
-30.1419
 30
0.0
 10
-25.3918
 20
-30.1487
 30
0.0
 10
-25.3918
 20
-30.1487
 30
0.0
 10
-25.3086
 20
-30.158
 30
0.0
 10
-25.2229
 20
-30.1506
 30
0.0
 10
-25.1351
 20
-30.1271
 30
0.0
 10
-25.1351
 20
-30.1271
 30
0.0
 10
-24.9416
 20
-30.0752
 30
0.0
 10
-24.8004
 20
-29.9644
 30
0.0
 10
-24.7108
 20
-29.7938
 30
0.0
 10
-24.7108
 20
-29.7938
 30
0.0
 10
-24.6215
 20
-29.6233
 30
0.0
 10
-24.6097
 20
-29.4146
 30
0.0
 10
-24.6758
 20
-29.1679
 30
0.0
 10
-24.6758
 20
-29.1679
 30
0.0
 10
-24.7253
 20
-28.9835
 30
0.0
 10
-24.8066
 20
-28.8305
 30
0.0
 10
-24.9198
 20
-28.7099
 30
0.0
  0
SPLINE
  5
95
330
1F
100
AcDbEntity
  8
ROUND
 62
   250
100
AcDbSpline
210
0.0
220
0.0
230
1.0
 70
    11
 71
     3
 72
    92
 73
    88
 74
     0
 42
0.0000000001
 43
0.0000000001
 40
0.0
 40
0.0
 40
0.0
 40
0.0
 40
0.0434782608695652
 40
0.0434782608695652
 40
0.0434782608695652
 40
0.0434782608695652
 40
0.0869565217391304
 40
0.0869565217391304
 40
0.0869565217391304
 40
0.0869565217391304
 40
0.1304347826086956
 40
0.1304347826086956
 40
0.1304347826086956
 40
0.1304347826086956
 40
0.1739130434782609
 40
0.1739130434782609
 40
0.1739130434782609
 40
0.1739130434782609
 40
0.2173913043478261
 40
0.2173913043478261
 40
0.2173913043478261
 40
0.2173913043478261
 40
0.2608695652173913
 40
0.2608695652173913
 40
0.2608695652173913
 40
0.2608695652173913
 40
0.3043478260869565
 40
0.3043478260869565
 40
0.3043478260869565
 40
0.3043478260869565
 40
0.3478260869565217
 40
0.3478260869565217
 40
0.3478260869565217
 40
0.3478260869565217
 40
0.391304347826087
 40
0.391304347826087
 40
0.391304347826087
 40
0.391304347826087
 40
0.4347826086956522
 40
0.4347826086956522
 40
0.4347826086956522
 40
0.4347826086956522
 40
0.4782608695652174
 40
0.4782608695652174
 40
0.4782608695652174
 40
0.4782608695652174
 40
0.5217391304347826
 40
0.5217391304347826
 40
0.5217391304347826
 40
0.5217391304347826
 40
0.5652173913043478
 40
0.5652173913043478
 40
0.5652173913043478
 40
0.5652173913043478
 40
0.6086956521739131
 40
0.6086956521739131
 40
0.6086956521739131
 40
0.6086956521739131
 40
0.6521739130434783
 40
0.6521739130434783
 40
0.6521739130434783
 40
0.6521739130434783
 40
0.6956521739130435
 40
0.6956521739130435
 40
0.6956521739130435
 40
0.6956521739130435
 40
0.7391304347826086
 40
0.7391304347826086
 40
0.7391304347826086
 40
0.7391304347826086
 40
0.782608695652174
 40
0.782608695652174
 40
0.782608695652174
 40
0.782608695652174
 40
0.8260869565217391
 40
0.8260869565217391
 40
0.8260869565217391
 40
0.8260869565217391
 40
0.8695652173913043
 40
0.8695652173913043
 40
0.8695652173913043
 40
0.8695652173913043
 40
0.9130434782608695
 40
0.9130434782608695
 40
0.9130434782608695
 40
0.9130434782608695
 40
1.0
 40
1.0
 40
1.0
 40
1.0
 10
-23.9945
 20
-29.539
 30
0.0
 10
-23.9945
 20
-29.539
 30
0.0
 10
-23.7698
 20
-29.456
 30
0.0
 10
-23.7698
 20
-29.456
 30
0.0
 10
-23.7698
 20
-29.456
 30
0.0
 10
-23.7213
 20
-29.5589
 30
0.0
 10
-23.663
 20
-29.6275
 30
0.0
 10
-23.5949
 20
-29.6618
 30
0.0
 10
-23.5949
 20
-29.6618
 30
0.0
 10
-23.5269
 20
-29.6958
 30
0.0
 10
-23.4499
 20
-29.7014
 30
0.0
 10
-23.3635
 20
-29.6783
 30
0.0
 10
-23.3635
 20
-29.6783
 30
0.0
 10
-23.2899
 20
-29.6586
 30
0.0
 10
-23.23
 20
-29.6245
 30
0.0
 10
-23.1837
 20
-29.5755
 30
0.0
 10
-23.1837
 20
-29.5755
 30
0.0
 10
-23.1373
 20
-29.5271
 30
0.0
 10
-23.1038
 20
-29.4699
 30
0.0
 10
-23.0836
 20
-29.4041
 30
0.0
 10
-23.0836
 20
-29.4041
 30
0.0
 10
-23.0627
 20
-29.3381
 30
0.0
 10
-23.0536
 20
-29.2538
 30
0.0
 10
-23.0551
 20
-29.152
 30
0.0
 10
-23.0551
 20
-29.152
 30
0.0
 10
-23.0572
 20
-29.0498
 30
0.0
 10
-23.0711
 20
-28.9488
 30
0.0
 10
-23.0977
 20
-28.8493
 30
0.0
 10
-23.0977
 20
-28.8493
 30
0.0
 10
-23.1005
 20
-28.8389
 30
0.0
 10
-23.1054
 20
-28.8226
 30
0.0
 10
-23.1119
 20
-28.802
 30
0.0
 10
-23.1119
 20
-28.802
 30
0.0
 10
-23.1398
 20
-28.8907
 30
0.0
 10
-23.1885
 20
-28.9705
 30
0.0
 10
-23.2585
 20
-29.0399
 30
0.0
 10
-23.2585
 20
-29.0399
 30
0.0
 10
-23.3289
 20
-29.1099
 30
0.0
 10
-23.4126
 20
-29.1576
 30
0.0
 10
-23.5089
 20
-29.1834
 30
0.0
 10
-23.5089
 20
-29.1834
 30
0.0
 10
-23.6706
 20
-29.2268
 30
0.0
 10
-23.823
 20
-29.2049
 30
0.0
 10
-23.9662
 20
-29.1176
 30
0.0
 10
-23.9662
 20
-29.1176
 30
0.0
 10
-24.1094
 20
-29.0303
 30
0.0
 10
-24.2066
 20
-28.8913
 30
0.0
 10
-24.2579
 20
-28.6995
 30
0.0
 10
-24.2579
 20
-28.6995
 30
0.0
 10
-24.311
 20
-28.5014
 30
0.0
 10
-24.2955
 20
-28.3268
 30
0.0
 10
-24.2111
 20
-28.1747
 30
0.0
 10
-24.2111
 20
-28.1747
 30
0.0
 10
-24.1267
 20
-28.0226
 30
0.0
 10
-23.9965
 20
-27.9229
 30
0.0
 10
-23.8207
 20
-27.8758
 30
0.0
 10
-23.8207
 20
-27.8758
 30
0.0
 10
-23.694
 20
-27.8418
 30
0.0
 10
-23.5688
 20
-27.8454
 30
0.0
 10
-23.4452
 20
-27.8852
 30
0.0
 10
-23.4452
 20
-27.8852
 30
0.0
 10
-23.322
 20
-27.9253
 30
0.0
 10
-23.2159
 20
-28.0015
 30
0.0
 10
-23.1275
 20
-28.1133
 30
0.0
 10
-23.1275
 20
-28.1133
 30
0.0
 10
-23.0392
 20
-28.2249
 30
0.0
 10
-22.9628
 20
-28.4007
 30
0.0
 10
-22.8986
 20
-28.6406
 30
0.0
 10
-22.8986
 20
-28.6406
 30
0.0
 10
-22.8319
 20
-28.8896
 30
0.0
 10
-22.8054
 20
-29.0953
 30
0.0
 10
-22.8198
 20
-29.2579
 30
0.0
 10
-22.8198
 20
-29.2579
 30
0.0
 10
-22.8347
 20
-29.4202
 30
0.0
 10
-22.8851
 20
-29.5539
 30
0.0
 10
-22.9712
 20
-29.6598
 30
0.0
 10
-22.9712
 20
-29.6598
 30
0.0
 10
-23.0577
 20
-29.7658
 30
0.0
 10
-23.1723
 20
-29.8378
 30
0.0
 10
-23.3164
 20
-29.8764
 30
0.0
 10
-23.3164
 20
-29.8764
 30
0.0
 10
-23.469
 20
-29.9173
 30
0.0
 10
-23.6048
 20
-29.9085
 30
0.0
 10
-23.7244
 20
-29.8494
 30
0.0
 10
-23.7244
 20
-29.8494
 30
0.0
 10
-23.8438
 20
-29.7908
 30
0.0
 10
-23.9338
 20
-29.6874
 30
0.0
 10
-23.9945
 20
-29.539
 30
0.0
  0
SPLINE
  5
96
330
1F
100
AcDbEntity
  8
ROUND
 62
   250
100
AcDbSpline
210
0.0
220
0.0
230
1.0
 70
    11
 71
     3
 72
    36
 73
    32
 74
     0
 42
0.0000000001
 43
0.0000000001
 40
0.0
 40
0.0
 40
0.0
 40
0.0
 40
0.1111111111111111
 40
0.1111111111111111
 40
0.1111111111111111
 40
0.1111111111111111
 40
0.2222222222222222
 40
0.2222222222222222
 40
0.2222222222222222
 40
0.2222222222222222
 40
0.3333333333333333
 40
0.3333333333333333
 40
0.3333333333333333
 40
0.3333333333333333
 40
0.4444444444444444
 40
0.4444444444444444
 40
0.4444444444444444
 40
0.4444444444444444
 40
0.5555555555555556
 40
0.5555555555555556
 40
0.5555555555555556
 40
0.5555555555555556
 40
0.6666666666666666
 40
0.6666666666666666
 40
0.6666666666666666
 40
0.6666666666666666
 40
0.7777777777777778
 40
0.7777777777777778
 40
0.7777777777777778
 40
0.7777777777777778
 40
1.0
 40
1.0
 40
1.0
 40
1.0
 10
-23.2444
 20
-28.4148
 30
0.0
 10
-23.2812
 20
-28.2776
 30
0.0
 10
-23.3468
 20
-28.1778
 30
0.0
 10
-23.4416
 20
-28.117
 30
0.0
 10
-23.4416
 20
-28.117
 30
0.0
 10
-23.5369
 20
-28.0559
 30
0.0
 10
-23.6353
 20
-28.039
 30
0.0
 10
-23.7385
 20
-28.0666
 30
0.0
 10
-23.7385
 20
-28.0666
 30
0.0
 10
-23.8448
 20
-28.0951
 30
0.0
 10
-23.9258
 20
-28.1635
 30
0.0
 10
-23.9816
 20
-28.2715
 30
0.0
 10
-23.9816
 20
-28.2715
 30
0.0
 10
-24.0372
 20
-28.3799
 30
0.0
 10
-24.0466
 20
-28.5031
 30
0.0
 10
-24.0096
 20
-28.6412
 30
0.0
 10
-24.0096
 20
-28.6412
 30
0.0
 10
-23.9762
 20
-28.7658
 30
0.0
 10
-23.9115
 20
-28.8565
 30
0.0
 10
-23.8157
 20
-28.9141
 30
0.0
 10
-23.8157
 20
-28.9141
 30
0.0
 10
-23.72
 20
-28.9718
 30
0.0
 10
-23.6174
 20
-28.9857
 30
0.0
 10
-23.5074
 20
-28.9562
 30
0.0
 10
-23.5074
 20
-28.9562
 30
0.0
 10
-23.3961
 20
-28.9264
 30
0.0
 10
-23.3156
 20
-28.8634
 30
0.0
 10
-23.2651
 20
-28.7665
 30
0.0
 10
-23.2651
 20
-28.7665
 30
0.0
 10
-23.2141
 20
-28.6696
 30
0.0
 10
-23.2075
 20
-28.5524
 30
0.0
 10
-23.2444
 20
-28.4148
 30
0.0
  0
SPLINE
  5
97
330
1F
100
AcDbEntity
  8
ROUND
 62
   250
100
AcDbSpline
210
0.0
220
0.0
230
1.0
 70
    11
 71
     3
 72
    52
 73
    48
 74
     0
 42
0.0000000001
 43
0.0000000001
 40
0.0
 40
0.0
 40
0.0
 40
0.0
 40
0.0769230769230769
 40
0.0769230769230769
 40
0.0769230769230769
 40
0.0769230769230769
 40
0.1538461538461539
 40
0.1538461538461539
 40
0.1538461538461539
 40
0.1538461538461539
 40
0.2307692307692308
 40
0.2307692307692308
 40
0.2307692307692308
 40
0.2307692307692308
 40
0.3076923076923077
 40
0.3076923076923077
 40
0.3076923076923077
 40
0.3076923076923077
 40
0.3846153846153846
 40
0.3846153846153846
 40
0.3846153846153846
 40
0.3846153846153846
 40
0.4615384615384616
 40
0.4615384615384616
 40
0.4615384615384616
 40
0.4615384615384616
 40
0.5384615384615384
 40
0.5384615384615384
 40
0.5384615384615384
 40
0.5384615384615384
 40
0.6153846153846154
 40
0.6153846153846154
 40
0.6153846153846154
 40
0.6153846153846154
 40
0.6923076923076923
 40
0.6923076923076923
 40
0.6923076923076923
 40
0.6923076923076923
 40
0.7692307692307693
 40
0.7692307692307693
 40
0.7692307692307693
 40
0.7692307692307693
 40
0.8461538461538461
 40
0.8461538461538461
 40
0.8461538461538461
 40
0.8461538461538461
 40
1.0
 40
1.0
 40
1.0
 40
1.0
 10
-22.6512
 20
-28.6313
 30
0.0
 10
-22.7131
 20
-28.4005
 30
0.0
 10
-22.7392
 20
-28.2083
 30
0.0
 10
-22.7291
 20
-28.0552
 30
0.0
 10
-22.7291
 20
-28.0552
 30
0.0
 10
-22.7196
 20
-27.9017
 30
0.0
 10
-22.6778
 20
-27.7741
 30
0.0
 10
-22.6047
 20
-27.6726
 30
0.0
 10
-22.6047
 20
-27.6726
 30
0.0
 10
-22.5315
 20
-27.5712
 30
0.0
 10
-22.4241
 20
-27.5016
 30
0.0
 10
-22.2824
 20
-27.4636
 30
0.0
 10
-22.2824
 20
-27.4636
 30
0.0
 10
-22.1774
 20
-27.4355
 30
0.0
 10
-22.0799
 20
-27.4322
 30
0.0
 10
-21.9896
 20
-27.4534
 30
0.0
 10
-21.9896
 20
-27.4534
 30
0.0
 10
-21.8993
 20
-27.4739
 30
0.0
 10
-21.818
 20
-27.5174
 30
0.0
 10
-21.7449
 20
-27.583
 30
0.0
 10
-21.7449
 20
-27.583
 30
0.0
 10
-21.6723
 20
-27.6488
 30
0.0
 10
-21.6059
 20
-27.7347
 30
0.0
 10
-21.5463
 20
-27.8409
 30
0.0
 10
-21.5463
 20
-27.8409
 30
0.0
 10
-21.4861
 20
-27.9471
 30
0.0
 10
-21.4305
 20
-28.0968
 30
0.0
 10
-21.3786
 20
-28.2904
 30
0.0
 10
-21.3786
 20
-28.2904
 30
0.0
 10
-21.3173
 20
-28.5193
 30
0.0
 10
-21.2914
 20
-28.7101
 30
0.0
 10
-21.3005
 20
-28.8635
 30
0.0
 10
-21.3005
 20
-28.8635
 30
0.0
 10
-21.31
 20
-29.017
 30
0.0
 10
-21.3514
 20
-29.1444
 30
0.0
 10
-21.4244
 20
-29.2463
 30
0.0
 10
-21.4244
 20
-29.2463
 30
0.0
 10
-21.4974
 20
-29.3481
 30
0.0
 10
-21.6053
 20
-29.4179
 30
0.0
 10
-21.7485
 20
-29.4563
 30
0.0
 10
-21.7485
 20
-29.4563
 30
0.0
 10
-21.9365
 20
-29.5067
 30
0.0
 10
-22.1022
 20
-29.479
 30
0.0
 10
-22.2456
 20
-29.3728
 30
0.0
 10
-22.2456
 20
-29.3728
 30
0.0
 10
-22.4176
 20
-29.2451
 30
0.0
 10
-22.5531
 20
-28.9975
 30
0.0
 10
-22.6512
 20
-28.6313
 30
0.0
  0
SPLINE
  5
98
330
1F
100
AcDbEntity
  8
ROUND
 62
   250
100
AcDbSpline
210
0.0
220
0.0
230
1.0
 70
    11
 71
     3
 72
    36
 73
    32
 74
     0
 42
0.0000000001
 43
0.0000000001
 40
0.0
 40
0.0
 40
0.0
 40
0.0
 40
0.1111111111111111
 40
0.1111111111111111
 40
0.1111111111111111
 40
0.1111111111111111
 40
0.2222222222222222
 40
0.2222222222222222
 40
0.2222222222222222
 40
0.2222222222222222
 40
0.3333333333333333
 40
0.3333333333333333
 40
0.3333333333333333
 40
0.3333333333333333
 40
0.4444444444444444
 40
0.4444444444444444
 40
0.4444444444444444
 40
0.4444444444444444
 40
0.5555555555555556
 40
0.5555555555555556
 40
0.5555555555555556
 40
0.5555555555555556
 40
0.6666666666666666
 40
0.6666666666666666
 40
0.6666666666666666
 40
0.6666666666666666
 40
0.7777777777777778
 40
0.7777777777777778
 40
0.7777777777777778
 40
0.7777777777777778
 40
1.0
 40
1.0
 40
1.0
 40
1.0
 10
-22.4049
 20
-28.5653
 30
0.0
 10
-22.3191
 20
-28.8857
 30
0.0
 10
-22.2243
 20
-29.0886
 30
0.0
 10
-22.1209
 20
-29.1748
 30
0.0
 10
-22.1209
 20
-29.1748
 30
0.0
 10
-22.0176
 20
-29.2606
 30
0.0
 10
-21.9111
 20
-29.2891
 30
0.0
 10
-21.8012
 20
-29.2596
 30
0.0
 10
-21.8012
 20
-29.2596
 30
0.0
 10
-21.6908
 20
-29.2301
 30
0.0
 10
-21.6129
 20
-29.1517
 30
0.0
 10
-21.5664
 20
-29.0253
 30
0.0
 10
-21.5664
 20
-29.0253
 30
0.0
 10
-21.52
 20
-28.8989
 30
0.0
 10
-21.5393
 20
-28.6757
 30
0.0
 10
-21.6248
 20
-28.3563
 30
0.0
 10
-21.6248
 20
-28.3563
 30
0.0
 10
-21.7109
 20
-28.0351
 30
0.0
 10
-21.8059
 20
-27.8316
 30
0.0
 10
-21.9091
 20
-27.7463
 30
0.0
 10
-21.9091
 20
-27.7463
 30
0.0
 10
-22.0124
 20
-27.6605
 30
0.0
 10
-22.1197
 20
-27.6328
 30
0.0
 10
-22.2314
 20
-27.6628
 30
0.0
 10
-22.2314
 20
-27.6628
 30
0.0
 10
-22.3418
 20
-27.6924
 30
0.0
 10
-22.417
 20
-27.7626
 30
0.0
 10
-22.4579
 20
-27.8734
 30
0.0
 10
-22.4579
 20
-27.8734
 30
0.0
 10
-22.5083
 20
-28.014
 30
0.0
 10
-22.4908
 20
-28.245
 30
0.0
 10
-22.4049
 20
-28.5653
 30
0.0
  0
SPLINE
  5
99
330
1F
100
AcDbEntity
  8
ROUND
 62
   250
100
AcDbSpline
210
0.0
220
0.0
230
1.0
 70
    24
 71
     3
 72
     8
 73
     4
 74
     0
 42
0.0000000001
 43
0.0000000001
 40
0.0
 40
0.0
 40
0.0
 40
0.0
 40
1.0
 40
1.0
 40
1.0
 40
1.0
 10
-12.2495
 20
-27.4588
 30
0.0
 10
-12.2495
 20
-27.4588
 30
0.0
 10
-36.091
 20
-33.8471
 30
0.0
 10
-36.091
 20
-33.8471
 30
0.0
  0
SPLINE
  5
9A
330
1F
100
AcDbEntity
  8
ROUND
 62
   250
100
AcDbSpline
210
0.0
220
0.0
230
1.0
 70
    11
 71
     3
 72
    20
 73
    16
 74
     0
 42
0.0000000001
 43
0.0000000001
 40
0.0
 40
0.0
 40
0.0
 40
0.0
 40
0.2
 40
0.2
 40
0.2
 40
0.2
 40
0.4
 40
0.4
 40
0.4
 40
0.4
 40
0.6
 40
0.6
 40
0.6
 40
0.6
 40
1.0
 40
1.0
 40
1.0
 40
1.0
 10
-15.1556
 20
-27.7483
 30
0.0
 10
-15.1556
 20
-27.7483
 30
0.0
 10
-12.2142
 20
-27.3889
 30
0.0
 10
-12.2142
 20
-27.3889
 30
0.0
 10
-12.2142
 20
-27.3889
 30
0.0
 10
-12.2142
 20
-27.3889
 30
0.0
 10
-12.1904
 20
-27.4777
 30
0.0
 10
-12.1904
 20
-27.4777
 30
0.0
 10
-12.1904
 20
-27.4777
 30
0.0
 10
-12.1904
 20
-27.4777
 30
0.0
 10
-14.9103
 20
-28.6638
 30
0.0
 10
-14.9103
 20
-28.6638
 30
0.0
 10
-14.9103
 20
-28.6638
 30
0.0
 10
-14.9103
 20
-28.6638
 30
0.0
 10
-15.1556
 20
-27.7483
 30
0.0
 10
-15.1556
 20
-27.7483
 30
0.0
  0
SPLINE
  5
9B
330
1F
100
AcDbEntity
  8
ROUND
 62
   250
100
AcDbSpline
210
0.0
220
0.0
230
1.0
 70
    11
 71
     3
 72
    20
 73
    16
 74
     0
 42
0.0000000001
 43
0.0000000001
 40
0.0
 40
0.0
 40
0.0
 40
0.0
 40
0.2
 40
0.2
 40
0.2
 40
0.2
 40
0.4
 40
0.4
 40
0.4
 40
0.4
 40
0.6
 40
0.6
 40
0.6
 40
0.6
 40
1.0
 40
1.0
 40
1.0
 40
1.0
 10
-33.4128
 20
-33.6567
 30
0.0
 10
-33.4128
 20
-33.6567
 30
0.0
 10
-36.3543
 20
-34.0162
 30
0.0
 10
-36.3543
 20
-34.0162
 30
0.0
 10
-36.3543
 20
-34.0162
 30
0.0
 10
-36.3543
 20
-34.0162
 30
0.0
 10
-36.3781
 20
-33.9273
 30
0.0
 10
-36.3781
 20
-33.9273
 30
0.0
 10
-36.3781
 20
-33.9273
 30
0.0
 10
-36.3781
 20
-33.9273
 30
0.0
 10
-33.6581
 20
-32.7413
 30
0.0
 10
-33.6581
 20
-32.7413
 30
0.0
 10
-33.6581
 20
-32.7413
 30
0.0
 10
-33.6581
 20
-32.7413
 30
0.0
 10
-33.4128
 20
-33.6567
 30
0.0
 10
-33.4128
 20
-33.6567
 30
0.0
  0
SPLINE
  5
9C
330
1F
100
AcDbEntity
  8
ROUND
 62
   250
100
AcDbSpline
210
0.0
220
0.0
230
1.0
 70
    11
 71
     3
 72
    20
 73
    16
 74
     0
 42
0.0000000001
 43
0.0000000001
 40
0.0
 40
0.0
 40
0.0
 40
0.0
 40
0.2
 40
0.2
 40
0.2
 40
0.2
 40
0.4
 40
0.4
 40
0.4
 40
0.4
 40
0.6
 40
0.6
 40
0.6
 40
0.6
 40
1.0
 40
1.0
 40
1.0
 40
1.0
 10
-31.0587
 20
-33.0224
 30
0.0
 10
-31.0587
 20
-33.0224
 30
0.0
 10
-34.0002
 20
-33.3819
 30
0.0
 10
-34.0002
 20
-33.3819
 30
0.0
 10
-34.0002
 20
-33.3819
 30
0.0
 10
-34.0002
 20
-33.3819
 30
0.0
 10
-34.024
 20
-33.293
 30
0.0
 10
-34.024
 20
-33.293
 30
0.0
 10
-34.024
 20
-33.293
 30
0.0
 10
-34.024
 20
-33.293
 30
0.0
 10
-31.304
 20
-32.107
 30
0.0
 10
-31.304
 20
-32.107
 30
0.0
 10
-31.304
 20
-32.107
 30
0.0
 10
-31.304
 20
-32.107
 30
0.0
 10
-31.0587
 20
-33.0224
 30
0.0
 10
-31.0587
 20
-33.0224
 30
0.0
  0
SPLINE
  5
9D
330
1F
100
AcDbEntity
  8
ROUND
100
AcDbSpline
210
0.0
220
0.0
230
1.0
 70
    24
 71
     3
 72
     8
 73
     4
 74
     0
 42
0.0000000001
 43
0.0000000001
 40
0.0
 40
0.0
 40
0.0
 40
0.0
 40
1.0
 40
1.0
 40
1.0
 40
1.0
 10
-1.6209
 20
-31.9157
 30
0.0
 10
-1.6209
 20
-31.8927
 30
0.0
 10
-1.6209
 20
-31.8696
 30
0.0
 10
-1.6209
 20
-31.8465
 30
0.0
  0
SPLINE
  5
9E
330
1F
100
AcDbEntity
  8
ROUND
  6
NEW_LINE7
 62
   250
100
AcDbSpline
210
0.0
220
0.0
230
1.0
 70
    24
 71
     3
 72
     8
 73
     4
 74
     0
 42
0.0000000001
 43
0.0000000001
 40
0.0
 40
0.0
 40
0.0
 40
0.0
 40
1.0
 40
1.0
 40
1.0
 40
1.0
 10
-46.9811
 20
-31.8593
 30
0.0
 10
-46.9811
 20
-31.8593
 30
0.0
 10
0.0541
 20
-31.8593
 30
0.0
 10
0.0541
 20
-31.8593
 30
0.0
  0
SPLINE
  5
A0
330
1F
100
AcDbEntity
  8
ROUND
  6
NEW_LINE8
 62
   250
100
AcDbSpline
210
0.0
220
0.0
230
1.0
 70
    24
 71
     3
 72
     8
 73
     4
 74
     0
 42
0.0000000001
 43
0.0000000001
 40
0.0
 40
0.0
 40
0.0
 40
0.0
 40
1.0
 40
1.0
 40
1.0
 40
1.0
 10
-23.4635
 20
-33.7505
 30
0.0
 10
-23.4635
 20
-33.7505
 30
0.0
 10
-23.4635
 20
-30.7962
 30
0.0
 10
-23.4635
 20
-30.7962
 30
0.0
  0
SPLINE
  5
A2
330
1F
100
AcDbEntity
  8
ROUND
  6
NEW_LINE9
 62
   250
100
AcDbSpline
210
0.0
220
0.0
230
1.0
 70
    24
 71
     3
 72
     8
 73
     4
 74
     0
 42
0.0000000001
 43
0.0000000001
 40
0.0
 40
0.0
 40
0.0
 40
0.0
 40
1.0
 40
1.0
 40
1.0
 40
1.0
 10
-26.8852
 20
-30.5677
 30
0.0
 10
-26.8852
 20
-30.5677
 30
0.0
 10
-26.8852
 20
-15.3321
 30
0.0
 10
-26.8852
 20
-15.3321
 30
0.0
  0
SPLINE
  5
A4
330
1F
100
AcDbEntity
  8
ROUND
  6
NEW_LINE10
 62
   250
100
AcDbSpline
210
0.0
220
0.0
230
1.0
 70
    24
 71
     3
 72
     8
 73
     4
 74
     0
 42
0.0000000001
 43
0.0000000001
 40
0.0
 40
0.0
 40
0.0
 40
0.0
 40
1.0
 40
1.0
 40
1.0
 40
1.0
 10
-23.4631
 20
-27.3707
 30
0.0
 10
-23.4631
 20
-27.3707
 30
0.0
 10
-23.4631
 20
-8.9809
 30
0.0
 10
-23.4631
 20
-8.9809
 30
0.0
  0
SPLINE
  5
A6
330
1F
100
AcDbEntity
  8
ROUND
  6
NEW_LINE11
 62
   250
100
AcDbSpline
210
0.0
220
0.0
230
1.0
 70
    24
 71
     3
 72
     8
 73
     4
 74
     0
 42
0.0000000001
 43
0.0000000001
 40
0.0
 40
0.0
 40
0.0
 40
0.0
 40
1.0
 40
1.0
 40
1.0
 40
1.0
 10
-26.8852
 20
-33.7206
 30
0.0
 10
-26.8852
 20
-33.7206
 30
0.0
 10
-26.8852
 20
-31.648
 30
0.0
 10
-26.8852
 20
-31.648
 30
0.0
  0
SPLINE
  5
A8
330
1F
100
AcDbEntity
  8
ROUND
 62
   250
100
AcDbSpline
210
0.0
220
0.0
230
1.0
 70
    11
 71
     3
 72
    84
 73
    80
 74
     0
 42
0.0000000001
 43
0.0000000001
 40
0.0
 40
0.0
 40
0.0
 40
0.0
 40
0.0476190476190476
 40
0.0476190476190476
 40
0.0476190476190476
 40
0.0476190476190476
 40
0.0952380952380952
 40
0.0952380952380952
 40
0.0952380952380952
 40
0.0952380952380952
 40
0.1428571428571428
 40
0.1428571428571428
 40
0.1428571428571428
 40
0.1428571428571428
 40
0.1904761904761905
 40
0.1904761904761905
 40
0.1904761904761905
 40
0.1904761904761905
 40
0.2380952380952381
 40
0.2380952380952381
 40
0.2380952380952381
 40
0.2380952380952381
 40
0.2857142857142857
 40
0.2857142857142857
 40
0.2857142857142857
 40
0.2857142857142857
 40
0.3333333333333333
 40
0.3333333333333333
 40
0.3333333333333333
 40
0.3333333333333333
 40
0.3809523809523809
 40
0.3809523809523809
 40
0.3809523809523809
 40
0.3809523809523809
 40
0.4285714285714285
 40
0.4285714285714285
 40
0.4285714285714285
 40
0.4285714285714285
 40
0.4761904761904762
 40
0.4761904761904762
 40
0.4761904761904762
 40
0.4761904761904762
 40
0.5238095238095238
 40
0.5238095238095238
 40
0.5238095238095238
 40
0.5238095238095238
 40
0.5714285714285714
 40
0.5714285714285714
 40
0.5714285714285714
 40
0.5714285714285714
 40
0.6190476190476191
 40
0.6190476190476191
 40
0.6190476190476191
 40
0.6190476190476191
 40
0.6666666666666666
 40
0.6666666666666666
 40
0.6666666666666666
 40
0.6666666666666666
 40
0.7142857142857143
 40
0.7142857142857143
 40
0.7142857142857143
 40
0.7142857142857143
 40
0.7619047619047619
 40
0.7619047619047619
 40
0.7619047619047619
 40
0.7619047619047619
 40
0.8095238095238095
 40
0.8095238095238095
 40
0.8095238095238095
 40
0.8095238095238095
 40
0.8571428571428571
 40
0.8571428571428571
 40
0.8571428571428571
 40
0.8571428571428571
 40
0.9047619047619048
 40
0.9047619047619048
 40
0.9047619047619048
 40
0.9047619047619048
 40
1.0
 40
1.0
 40
1.0
 40
1.0
 10
27.4772
 20
-0.0206
 30
0.0
 10
27.4772
 20
-0.0206
 30
0.0
 10
27.6337
 20
0.2895
 30
0.0
 10
27.6337
 20
0.2895
 30
0.0
 10
27.6337
 20
0.2895
 30
0.0
 10
27.6337
 20
0.2895
 30
0.0
 10
27.7954
 20
0.2131
 30
0.0
 10
27.7954
 20
0.2131
 30
0.0
 10
27.7954
 20
0.2131
 30
0.0
 10
27.7954
 20
0.2131
 30
0.0
 10
27.632
 20
-0.1131
 30
0.0
 10
27.632
 20
-0.1131
 30
0.0
 10
27.632
 20
-0.1131
 30
0.0
 10
27.7388
 20
-0.2063
 30
0.0
 10
27.8167
 20
-0.292
 30
0.0
 10
27.8663
 20
-0.3697
 30
0.0
 10
27.8663
 20
-0.3697
 30
0.0
 10
27.9318
 20
-0.4721
 30
0.0
 10
27.983
 20
-0.5927
 30
0.0
 10
28.02
 20
-0.7308
 30
0.0
 10
28.02
 20
-0.7308
 30
0.0
 10
28.0736
 20
-0.9307
 30
0.0
 10
28.0809
 20
-1.1196
 30
0.0
 10
28.0418
 20
-1.2971
 30
0.0
 10
28.0418
 20
-1.2971
 30
0.0
 10
28.0028
 20
-1.4752
 30
0.0
 10
27.9213
 20
-1.6235
 30
0.0
 10
27.7969
 20
-1.7426
 30
0.0
 10
27.7969
 20
-1.7426
 30
0.0
 10
27.6719
 20
-1.8613
 30
0.0
 10
27.5277
 20
-1.9428
 30
0.0
 10
27.3637
 20
-1.9867
 30
0.0
 10
27.3637
 20
-1.9867
 30
0.0
 10
27.2411
 20
-2.0196
 30
0.0
 10
27.1256
 20
-2.0321
 30
0.0
 10
27.0168
 20
-2.0242
 30
0.0
 10
27.0168
 20
-2.0242
 30
0.0
 10
26.9333
 20
-2.0179
 30
0.0
 10
26.8306
 20
-1.9908
 30
0.0
 10
26.7081
 20
-1.9428
 30
0.0
 10
26.7081
 20
-1.9428
 30
0.0
 10
26.7081
 20
-1.9428
 30
0.0
 10
26.5517
 20
-2.2531
 30
0.0
 10
26.5517
 20
-2.2531
 30
0.0
 10
26.5517
 20
-2.2531
 30
0.0
 10
26.5517
 20
-2.2531
 30
0.0
 10
26.39
 20
-2.1766
 30
0.0
 10
26.39
 20
-2.1766
 30
0.0
 10
26.39
 20
-2.1766
 30
0.0
 10
26.39
 20
-2.1766
 30
0.0
 10
26.5542
 20
-1.8516
 30
0.0
 10
26.5542
 20
-1.8516
 30
0.0
 10
26.5542
 20
-1.8516
 30
0.0
 10
26.4315
 20
-1.7428
 30
0.0
 10
26.3431
 20
-1.6452
 30
0.0
 10
26.2889
 20
-1.5594
 30
0.0
 10
26.2889
 20
-1.5594
 30
0.0
 10
26.2348
 20
-1.4736
 30
0.0
 10
26.1896
 20
-1.3649
 30
0.0
 10
26.1544
 20
-1.2336
 30
0.0
 10
26.1544
 20
-1.2336
 30
0.0
 10
26.1007
 20
-1.0333
 30
0.0
 10
26.0929
 20
-0.844
 30
0.0
 10
26.1307
 20
-0.6658
 30
0.0
 10
26.1307
 20
-0.6658
 30
0.0
 10
26.1687
 20
-0.4876
 30
0.0
 10
26.2487
 20
-0.3392
 30
0.0
 10
26.3716
 20
-0.2196
 30
0.0
 10
26.3716
 20
-0.2196
 30
0.0
 10
26.494
 20
-0.1005
 30
0.0
 10
26.6436
 20
-0.0171
 30
0.0
 10
26.8203
 20
0.0303
 30
0.0
 10
26.8203
 20
0.0303
 30
0.0
 10
26.9394
 20
0.0622
 30
0.0
 10
27.0475
 20
0.0746
 30
0.0
 10
27.1451
 20
0.0666
 30
0.0
 10
27.1451
 20
0.0666
 30
0.0
 10
27.2426
 20
0.0592
 30
0.0
 10
27.3536
 20
0.03
 30
0.0
 10
27.4772
 20
-0.0206
 30
0.0
  0
SPLINE
  5
A9
330
1F
100
AcDbEntity
  8
ROUND
 62
   250
100
AcDbSpline
210
0.0
220
0.0
230
1.0
 70
    11
 71
     3
 72
    32
 73
    28
 74
     0
 42
0.0000000001
 43
0.0000000001
 40
0.0
 40
0.0
 40
0.0
 40
0.0
 40
0.125
 40
0.125
 40
0.125
 40
0.125
 40
0.25
 40
0.25
 40
0.25
 40
0.25
 40
0.375
 40
0.375
 40
0.375
 40
0.375
 40
0.5
 40
0.5
 40
0.5
 40
0.5
 40
0.625
 40
0.625
 40
0.625
 40
0.625
 40
0.75
 40
0.75
 40
0.75
 40
0.75
 40
1.0
 40
1.0
 40
1.0
 40
1.0
 10
27.3659
 20
-0.2428
 30
0.0
 10
27.2647
 20
-0.1999
 30
0.0
 10
27.1795
 20
-0.1744
 30
0.0
 10
27.1108
 20
-0.1671
 30
0.0
 10
27.1108
 20
-0.1671
 30
0.0
 10
27.0418
 20
-0.1602
 30
0.0
 10
26.9649
 20
-0.1676
 30
0.0
 10
26.8808
 20
-0.1902
 30
0.0
 10
26.8808
 20
-0.1902
 30
0.0
 10
26.6864
 20
-0.2423
 30
0.0
 10
26.5437
 20
-0.3511
 30
0.0
 10
26.4518
 20
-0.517
 30
0.0
 10
26.4518
 20
-0.517
 30
0.0
 10
26.3603
 20
-0.6828
 30
0.0
 10
26.3494
 20
-0.8965
 30
0.0
 10
26.4196
 20
-1.1586
 30
0.0
 10
26.4196
 20
-1.1586
 30
0.0
 10
26.4472
 20
-1.2613
 30
0.0
 10
26.4816
 20
-1.35
 30
0.0
 10
26.5226
 20
-1.4248
 30
0.0
 10
26.5226
 20
-1.4248
 30
0.0
 10
26.5527
 20
-1.4805
 30
0.0
 10
26.6017
 20
-1.5457
 30
0.0
 10
26.6705
 20
-1.6203
 30
0.0
 10
26.6705
 20
-1.6203
 30
0.0
 10
26.6705
 20
-1.6203
 30
0.0
 10
27.3659
 20
-0.2428
 30
0.0
 10
27.3659
 20
-0.2428
 30
0.0
  0
SPLINE
  5
AA
330
1F
100
AcDbEntity
  8
ROUND
 62
   250
100
AcDbSpline
210
0.0
220
0.0
230
1.0
 70
    11
 71
     3
 72
    28
 73
    24
 74
     0
 42
0.0000000001
 43
0.0000000001
 40
0.0
 40
0.0
 40
0.0
 40
0.0
 40
0.1428571428571428
 40
0.1428571428571428
 40
0.1428571428571428
 40
0.1428571428571428
 40
0.2857142857142857
 40
0.2857142857142857
 40
0.2857142857142857
 40
0.2857142857142857
 40
0.4285714285714285
 40
0.4285714285714285
 40
0.4285714285714285
 40
0.4285714285714285
 40
0.5714285714285714
 40
0.5714285714285714
 40
0.5714285714285714
 40
0.5714285714285714
 40
0.7142857142857143
 40
0.7142857142857143
 40
0.7142857142857143
 40
0.7142857142857143
 40
1.0
 40
1.0
 40
1.0
 40
1.0
 10
27.5117
 20
-0.3509
 30
0.0
 10
27.5117
 20
-0.3509
 30
0.0
 10
26.8193
 20
-1.7231
 30
0.0
 10
26.8193
 20
-1.7231
 30
0.0
 10
26.8193
 20
-1.7231
 30
0.0
 10
26.9023
 20
-1.7607
 30
0.0
 10
26.976
 20
-1.7829
 30
0.0
 10
27.0397
 20
-1.7897
 30
0.0
 10
27.0397
 20
-1.7897
 30
0.0
 10
27.1229
 20
-1.799
 30
0.0
 10
27.2086
 20
-1.7916
 30
0.0
 10
27.2964
 20
-1.7681
 30
0.0
 10
27.2964
 20
-1.7681
 30
0.0
 10
27.4899
 20
-1.7162
 30
0.0
 10
27.6311
 20
-1.6054
 30
0.0
 10
27.7207
 20
-1.4348
 30
0.0
 10
27.7207
 20
-1.4348
 30
0.0
 10
27.81
 20
-1.2643
 30
0.0
 10
27.8218
 20
-1.0556
 30
0.0
 10
27.7557
 20
-0.8089
 30
0.0
 10
27.7557
 20
-0.8089
 30
0.0
 10
27.7062
 20
-0.6245
 30
0.0
 10
27.6249
 20
-0.4715
 30
0.0
 10
27.5117
 20
-0.3509
 30
0.0
  0
SPLINE
  5
AB
330
1F
100
AcDbEntity
  8
ROUND
 62
   250
100
AcDbSpline
210
0.0
220
0.0
230
1.0
 70
    11
 71
     3
 72
    40
 73
    36
 74
     0
 42
0.0000000001
 43
0.0000000001
 40
0.0
 40
0.0
 40
0.0
 40
0.0
 40
0.1
 40
0.1
 40
0.1
 40
0.1
 40
0.2
 40
0.2
 40
0.2
 40
0.2
 40
0.3
 40
0.3
 40
0.3
 40
0.3
 40
0.4
 40
0.4
 40
0.4
 40
0.4
 40
0.5
 40
0.5
 40
0.5
 40
0.5
 40
0.6
 40
0.6
 40
0.6
 40
0.6
 40
0.7
 40
0.7
 40
0.7
 40
0.7
 40
0.8
 40
0.8
 40
0.8
 40
0.8
 40
1.0
 40
1.0
 40
1.0
 40
1.0
 10
29.4243
 20
-1.3991
 30
0.0
 10
29.4243
 20
-1.3991
 30
0.0
 10
29.1849
 20
-1.4632
 30
0.0
 10
29.1849
 20
-1.4632
 30
0.0
 10
29.1849
 20
-1.4632
 30
0.0
 10
29.1849
 20
-1.4632
 30
0.0
 10
28.7759
 20
0.0633
 30
0.0
 10
28.7759
 20
0.0633
 30
0.0
 10
28.7759
 20
0.0633
 30
0.0
 10
28.7328
 20
-0.0071
 30
0.0
 10
28.6722
 20
-0.0823
 30
0.0
 10
28.5933
 20
-0.1623
 30
0.0
 10
28.5933
 20
-0.1623
 30
0.0
 10
28.514
 20
-0.2425
 30
0.0
 10
28.441
 20
-0.3063
 30
0.0
 10
28.3738
 20
-0.3536
 30
0.0
 10
28.3738
 20
-0.3536
 30
0.0
 10
28.3738
 20
-0.3536
 30
0.0
 10
28.3118
 20
-0.1223
 30
0.0
 10
28.3118
 20
-0.1223
 30
0.0
 10
28.3118
 20
-0.1223
 30
0.0
 10
28.429
 20
-0.0233
 30
0.0
 10
28.5257
 20
0.0845
 30
0.0
 10
28.6021
 20
0.2009
 30
0.0
 10
28.6021
 20
0.2009
 30
0.0
 10
28.678
 20
0.3177
 30
0.0
 10
28.726
 20
0.4235
 30
0.0
 10
28.7452
 20
0.5192
 30
0.0
 10
28.7452
 20
0.5192
 30
0.0
 10
28.7452
 20
0.5192
 30
0.0
 10
28.8993
 20
0.5605
 30
0.0
 10
28.8993
 20
0.5605
 30
0.0
 10
28.8993
 20
0.5605
 30
0.0
 10
28.8993
 20
0.5605
 30
0.0
 10
29.4243
 20
-1.3991
 30
0.0
 10
29.4243
 20
-1.3991
 30
0.0
  0
SPLINE
  5
AC
330
1F
100
AcDbEntity
  8
ROUND
 62
   250
100
AcDbSpline
210
0.0
220
0.0
230
1.0
 70
    11
 71
     3
 72
    52
 73
    48
 74
     0
 42
0.0000000001
 43
0.0000000001
 40
0.0
 40
0.0
 40
0.0
 40
0.0
 40
0.0769230769230769
 40
0.0769230769230769
 40
0.0769230769230769
 40
0.0769230769230769
 40
0.1538461538461539
 40
0.1538461538461539
 40
0.1538461538461539
 40
0.1538461538461539
 40
0.2307692307692308
 40
0.2307692307692308
 40
0.2307692307692308
 40
0.2307692307692308
 40
0.3076923076923077
 40
0.3076923076923077
 40
0.3076923076923077
 40
0.3076923076923077
 40
0.3846153846153846
 40
0.3846153846153846
 40
0.3846153846153846
 40
0.3846153846153846
 40
0.4615384615384616
 40
0.4615384615384616
 40
0.4615384615384616
 40
0.4615384615384616
 40
0.5384615384615384
 40
0.5384615384615384
 40
0.5384615384615384
 40
0.5384615384615384
 40
0.6153846153846154
 40
0.6153846153846154
 40
0.6153846153846154
 40
0.6153846153846154
 40
0.6923076923076923
 40
0.6923076923076923
 40
0.6923076923076923
 40
0.6923076923076923
 40
0.7692307692307693
 40
0.7692307692307693
 40
0.7692307692307693
 40
0.7692307692307693
 40
0.8461538461538461
 40
0.8461538461538461
 40
0.8461538461538461
 40
0.8461538461538461
 40
1.0
 40
1.0
 40
1.0
 40
1.0
 10
29.7803
 20
-0.2723
 30
0.0
 10
29.7184
 20
-0.0415
 30
0.0
 10
29.6923
 20
0.1507
 30
0.0
 10
29.7024
 20
0.3038
 30
0.0
 10
29.7024
 20
0.3038
 30
0.0
 10
29.7119
 20
0.4573
 30
0.0
 10
29.7537
 20
0.5849
 30
0.0
 10
29.8268
 20
0.6864
 30
0.0
 10
29.8268
 20
0.6864
 30
0.0
 10
29.9
 20
0.7878
 30
0.0
 10
30.0074
 20
0.8574
 30
0.0
 10
30.1491
 20
0.8954
 30
0.0
 10
30.1491
 20
0.8954
 30
0.0
 10
30.2541
 20
0.9235
 30
0.0
 10
30.3516
 20
0.9268
 30
0.0
 10
30.4419
 20
0.9056
 30
0.0
 10
30.4419
 20
0.9056
 30
0.0
 10
30.5322
 20
0.8851
 30
0.0
 10
30.6135
 20
0.8416
 30
0.0
 10
30.6866
 20
0.776
 30
0.0
 10
30.6866
 20
0.776
 30
0.0
 10
30.7592
 20
0.7102
 30
0.0
 10
30.8256
 20
0.6243
 30
0.0
 10
30.8852
 20
0.5181
 30
0.0
 10
30.8852
 20
0.5181
 30
0.0
 10
30.9454
 20
0.4119
 30
0.0
 10
31.001
 20
0.2622
 30
0.0
 10
31.0529
 20
0.0686
 30
0.0
 10
31.0529
 20
0.0686
 30
0.0
 10
31.1142
 20
-0.1603
 30
0.0
 10
31.1401
 20
-0.3511
 30
0.0
 10
31.131
 20
-0.5045
 30
0.0
 10
31.131
 20
-0.5045
 30
0.0
 10
31.1215
 20
-0.658
 30
0.0
 10
31.0801
 20
-0.7854
 30
0.0
 10
31.0071
 20
-0.8873
 30
0.0
 10
31.0071
 20
-0.8873
 30
0.0
 10
30.9341
 20
-0.9891
 30
0.0
 10
30.8262
 20
-1.0589
 30
0.0
 10
30.683
 20
-1.0973
 30
0.0
 10
30.683
 20
-1.0973
 30
0.0
 10
30.495
 20
-1.1477
 30
0.0
 10
30.3293
 20
-1.12
 30
0.0
 10
30.1859
 20
-1.0138
 30
0.0
 10
30.1859
 20
-1.0138
 30
0.0
 10
30.0139
 20
-0.8861
 30
0.0
 10
29.8784
 20
-0.6385
 30
0.0
 10
29.7803
 20
-0.2723
 30
0.0
  0
SPLINE
  5
AD
330
1F
100
AcDbEntity
  8
ROUND
 62
   250
100
AcDbSpline
210
0.0
220
0.0
230
1.0
 70
    11
 71
     3
 72
    36
 73
    32
 74
     0
 42
0.0000000001
 43
0.0000000001
 40
0.0
 40
0.0
 40
0.0
 40
0.0
 40
0.1111111111111111
 40
0.1111111111111111
 40
0.1111111111111111
 40
0.1111111111111111
 40
0.2222222222222222
 40
0.2222222222222222
 40
0.2222222222222222
 40
0.2222222222222222
 40
0.3333333333333333
 40
0.3333333333333333
 40
0.3333333333333333
 40
0.3333333333333333
 40
0.4444444444444444
 40
0.4444444444444444
 40
0.4444444444444444
 40
0.4444444444444444
 40
0.5555555555555556
 40
0.5555555555555556
 40
0.5555555555555556
 40
0.5555555555555556
 40
0.6666666666666666
 40
0.6666666666666666
 40
0.6666666666666666
 40
0.6666666666666666
 40
0.7777777777777778
 40
0.7777777777777778
 40
0.7777777777777778
 40
0.7777777777777778
 40
1.0
 40
1.0
 40
1.0
 40
1.0
 10
30.0266
 20
-0.2063
 30
0.0
 10
30.1124
 20
-0.5267
 30
0.0
 10
30.2072
 20
-0.7296
 30
0.0
 10
30.3106
 20
-0.8158
 30
0.0
 10
30.3106
 20
-0.8158
 30
0.0
 10
30.4139
 20
-0.9016
 30
0.0
 10
30.5204
 20
-0.9301
 30
0.0
 10
30.6303
 20
-0.9006
 30
0.0
 10
30.6303
 20
-0.9006
 30
0.0
 10
30.7407
 20
-0.8711
 30
0.0
 10
30.8186
 20
-0.7927
 30
0.0
 10
30.8651
 20
-0.6663
 30
0.0
 10
30.8651
 20
-0.6663
 30
0.0
 10
30.9115
 20
-0.5399
 30
0.0
 10
30.8922
 20
-0.3167
 30
0.0
 10
30.8067
 20
0.0027
 30
0.0
 10
30.8067
 20
0.0027
 30
0.0
 10
30.7206
 20
0.3239
 30
0.0
 10
30.6256
 20
0.5274
 30
0.0
 10
30.5224
 20
0.6127
 30
0.0
 10
30.5224
 20
0.6127
 30
0.0
 10
30.4191
 20
0.6985
 30
0.0
 10
30.3118
 20
0.7262
 30
0.0
 10
30.2001
 20
0.6962
 30
0.0
 10
30.2001
 20
0.6962
 30
0.0
 10
30.0897
 20
0.6666
 30
0.0
 10
30.0145
 20
0.5964
 30
0.0
 10
29.9736
 20
0.4856
 30
0.0
 10
29.9736
 20
0.4856
 30
0.0
 10
29.9232
 20
0.345
 30
0.0
 10
29.9407
 20
0.114
 30
0.0
 10
30.0266
 20
-0.2063
 30
0.0
  0
SPLINE
  5
AE
330
1F
100
AcDbEntity
  8
ROUND
 62
   250
100
AcDbSpline
210
0.0
220
0.0
230
1.0
 70
    11
 71
     3
 72
    52
 73
    48
 74
     0
 42
0.0000000001
 43
0.0000000001
 40
0.0
 40
0.0
 40
0.0
 40
0.0
 40
0.0769230769230769
 40
0.0769230769230769
 40
0.0769230769230769
 40
0.0769230769230769
 40
0.1538461538461539
 40
0.1538461538461539
 40
0.1538461538461539
 40
0.1538461538461539
 40
0.2307692307692308
 40
0.2307692307692308
 40
0.2307692307692308
 40
0.2307692307692308
 40
0.3076923076923077
 40
0.3076923076923077
 40
0.3076923076923077
 40
0.3076923076923077
 40
0.3846153846153846
 40
0.3846153846153846
 40
0.3846153846153846
 40
0.3846153846153846
 40
0.4615384615384616
 40
0.4615384615384616
 40
0.4615384615384616
 40
0.4615384615384616
 40
0.5384615384615384
 40
0.5384615384615384
 40
0.5384615384615384
 40
0.5384615384615384
 40
0.6153846153846154
 40
0.6153846153846154
 40
0.6153846153846154
 40
0.6153846153846154
 40
0.6923076923076923
 40
0.6923076923076923
 40
0.6923076923076923
 40
0.6923076923076923
 40
0.7692307692307693
 40
0.7692307692307693
 40
0.7692307692307693
 40
0.7692307692307693
 40
0.8461538461538461
 40
0.8461538461538461
 40
0.8461538461538461
 40
0.8461538461538461
 40
1.0
 40
1.0
 40
1.0
 40
1.0
 10
31.2964
 20
0.1339
 30
0.0
 10
31.2345
 20
0.3647
 30
0.0
 10
31.2084
 20
0.5569
 30
0.0
 10
31.2185
 20
0.7101
 30
0.0
 10
31.2185
 20
0.7101
 30
0.0
 10
31.228
 20
0.8636
 30
0.0
 10
31.2698
 20
0.9911
 30
0.0
 10
31.3429
 20
1.0926
 30
0.0
 10
31.3429
 20
1.0926
 30
0.0
 10
31.4161
 20
1.194
 30
0.0
 10
31.5235
 20
1.2637
 30
0.0
 10
31.6652
 20
1.3016
 30
0.0
 10
31.6652
 20
1.3016
 30
0.0
 10
31.7702
 20
1.3298
 30
0.0
 10
31.8677
 20
1.333
 30
0.0
 10
31.958
 20
1.3119
 30
0.0
 10
31.958
 20
1.3119
 30
0.0
 10
32.0483
 20
1.2914
 30
0.0
 10
32.1297
 20
1.2478
 30
0.0
 10
32.2027
 20
1.1822
 30
0.0
 10
32.2027
 20
1.1822
 30
0.0
 10
32.2753
 20
1.1164
 30
0.0
 10
32.3417
 20
1.0305
 30
0.0
 10
32.4014
 20
0.9243
 30
0.0
 10
32.4014
 20
0.9243
 30
0.0
 10
32.4615
 20
0.8182
 30
0.0
 10
32.5171
 20
0.6685
 30
0.0
 10
32.569
 20
0.4749
 30
0.0
 10
32.569
 20
0.4749
 30
0.0
 10
32.6303
 20
0.246
 30
0.0
 10
32.6562
 20
0.0552
 30
0.0
 10
32.6471
 20
-0.0982
 30
0.0
 10
32.6471
 20
-0.0982
 30
0.0
 10
32.6376
 20
-0.2517
 30
0.0
 10
32.5963
 20
-0.3792
 30
0.0
 10
32.5232
 20
-0.481
 30
0.0
 10
32.5232
 20
-0.481
 30
0.0
 10
32.4502
 20
-0.5829
 30
0.0
 10
32.3423
 20
-0.6527
 30
0.0
 10
32.1992
 20
-0.6911
 30
0.0
 10
32.1992
 20
-0.6911
 30
0.0
 10
32.0111
 20
-0.7415
 30
0.0
 10
31.8454
 20
-0.7138
 30
0.0
 10
31.702
 20
-0.6076
 30
0.0
 10
31.702
 20
-0.6076
 30
0.0
 10
31.53
 20
-0.4799
 30
0.0
 10
31.3945
 20
-0.2323
 30
0.0
 10
31.2964
 20
0.1339
 30
0.0
  0
SPLINE
  5
AF
330
1F
100
AcDbEntity
  8
ROUND
 62
   250
100
AcDbSpline
210
0.0
220
0.0
230
1.0
 70
    11
 71
     3
 72
    36
 73
    32
 74
     0
 42
0.0000000001
 43
0.0000000001
 40
0.0
 40
0.0
 40
0.0
 40
0.0
 40
0.1111111111111111
 40
0.1111111111111111
 40
0.1111111111111111
 40
0.1111111111111111
 40
0.2222222222222222
 40
0.2222222222222222
 40
0.2222222222222222
 40
0.2222222222222222
 40
0.3333333333333333
 40
0.3333333333333333
 40
0.3333333333333333
 40
0.3333333333333333
 40
0.4444444444444444
 40
0.4444444444444444
 40
0.4444444444444444
 40
0.4444444444444444
 40
0.5555555555555556
 40
0.5555555555555556
 40
0.5555555555555556
 40
0.5555555555555556
 40
0.6666666666666666
 40
0.6666666666666666
 40
0.6666666666666666
 40
0.6666666666666666
 40
0.7777777777777778
 40
0.7777777777777778
 40
0.7777777777777778
 40
0.7777777777777778
 40
1.0
 40
1.0
 40
1.0
 40
1.0
 10
31.5427
 20
0.1999
 30
0.0
 10
31.6285
 20
-0.1204
 30
0.0
 10
31.7233
 20
-0.3234
 30
0.0
 10
31.8267
 20
-0.4096
 30
0.0
 10
31.8267
 20
-0.4096
 30
0.0
 10
31.93
 20
-0.4953
 30
0.0
 10
32.0365
 20
-0.5239
 30
0.0
 10
32.1465
 20
-0.4944
 30
0.0
 10
32.1465
 20
-0.4944
 30
0.0
 10
32.2569
 20
-0.4648
 30
0.0
 10
32.3347
 20
-0.3865
 30
0.0
 10
32.3812
 20
-0.2601
 30
0.0
 10
32.3812
 20
-0.2601
 30
0.0
 10
32.4277
 20
-0.1336
 30
0.0
 10
32.4083
 20
0.0896
 30
0.0
 10
32.3228
 20
0.4089
 30
0.0
 10
32.3228
 20
0.4089
 30
0.0
 10
32.2367
 20
0.7302
 30
0.0
 10
32.1417
 20
0.9336
 30
0.0
 10
32.0385
 20
1.0189
 30
0.0
 10
32.0385
 20
1.0189
 30
0.0
 10
31.9352
 20
1.1047
 30
0.0
 10
31.828
 20
1.1324
 30
0.0
 10
31.7162
 20
1.1025
 30
0.0
 10
31.7162
 20
1.1025
 30
0.0
 10
31.6058
 20
1.0729
 30
0.0
 10
31.5306
 20
1.0026
 30
0.0
 10
31.4897
 20
0.8919
 30
0.0
 10
31.4897
 20
0.8919
 30
0.0
 10
31.4393
 20
0.7512
 30
0.0
 10
31.4569
 20
0.5202
 30
0.0
 10
31.5427
 20
0.1999
 30
0.0
  0
SPLINE
  5
B0
330
1F
100
AcDbEntity
  8
ROUND
 62
   250
100
AcDbSpline
210
0.0
220
0.0
230
1.0
 70
    24
 71
     3
 72
     8
 73
     4
 74
     0
 42
0.0000000001
 43
0.0000000001
 40
0.0
 40
0.0
 40
0.0
 40
0.0
 40
1.0
 40
1.0
 40
1.0
 40
1.0
 10
41.4242
 20
1.2512
 30
0.0
 10
41.4242
 20
1.2512
 30
0.0
 10
14.709
 20
-5.9071
 30
0.0
 10
14.709
 20
-5.9071
 30
0.0
  0
SPLINE
  5
B1
330
1F
100
AcDbEntity
  8
ROUND
 62
   250
100
AcDbSpline
210
0.0
220
0.0
230
1.0
 70
    11
 71
     3
 72
    20
 73
    16
 74
     0
 42
0.0000000001
 43
0.0000000001
 40
0.0
 40
0.0
 40
0.0
 40
0.0
 40
0.2
 40
0.2
 40
0.2
 40
0.2
 40
0.4
 40
0.4
 40
0.4
 40
0.4
 40
0.6
 40
0.6
 40
0.6
 40
0.6
 40
1.0
 40
1.0
 40
1.0
 40
1.0
 10
38.8195
 20
1.0295
 30
0.0
 10
38.8195
 20
1.0295
 30
0.0
 10
41.7609
 20
1.3889
 30
0.0
 10
41.7609
 20
1.3889
 30
0.0
 10
41.7609
 20
1.3889
 30
0.0
 10
41.7609
 20
1.3889
 30
0.0
 10
41.7847
 20
1.3001
 30
0.0
 10
41.7847
 20
1.3001
 30
0.0
 10
41.7847
 20
1.3001
 30
0.0
 10
41.7847
 20
1.3001
 30
0.0
 10
39.0648
 20
0.114
 30
0.0
 10
39.0648
 20
0.114
 30
0.0
 10
39.0648
 20
0.114
 30
0.0
 10
39.0648
 20
0.114
 30
0.0
 10
38.8195
 20
1.0295
 30
0.0
 10
38.8195
 20
1.0295
 30
0.0
  0
SPLINE
  5
B2
330
1F
100
AcDbEntity
  8
ROUND
 62
   250
100
AcDbSpline
210
0.0
220
0.0
230
1.0
 70
    11
 71
     3
 72
    20
 73
    16
 74
     0
 42
0.0000000001
 43
0.0000000001
 40
0.0
 40
0.0
 40
0.0
 40
0.0
 40
0.2
 40
0.2
 40
0.2
 40
0.2
 40
0.4
 40
0.4
 40
0.4
 40
0.4
 40
0.6
 40
0.6
 40
0.6
 40
0.6
 40
1.0
 40
1.0
 40
1.0
 40
1.0
 10
17.3872
 20
-5.7167
 30
0.0
 10
17.3872
 20
-5.7167
 30
0.0
 10
14.4457
 20
-6.0762
 30
0.0
 10
14.4457
 20
-6.0762
 30
0.0
 10
14.4457
 20
-6.0762
 30
0.0
 10
14.4457
 20
-6.0762
 30
0.0
 10
14.4219
 20
-5.9873
 30
0.0
 10
14.4219
 20
-5.9873
 30
0.0
 10
14.4219
 20
-5.9873
 30
0.0
 10
14.4219
 20
-5.9873
 30
0.0
 10
17.1419
 20
-4.8013
 30
0.0
 10
17.1419
 20
-4.8013
 30
0.0
 10
17.1419
 20
-4.8013
 30
0.0
 10
17.1419
 20
-4.8013
 30
0.0
 10
17.3872
 20
-5.7167
 30
0.0
 10
17.3872
 20
-5.7167
 30
0.0
  0
SPLINE
  5
B3
330
1F
100
AcDbEntity
  8
ROUND
 62
   250
100
AcDbSpline
210
0.0
220
0.0
230
1.0
 70
    11
 71
     3
 72
    20
 73
    16
 74
     0
 42
0.0000000001
 43
0.0000000001
 40
0.0
 40
0.0
 40
0.0
 40
0.0
 40
0.2
 40
0.2
 40
0.2
 40
0.2
 40
0.4
 40
0.4
 40
0.4
 40
0.4
 40
0.6
 40
0.6
 40
0.6
 40
0.6
 40
1.0
 40
1.0
 40
1.0
 40
1.0
 10
19.7413
 20
-5.0824
 30
0.0
 10
19.7413
 20
-5.0824
 30
0.0
 10
16.7998
 20
-5.4419
 30
0.0
 10
16.7998
 20
-5.4419
 30
0.0
 10
16.7998
 20
-5.4419
 30
0.0
 10
16.7998
 20
-5.4419
 30
0.0
 10
16.776
 20
-5.353
 30
0.0
 10
16.776
 20
-5.353
 30
0.0
 10
16.776
 20
-5.353
 30
0.0
 10
16.776
 20
-5.353
 30
0.0
 10
19.496
 20
-4.167
 30
0.0
 10
19.496
 20
-4.167
 30
0.0
 10
19.496
 20
-4.167
 30
0.0
 10
19.496
 20
-4.167
 30
0.0
 10
19.7413
 20
-5.0824
 30
0.0
 10
19.7413
 20
-5.0824
 30
0.0
  0
SPLINE
  5
B4
330
1F
100
AcDbEntity
  8
ROUND
100
AcDbSpline
210
0.0
220
0.0
230
1.0
 70
    24
 71
     3
 72
     8
 73
     4
 74
     0
 42
0.0000000001
 43
0.0000000001
 40
0.0
 40
0.0
 40
0.0
 40
0.0
 40
1.0
 40
1.0
 40
1.0
 40
1.0
 10
49.1791
 20
-3.9757
 30
0.0
 10
49.1791
 20
-3.9527
 30
0.0
 10
49.1791
 20
-3.9296
 30
0.0
 10
49.1791
 20
-3.9065
 30
0.0
  0
SPLINE
  5
B5
330
1F
100
AcDbEntity
  8
ROUND
  6
NEW_LINE12
 62
   250
100
AcDbSpline
210
0.0
220
0.0
230
1.0
 70
    24
 71
     3
 72
     8
 73
     4
 74
     0
 42
0.0000000001
 43
0.0000000001
 40
0.0
 40
0.0
 40
0.0
 40
0.0
 40
1.0
 40
1.0
 40
1.0
 40
1.0
 10
3.8189
 20
-3.9193
 30
0.0
 10
3.8189
 20
-3.9193
 30
0.0
 10
50.8541
 20
-3.9193
 30
0.0
 10
50.8541
 20
-3.9193
 30
0.0
  0
SPLINE
  5
B7
330
1F
100
AcDbEntity
  8
ROUND
  6
NEW_LINE13
 62
   250
100
AcDbSpline
210
0.0
220
0.0
230
1.0
 70
    24
 71
     3
 72
     8
 73
     4
 74
     0
 42
0.0000000001
 43
0.0000000001
 40
0.0
 40
0.0
 40
0.0
 40
0.0
 40
1.0
 40
1.0
 40
1.0
 40
1.0
 10
27.3365
 20
-5.8105
 30
0.0
 10
27.3365
 20
-5.8105
 30
0.0
 10
27.3365
 20
-2.8562
 30
0.0
 10
27.3365
 20
-2.8562
 30
0.0
  0
SPLINE
  5
B9
330
1F
100
AcDbEntity
  8
ROUND
  6
NEW_LINE14
 62
   250
100
AcDbSpline
210
0.0
220
0.0
230
1.0
 70
    24
 71
     3
 72
     8
 73
     4
 74
     0
 42
0.0000000001
 43
0.0000000001
 40
0.0
 40
0.0
 40
0.0
 40
0.0
 40
1.0
 40
1.0
 40
1.0
 40
1.0
 10
25.5466
 20
-5.5018
 30
0.0
 10
25.5466
 20
-5.5018
 30
0.0
 10
25.5466
 20
14.2875
 30
0.0
 10
25.5466
 20
14.2875
 30
0.0
  0
SPLINE
  5
BB
330
1F
100
AcDbEntity
  8
ROUND
  6
NEW_LINE15
 62
   250
100
AcDbSpline
210
0.0
220
0.0
230
1.0
 70
    24
 71
     3
 72
     8
 73
     4
 74
     0
 42
0.0000000001
 43
0.0000000001
 40
0.0
 40
0.0
 40
0.0
 40
0.0
 40
1.0
 40
1.0
 40
1.0
 40
1.0
 10
27.3365
 20
1.0902
 30
0.0
 10
27.3365
 20
1.0902
 30
0.0
 10
27.3365
 20
19.3124
 30
0.0
 10
27.3365
 20
19.3124
 30
0.0
  0
SPLINE
  5
BD
330
1F
100
AcDbEntity
  8
ROUND
100
AcDbSpline
210
0.0
220
0.0
230
1.0
 70
     8
 71
     3
 72
    12
 73
     8
 74
     0
 42
0.0000000001
 43
0.0000000001
 40
0.0
 40
0.0
 40
0.0
 40
0.0
 40
0.3333333333333333
 40
0.3333333333333333
 40
0.3333333333333333
 40
0.3333333333333333
 40
1.0
 40
1.0
 40
1.0
 40
1.0
 10
49.1768
 20
-3.9166
 30
0.0
 10
49.1768
 20
8.0707
 30
0.0
 10
39.4591
 20
17.7884
 30
0.0
 10
27.4718
 20
17.7884
 30
0.0
 10
27.4718
 20
17.7884
 30
0.0
 10
15.4845
 20
17.7884
 30
0.0
 10
5.7668
 20
8.0707
 30
0.0
 10
5.7668
 20
-3.9166
 30
0.0
  0
SPLINE
  5
BE
330
1F
100
AcDbEntity
  8
ROUND
100
AcDbSpline
210
0.0
220
0.0
230
1.0
 70
     8
 71
     3
 72
    12
 73
     8
 74
     0
 42
0.0000000001
 43
0.0000000001
 40
0.0
 40
0.0
 40
0.0
 40
0.0
 40
0.3333333333333333
 40
0.3333333333333333
 40
0.3333333333333333
 40
0.3333333333333333
 40
1.0
 40
1.0
 40
1.0
 40
1.0
 10
42.878
 20
-3.9166
 30
0.0
 10
42.878
 20
5.5036
 30
0.0
 10
35.2414
 20
13.1401
 30
0.0
 10
25.8212
 20
13.1401
 30
0.0
 10
25.8212
 20
13.1401
 30
0.0
 10
16.4011
 20
13.1401
 30
0.0
 10
8.7645
 20
5.5036
 30
0.0
 10
8.7645
 20
-3.9166
 30
0.0
  0
SPLINE
  5
BF
330
1F
100
AcDbEntity
  8
ROUND
100
AcDbSpline
210
0.0
220
0.0
230
1.0
 70
     8
 71
     3
 72
    12
 73
     8
 74
     0
 42
0.0000000001
 43
0.0000000001
 40
0.0
 40
0.0
 40
0.0
 40
0.0
 40
0.3333333333333333
 40
0.3333333333333333
 40
0.3333333333333333
 40
0.3333333333333333
 40
1.0
 40
1.0
 40
1.0
 40
1.0
 10
42.7396
 20
-3.9166
 30
0.0
 10
42.7396
 20
5.4271
 30
0.0
 10
35.165
 20
13.0017
 30
0.0
 10
25.8212
 20
13.0017
 30
0.0
 10
25.8212
 20
13.0017
 30
0.0
 10
16.4775
 20
13.0017
 30
0.0
 10
8.9029
 20
5.4271
 30
0.0
 10
8.9029
 20
-3.9166
 30
0.0
  0
SPLINE
  5
C0
330
1F
100
AcDbEntity
  8
ROUND
100
AcDbSpline
210
0.0
220
0.0
230
1.0
 70
     8
 71
     3
 72
     8
 73
     4
 74
     0
 42
0.0000000001
 43
0.0000000001
 40
0.0
 40
0.0
 40
0.0
 40
0.0
 40
1.0
 40
1.0
 40
1.0
 40
1.0
 10
49.1404
 20
-32.0305
 30
0.0
 10
49.1404
 20
-31.9744
 30
0.0
 10
49.1402
 20
-31.9184
 30
0.0
 10
49.1398
 20
-31.8624
 30
0.0
  0
SPLINE
  5
C1
330
1F
100
AcDbEntity
  8
ROUND
100
AcDbSpline
210
0.0
220
0.0
230
1.0
 70
     8
 71
     3
 72
     8
 73
     4
 74
     0
 42
0.0000000001
 43
0.0000000001
 40
0.0
 40
0.0
 40
0.0
 40
0.0
 40
1.0
 40
1.0
 40
1.0
 40
1.0
 10
39.402
 20
-32.0305
 30
0.0
 10
39.402
 20
-31.967
 30
0.0
 10
39.4016
 20
-31.9036
 30
0.0
 10
39.4009
 20
-31.8403
 30
0.0
  0
SPLINE
  5
C2
330
1F
100
AcDbEntity
  8
ROUND
 62
   250
100
AcDbSpline
210
0.0
220
0.0
230
1.0
 70
    11
 71
     3
 72
    84
 73
    80
 74
     0
 42
0.0000000001
 43
0.0000000001
 40
0.0
 40
0.0
 40
0.0
 40
0.0
 40
0.0476190476190476
 40
0.0476190476190476
 40
0.0476190476190476
 40
0.0476190476190476
 40
0.0952380952380952
 40
0.0952380952380952
 40
0.0952380952380952
 40
0.0952380952380952
 40
0.1428571428571428
 40
0.1428571428571428
 40
0.1428571428571428
 40
0.1428571428571428
 40
0.1904761904761905
 40
0.1904761904761905
 40
0.1904761904761905
 40
0.1904761904761905
 40
0.2380952380952381
 40
0.2380952380952381
 40
0.2380952380952381
 40
0.2380952380952381
 40
0.2857142857142857
 40
0.2857142857142857
 40
0.2857142857142857
 40
0.2857142857142857
 40
0.3333333333333333
 40
0.3333333333333333
 40
0.3333333333333333
 40
0.3333333333333333
 40
0.3809523809523809
 40
0.3809523809523809
 40
0.3809523809523809
 40
0.3809523809523809
 40
0.4285714285714285
 40
0.4285714285714285
 40
0.4285714285714285
 40
0.4285714285714285
 40
0.4761904761904762
 40
0.4761904761904762
 40
0.4761904761904762
 40
0.4761904761904762
 40
0.5238095238095238
 40
0.5238095238095238
 40
0.5238095238095238
 40
0.5238095238095238
 40
0.5714285714285714
 40
0.5714285714285714
 40
0.5714285714285714
 40
0.5714285714285714
 40
0.6190476190476191
 40
0.6190476190476191
 40
0.6190476190476191
 40
0.6190476190476191
 40
0.6666666666666666
 40
0.6666666666666666
 40
0.6666666666666666
 40
0.6666666666666666
 40
0.7142857142857143
 40
0.7142857142857143
 40
0.7142857142857143
 40
0.7142857142857143
 40
0.7619047619047619
 40
0.7619047619047619
 40
0.7619047619047619
 40
0.7619047619047619
 40
0.8095238095238095
 40
0.8095238095238095
 40
0.8095238095238095
 40
0.8095238095238095
 40
0.8571428571428571
 40
0.8571428571428571
 40
0.8571428571428571
 40
0.8571428571428571
 40
0.9047619047619048
 40
0.9047619047619048
 40
0.9047619047619048
 40
0.9047619047619048
 40
1.0
 40
1.0
 40
1.0
 40
1.0
 10
27.9183
 20
-27.9828
 30
0.0
 10
27.9183
 20
-27.9828
 30
0.0
 10
28.0748
 20
-27.6727
 30
0.0
 10
28.0748
 20
-27.6727
 30
0.0
 10
28.0748
 20
-27.6727
 30
0.0
 10
28.0748
 20
-27.6727
 30
0.0
 10
28.2365
 20
-27.7491
 30
0.0
 10
28.2365
 20
-27.7491
 30
0.0
 10
28.2365
 20
-27.7491
 30
0.0
 10
28.2365
 20
-27.7491
 30
0.0
 10
28.0731
 20
-28.0753
 30
0.0
 10
28.0731
 20
-28.0753
 30
0.0
 10
28.0731
 20
-28.0753
 30
0.0
 10
28.1799
 20
-28.1685
 30
0.0
 10
28.2578
 20
-28.2542
 30
0.0
 10
28.3074
 20
-28.3319
 30
0.0
 10
28.3074
 20
-28.3319
 30
0.0
 10
28.3729
 20
-28.4343
 30
0.0
 10
28.4241
 20
-28.5549
 30
0.0
 10
28.4611
 20
-28.693
 30
0.0
 10
28.4611
 20
-28.693
 30
0.0
 10
28.5147
 20
-28.8929
 30
0.0
 10
28.522
 20
-29.0818
 30
0.0
 10
28.4829
 20
-29.2593
 30
0.0
 10
28.4829
 20
-29.2593
 30
0.0
 10
28.4439
 20
-29.4374
 30
0.0
 10
28.3624
 20
-29.5857
 30
0.0
 10
28.238
 20
-29.7048
 30
0.0
 10
28.238
 20
-29.7048
 30
0.0
 10
28.113
 20
-29.8235
 30
0.0
 10
27.9688
 20
-29.905
 30
0.0
 10
27.8048
 20
-29.9489
 30
0.0
 10
27.8048
 20
-29.9489
 30
0.0
 10
27.6822
 20
-29.9818
 30
0.0
 10
27.5667
 20
-29.9943
 30
0.0
 10
27.4579
 20
-29.9864
 30
0.0
 10
27.4579
 20
-29.9864
 30
0.0
 10
27.3744
 20
-29.9801
 30
0.0
 10
27.2717
 20
-29.953
 30
0.0
 10
27.1492
 20
-29.905
 30
0.0
 10
27.1492
 20
-29.905
 30
0.0
 10
27.1492
 20
-29.905
 30
0.0
 10
26.9928
 20
-30.2153
 30
0.0
 10
26.9928
 20
-30.2153
 30
0.0
 10
26.9928
 20
-30.2153
 30
0.0
 10
26.9928
 20
-30.2153
 30
0.0
 10
26.8311
 20
-30.1388
 30
0.0
 10
26.8311
 20
-30.1388
 30
0.0
 10
26.8311
 20
-30.1388
 30
0.0
 10
26.8311
 20
-30.1388
 30
0.0
 10
26.9953
 20
-29.8138
 30
0.0
 10
26.9953
 20
-29.8138
 30
0.0
 10
26.9953
 20
-29.8138
 30
0.0
 10
26.8726
 20
-29.705
 30
0.0
 10
26.7842
 20
-29.6074
 30
0.0
 10
26.73
 20
-29.5216
 30
0.0
 10
26.73
 20
-29.5216
 30
0.0
 10
26.6759
 20
-29.4358
 30
0.0
 10
26.6307
 20
-29.3271
 30
0.0
 10
26.5955
 20
-29.1958
 30
0.0
 10
26.5955
 20
-29.1958
 30
0.0
 10
26.5418
 20
-28.9955
 30
0.0
 10
26.534
 20
-28.8062
 30
0.0
 10
26.5718
 20
-28.628
 30
0.0
 10
26.5718
 20
-28.628
 30
0.0
 10
26.6098
 20
-28.4498
 30
0.0
 10
26.6898
 20
-28.3014
 30
0.0
 10
26.8127
 20
-28.1818
 30
0.0
 10
26.8127
 20
-28.1818
 30
0.0
 10
26.9351
 20
-28.0627
 30
0.0
 10
27.0847
 20
-27.9793
 30
0.0
 10
27.2614
 20
-27.9319
 30
0.0
 10
27.2614
 20
-27.9319
 30
0.0
 10
27.3805
 20
-27.9
 30
0.0
 10
27.4886
 20
-27.8876
 30
0.0
 10
27.5862
 20
-27.8956
 30
0.0
 10
27.5862
 20
-27.8956
 30
0.0
 10
27.6837
 20
-27.903
 30
0.0
 10
27.7947
 20
-27.9322
 30
0.0
 10
27.9183
 20
-27.9828
 30
0.0
  0
SPLINE
  5
C3
330
1F
100
AcDbEntity
  8
ROUND
 62
   250
100
AcDbSpline
210
0.0
220
0.0
230
1.0
 70
    11
 71
     3
 72
    32
 73
    28
 74
     0
 42
0.0000000001
 43
0.0000000001
 40
0.0
 40
0.0
 40
0.0
 40
0.0
 40
0.125
 40
0.125
 40
0.125
 40
0.125
 40
0.25
 40
0.25
 40
0.25
 40
0.25
 40
0.375
 40
0.375
 40
0.375
 40
0.375
 40
0.5
 40
0.5
 40
0.5
 40
0.5
 40
0.625
 40
0.625
 40
0.625
 40
0.625
 40
0.75
 40
0.75
 40
0.75
 40
0.75
 40
1.0
 40
1.0
 40
1.0
 40
1.0
 10
27.807
 20
-28.205
 30
0.0
 10
27.7058
 20
-28.1621
 30
0.0
 10
27.6206
 20
-28.1366
 30
0.0
 10
27.5519
 20
-28.1293
 30
0.0
 10
27.5519
 20
-28.1293
 30
0.0
 10
27.4829
 20
-28.1224
 30
0.0
 10
27.406
 20
-28.1298
 30
0.0
 10
27.3219
 20
-28.1524
 30
0.0
 10
27.3219
 20
-28.1524
 30
0.0
 10
27.1275
 20
-28.2045
 30
0.0
 10
26.9848
 20
-28.3133
 30
0.0
 10
26.8929
 20
-28.4792
 30
0.0
 10
26.8929
 20
-28.4792
 30
0.0
 10
26.8014
 20
-28.645
 30
0.0
 10
26.7905
 20
-28.8587
 30
0.0
 10
26.8607
 20
-29.1208
 30
0.0
 10
26.8607
 20
-29.1208
 30
0.0
 10
26.8883
 20
-29.2235
 30
0.0
 10
26.9227
 20
-29.3122
 30
0.0
 10
26.9637
 20
-29.387
 30
0.0
 10
26.9637
 20
-29.387
 30
0.0
 10
26.9938
 20
-29.4427
 30
0.0
 10
27.0428
 20
-29.5079
 30
0.0
 10
27.1116
 20
-29.5825
 30
0.0
 10
27.1116
 20
-29.5825
 30
0.0
 10
27.1116
 20
-29.5825
 30
0.0
 10
27.807
 20
-28.205
 30
0.0
 10
27.807
 20
-28.205
 30
0.0
  0
SPLINE
  5
C4
330
1F
100
AcDbEntity
  8
ROUND
 62
   250
100
AcDbSpline
210
0.0
220
0.0
230
1.0
 70
    11
 71
     3
 72
    28
 73
    24
 74
     0
 42
0.0000000001
 43
0.0000000001
 40
0.0
 40
0.0
 40
0.0
 40
0.0
 40
0.1428571428571428
 40
0.1428571428571428
 40
0.1428571428571428
 40
0.1428571428571428
 40
0.2857142857142857
 40
0.2857142857142857
 40
0.2857142857142857
 40
0.2857142857142857
 40
0.4285714285714285
 40
0.4285714285714285
 40
0.4285714285714285
 40
0.4285714285714285
 40
0.5714285714285714
 40
0.5714285714285714
 40
0.5714285714285714
 40
0.5714285714285714
 40
0.7142857142857143
 40
0.7142857142857143
 40
0.7142857142857143
 40
0.7142857142857143
 40
1.0
 40
1.0
 40
1.0
 40
1.0
 10
27.9528
 20
-28.3131
 30
0.0
 10
27.9528
 20
-28.3131
 30
0.0
 10
27.2604
 20
-29.6853
 30
0.0
 10
27.2604
 20
-29.6853
 30
0.0
 10
27.2604
 20
-29.6853
 30
0.0
 10
27.3434
 20
-29.7229
 30
0.0
 10
27.4171
 20
-29.7451
 30
0.0
 10
27.4808
 20
-29.7519
 30
0.0
 10
27.4808
 20
-29.7519
 30
0.0
 10
27.564
 20
-29.7612
 30
0.0
 10
27.6497
 20
-29.7538
 30
0.0
 10
27.7375
 20
-29.7303
 30
0.0
 10
27.7375
 20
-29.7303
 30
0.0
 10
27.931
 20
-29.6784
 30
0.0
 10
28.0722
 20
-29.5676
 30
0.0
 10
28.1618
 20
-29.397
 30
0.0
 10
28.1618
 20
-29.397
 30
0.0
 10
28.2511
 20
-29.2265
 30
0.0
 10
28.2629
 20
-29.0178
 30
0.0
 10
28.1968
 20
-28.7711
 30
0.0
 10
28.1968
 20
-28.7711
 30
0.0
 10
28.1473
 20
-28.5867
 30
0.0
 10
28.066
 20
-28.4337
 30
0.0
 10
27.9528
 20
-28.3131
 30
0.0
  0
SPLINE
  5
C5
330
1F
100
AcDbEntity
  8
ROUND
 62
   250
100
AcDbSpline
210
0.0
220
0.0
230
1.0
 70
    11
 71
     3
 72
    40
 73
    36
 74
     0
 42
0.0000000001
 43
0.0000000001
 40
0.0
 40
0.0
 40
0.0
 40
0.0
 40
0.1
 40
0.1
 40
0.1
 40
0.1
 40
0.2
 40
0.2
 40
0.2
 40
0.2
 40
0.3
 40
0.3
 40
0.3
 40
0.3
 40
0.4
 40
0.4
 40
0.4
 40
0.4
 40
0.5
 40
0.5
 40
0.5
 40
0.5
 40
0.6
 40
0.6
 40
0.6
 40
0.6
 40
0.7
 40
0.7
 40
0.7
 40
0.7
 40
0.8
 40
0.8
 40
0.8
 40
0.8
 40
1.0
 40
1.0
 40
1.0
 40
1.0
 10
29.8654
 20
-29.3613
 30
0.0
 10
29.8654
 20
-29.3613
 30
0.0
 10
29.626
 20
-29.4254
 30
0.0
 10
29.626
 20
-29.4254
 30
0.0
 10
29.626
 20
-29.4254
 30
0.0
 10
29.626
 20
-29.4254
 30
0.0
 10
29.217
 20
-27.8989
 30
0.0
 10
29.217
 20
-27.8989
 30
0.0
 10
29.217
 20
-27.8989
 30
0.0
 10
29.1739
 20
-27.9693
 30
0.0
 10
29.1133
 20
-28.0445
 30
0.0
 10
29.0344
 20
-28.1245
 30
0.0
 10
29.0344
 20
-28.1245
 30
0.0
 10
28.9551
 20
-28.2047
 30
0.0
 10
28.8821
 20
-28.2685
 30
0.0
 10
28.8149
 20
-28.3158
 30
0.0
 10
28.8149
 20
-28.3158
 30
0.0
 10
28.8149
 20
-28.3158
 30
0.0
 10
28.7529
 20
-28.0845
 30
0.0
 10
28.7529
 20
-28.0845
 30
0.0
 10
28.7529
 20
-28.0845
 30
0.0
 10
28.8701
 20
-27.9855
 30
0.0
 10
28.9668
 20
-27.8777
 30
0.0
 10
29.0432
 20
-27.7613
 30
0.0
 10
29.0432
 20
-27.7613
 30
0.0
 10
29.1191
 20
-27.6445
 30
0.0
 10
29.1671
 20
-27.5387
 30
0.0
 10
29.1863
 20
-27.443
 30
0.0
 10
29.1863
 20
-27.443
 30
0.0
 10
29.1863
 20
-27.443
 30
0.0
 10
29.3404
 20
-27.4017
 30
0.0
 10
29.3404
 20
-27.4017
 30
0.0
 10
29.3404
 20
-27.4017
 30
0.0
 10
29.3404
 20
-27.4017
 30
0.0
 10
29.8654
 20
-29.3613
 30
0.0
 10
29.8654
 20
-29.3613
 30
0.0
  0
SPLINE
  5
C6
330
1F
100
AcDbEntity
  8
ROUND
 62
   250
100
AcDbSpline
210
0.0
220
0.0
230
1.0
 70
    11
 71
     3
 72
    40
 73
    36
 74
     0
 42
0.0000000001
 43
0.0000000001
 40
0.0
 40
0.0
 40
0.0
 40
0.0
 40
0.1
 40
0.1
 40
0.1
 40
0.1
 40
0.2
 40
0.2
 40
0.2
 40
0.2
 40
0.3
 40
0.3
 40
0.3
 40
0.3
 40
0.4
 40
0.4
 40
0.4
 40
0.4
 40
0.5
 40
0.5
 40
0.5
 40
0.5
 40
0.6
 40
0.6
 40
0.6
 40
0.6
 40
0.7
 40
0.7
 40
0.7
 40
0.7
 40
0.8
 40
0.8
 40
0.8
 40
0.8
 40
1.0
 40
1.0
 40
1.0
 40
1.0
 10
31.1794
 20
-29.0092
 30
0.0
 10
31.1794
 20
-29.0092
 30
0.0
 10
30.9399
 20
-29.0733
 30
0.0
 10
30.9399
 20
-29.0733
 30
0.0
 10
30.9399
 20
-29.0733
 30
0.0
 10
30.9399
 20
-29.0733
 30
0.0
 10
30.5309
 20
-27.5468
 30
0.0
 10
30.5309
 20
-27.5468
 30
0.0
 10
30.5309
 20
-27.5468
 30
0.0
 10
30.4879
 20
-27.6172
 30
0.0
 10
30.4273
 20
-27.6924
 30
0.0
 10
30.3484
 20
-27.7724
 30
0.0
 10
30.3484
 20
-27.7724
 30
0.0
 10
30.269
 20
-27.8526
 30
0.0
 10
30.1961
 20
-27.9165
 30
0.0
 10
30.1288
 20
-27.9638
 30
0.0
 10
30.1288
 20
-27.9638
 30
0.0
 10
30.1288
 20
-27.9638
 30
0.0
 10
30.0668
 20
-27.7324
 30
0.0
 10
30.0668
 20
-27.7324
 30
0.0
 10
30.0668
 20
-27.7324
 30
0.0
 10
30.184
 20
-27.6334
 30
0.0
 10
30.2808
 20
-27.5256
 30
0.0
 10
30.3572
 20
-27.4093
 30
0.0
 10
30.3572
 20
-27.4093
 30
0.0
 10
30.433
 20
-27.2925
 30
0.0
 10
30.4811
 20
-27.1866
 30
0.0
 10
30.5003
 20
-27.0909
 30
0.0
 10
30.5003
 20
-27.0909
 30
0.0
 10
30.5003
 20
-27.0909
 30
0.0
 10
30.6543
 20
-27.0496
 30
0.0
 10
30.6543
 20
-27.0496
 30
0.0
 10
30.6543
 20
-27.0496
 30
0.0
 10
30.6543
 20
-27.0496
 30
0.0
 10
31.1794
 20
-29.0092
 30
0.0
 10
31.1794
 20
-29.0092
 30
0.0
  0
SPLINE
  5
C7
330
1F
100
AcDbEntity
  8
ROUND
 62
   250
100
AcDbSpline
210
0.0
220
0.0
230
1.0
 70
    11
 71
     3
 72
    52
 73
    48
 74
     0
 42
0.0000000001
 43
0.0000000001
 40
0.0
 40
0.0
 40
0.0
 40
0.0
 40
0.0769230769230769
 40
0.0769230769230769
 40
0.0769230769230769
 40
0.0769230769230769
 40
0.1538461538461539
 40
0.1538461538461539
 40
0.1538461538461539
 40
0.1538461538461539
 40
0.2307692307692308
 40
0.2307692307692308
 40
0.2307692307692308
 40
0.2307692307692308
 40
0.3076923076923077
 40
0.3076923076923077
 40
0.3076923076923077
 40
0.3076923076923077
 40
0.3846153846153846
 40
0.3846153846153846
 40
0.3846153846153846
 40
0.3846153846153846
 40
0.4615384615384616
 40
0.4615384615384616
 40
0.4615384615384616
 40
0.4615384615384616
 40
0.5384615384615384
 40
0.5384615384615384
 40
0.5384615384615384
 40
0.5384615384615384
 40
0.6153846153846154
 40
0.6153846153846154
 40
0.6153846153846154
 40
0.6153846153846154
 40
0.6923076923076923
 40
0.6923076923076923
 40
0.6923076923076923
 40
0.6923076923076923
 40
0.7692307692307693
 40
0.7692307692307693
 40
0.7692307692307693
 40
0.7692307692307693
 40
0.8461538461538461
 40
0.8461538461538461
 40
0.8461538461538461
 40
0.8461538461538461
 40
1.0
 40
1.0
 40
1.0
 40
1.0
 10
31.5353
 20
-27.8825
 30
0.0
 10
31.4735
 20
-27.6516
 30
0.0
 10
31.4473
 20
-27.4594
 30
0.0
 10
31.4574
 20
-27.3063
 30
0.0
 10
31.4574
 20
-27.3063
 30
0.0
 10
31.4669
 20
-27.1528
 30
0.0
 10
31.5087
 20
-27.0252
 30
0.0
 10
31.5819
 20
-26.9238
 30
0.0
 10
31.5819
 20
-26.9238
 30
0.0
 10
31.655
 20
-26.8224
 30
0.0
 10
31.7624
 20
-26.7527
 30
0.0
 10
31.9041
 20
-26.7147
 30
0.0
 10
31.9041
 20
-26.7147
 30
0.0
 10
32.0091
 20
-26.6866
 30
0.0
 10
32.1066
 20
-26.6834
 30
0.0
 10
32.197
 20
-26.7045
 30
0.0
 10
32.197
 20
-26.7045
 30
0.0
 10
32.2873
 20
-26.725
 30
0.0
 10
32.3686
 20
-26.7686
 30
0.0
 10
32.4417
 20
-26.8342
 30
0.0
 10
32.4417
 20
-26.8342
 30
0.0
 10
32.5143
 20
-26.8999
 30
0.0
 10
32.5807
 20
-26.9859
 30
0.0
 10
32.6403
 20
-27.0921
 30
0.0
 10
32.6403
 20
-27.0921
 30
0.0
 10
32.7004
 20
-27.1982
 30
0.0
 10
32.756
 20
-27.3479
 30
0.0
 10
32.8079
 20
-27.5415
 30
0.0
 10
32.8079
 20
-27.5415
 30
0.0
 10
32.8693
 20
-27.7704
 30
0.0
 10
32.8951
 20
-27.9612
 30
0.0
 10
32.886
 20
-28.1146
 30
0.0
 10
32.886
 20
-28.1146
 30
0.0
 10
32.8765
 20
-28.2681
 30
0.0
 10
32.8352
 20
-28.3955
 30
0.0
 10
32.7622
 20
-28.4974
 30
0.0
 10
32.7622
 20
-28.4974
 30
0.0
 10
32.6891
 20
-28.5993
 30
0.0
 10
32.5812
 20
-28.6691
 30
0.0
 10
32.4381
 20
-28.7074
 30
0.0
 10
32.4381
 20
-28.7074
 30
0.0
 10
32.25
 20
-28.7578
 30
0.0
 10
32.0843
 20
-28.7302
 30
0.0
 10
31.9409
 20
-28.624
 30
0.0
 10
31.9409
 20
-28.624
 30
0.0
 10
31.7689
 20
-28.4962
 30
0.0
 10
31.6334
 20
-28.2487
 30
0.0
 10
31.5353
 20
-27.8825
 30
0.0
  0
SPLINE
  5
C8
330
1F
100
AcDbEntity
  8
ROUND
 62
   250
100
AcDbSpline
210
0.0
220
0.0
230
1.0
 70
    11
 71
     3
 72
    36
 73
    32
 74
     0
 42
0.0000000001
 43
0.0000000001
 40
0.0
 40
0.0
 40
0.0
 40
0.0
 40
0.1111111111111111
 40
0.1111111111111111
 40
0.1111111111111111
 40
0.1111111111111111
 40
0.2222222222222222
 40
0.2222222222222222
 40
0.2222222222222222
 40
0.2222222222222222
 40
0.3333333333333333
 40
0.3333333333333333
 40
0.3333333333333333
 40
0.3333333333333333
 40
0.4444444444444444
 40
0.4444444444444444
 40
0.4444444444444444
 40
0.4444444444444444
 40
0.5555555555555556
 40
0.5555555555555556
 40
0.5555555555555556
 40
0.5555555555555556
 40
0.6666666666666666
 40
0.6666666666666666
 40
0.6666666666666666
 40
0.6666666666666666
 40
0.7777777777777778
 40
0.7777777777777778
 40
0.7777777777777778
 40
0.7777777777777778
 40
1.0
 40
1.0
 40
1.0
 40
1.0
 10
31.7816
 20
-27.8165
 30
0.0
 10
31.8674
 20
-28.1368
 30
0.0
 10
31.9622
 20
-28.3398
 30
0.0
 10
32.0656
 20
-28.4259
 30
0.0
 10
32.0656
 20
-28.4259
 30
0.0
 10
32.169
 20
-28.5117
 30
0.0
 10
32.2755
 20
-28.5402
 30
0.0
 10
32.3854
 20
-28.5108
 30
0.0
 10
32.3854
 20
-28.5108
 30
0.0
 10
32.4958
 20
-28.4812
 30
0.0
 10
32.5737
 20
-28.4029
 30
0.0
 10
32.6201
 20
-28.2764
 30
0.0
 10
32.6201
 20
-28.2764
 30
0.0
 10
32.6666
 20
-28.15
 30
0.0
 10
32.6473
 20
-27.9268
 30
0.0
 10
32.5617
 20
-27.6075
 30
0.0
 10
32.5617
 20
-27.6075
 30
0.0
 10
32.4756
 20
-27.2862
 30
0.0
 10
32.3806
 20
-27.0827
 30
0.0
 10
32.2774
 20
-26.9974
 30
0.0
 10
32.2774
 20
-26.9974
 30
0.0
 10
32.1741
 20
-26.9117
 30
0.0
 10
32.0669
 20
-26.884
 30
0.0
 10
31.9551
 20
-26.9139
 30
0.0
 10
31.9551
 20
-26.9139
 30
0.0
 10
31.8447
 20
-26.9435
 30
0.0
 10
31.7695
 20
-27.0138
 30
0.0
 10
31.7286
 20
-27.1245
 30
0.0
 10
31.7286
 20
-27.1245
 30
0.0
 10
31.6782
 20
-27.2652
 30
0.0
 10
31.6958
 20
-27.4962
 30
0.0
 10
31.7816
 20
-27.8165
 30
0.0
  0
SPLINE
  5
C9
330
1F
100
AcDbEntity
  8
ROUND
 62
   250
100
AcDbSpline
210
0.0
220
0.0
230
1.0
 70
    24
 71
     3
 72
     8
 73
     4
 74
     0
 42
0.0000000001
 43
0.0000000001
 40
0.0
 40
0.0
 40
0.0
 40
0.0
 40
1.0
 40
1.0
 40
1.0
 40
1.0
 10
44.7463
 20
-25.7986
 30
0.0
 10
44.7463
 20
-25.7986
 30
0.0
 10
14.709
 20
-33.8471
 30
0.0
 10
14.709
 20
-33.8471
 30
0.0
  0
SPLINE
  5
CA
330
1F
100
AcDbEntity
  8
ROUND
 62
   250
100
AcDbSpline
210
0.0
220
0.0
230
1.0
 70
    11
 71
     3
 72
    20
 73
    16
 74
     0
 42
0.0000000001
 43
0.0000000001
 40
0.0
 40
0.0
 40
0.0
 40
0.0
 40
0.2
 40
0.2
 40
0.2
 40
0.2
 40
0.4
 40
0.4
 40
0.4
 40
0.4
 40
0.6
 40
0.6
 40
0.6
 40
0.6
 40
1.0
 40
1.0
 40
1.0
 40
1.0
 10
41.8512
 20
-26.0946
 30
0.0
 10
41.8512
 20
-26.0946
 30
0.0
 10
44.7926
 20
-25.7352
 30
0.0
 10
44.7926
 20
-25.7352
 30
0.0
 10
44.7926
 20
-25.7352
 30
0.0
 10
44.7926
 20
-25.7352
 30
0.0
 10
44.8164
 20
-25.824
 30
0.0
 10
44.8164
 20
-25.824
 30
0.0
 10
44.8164
 20
-25.824
 30
0.0
 10
44.8164
 20
-25.824
 30
0.0
 10
42.0965
 20
-27.0101
 30
0.0
 10
42.0965
 20
-27.0101
 30
0.0
 10
42.0965
 20
-27.0101
 30
0.0
 10
42.0965
 20
-27.0101
 30
0.0
 10
41.8512
 20
-26.0946
 30
0.0
 10
41.8512
 20
-26.0946
 30
0.0
  0
SPLINE
  5
CB
330
1F
100
AcDbEntity
  8
ROUND
 62
   250
100
AcDbSpline
210
0.0
220
0.0
230
1.0
 70
    11
 71
     3
 72
    20
 73
    16
 74
     0
 42
0.0000000001
 43
0.0000000001
 40
0.0
 40
0.0
 40
0.0
 40
0.0
 40
0.2
 40
0.2
 40
0.2
 40
0.2
 40
0.4
 40
0.4
 40
0.4
 40
0.4
 40
0.6
 40
0.6
 40
0.6
 40
0.6
 40
1.0
 40
1.0
 40
1.0
 40
1.0
 10
17.3872
 20
-33.6567
 30
0.0
 10
17.3872
 20
-33.6567
 30
0.0
 10
14.4457
 20
-34.0162
 30
0.0
 10
14.4457
 20
-34.0162
 30
0.0
 10
14.4457
 20
-34.0162
 30
0.0
 10
14.4457
 20
-34.0162
 30
0.0
 10
14.4219
 20
-33.9273
 30
0.0
 10
14.4219
 20
-33.9273
 30
0.0
 10
14.4219
 20
-33.9273
 30
0.0
 10
14.4219
 20
-33.9273
 30
0.0
 10
17.1419
 20
-32.7413
 30
0.0
 10
17.1419
 20
-32.7413
 30
0.0
 10
17.1419
 20
-32.7413
 30
0.0
 10
17.1419
 20
-32.7413
 30
0.0
 10
17.3872
 20
-33.6567
 30
0.0
 10
17.3872
 20
-33.6567
 30
0.0
  0
SPLINE
  5
CC
330
1F
100
AcDbEntity
  8
ROUND
 62
   250
100
AcDbSpline
210
0.0
220
0.0
230
1.0
 70
    11
 71
     3
 72
    20
 73
    16
 74
     0
 42
0.0000000001
 43
0.0000000001
 40
0.0
 40
0.0
 40
0.0
 40
0.0
 40
0.2
 40
0.2
 40
0.2
 40
0.2
 40
0.4
 40
0.4
 40
0.4
 40
0.4
 40
0.6
 40
0.6
 40
0.6
 40
0.6
 40
1.0
 40
1.0
 40
1.0
 40
1.0
 10
19.7413
 20
-33.0224
 30
0.0
 10
19.7413
 20
-33.0224
 30
0.0
 10
16.7998
 20
-33.3819
 30
0.0
 10
16.7998
 20
-33.3819
 30
0.0
 10
16.7998
 20
-33.3819
 30
0.0
 10
16.7998
 20
-33.3819
 30
0.0
 10
16.776
 20
-33.293
 30
0.0
 10
16.776
 20
-33.293
 30
0.0
 10
16.776
 20
-33.293
 30
0.0
 10
16.776
 20
-33.293
 30
0.0
 10
19.496
 20
-32.107
 30
0.0
 10
19.496
 20
-32.107
 30
0.0
 10
19.496
 20
-32.107
 30
0.0
 10
19.496
 20
-32.107
 30
0.0
 10
19.7413
 20
-33.0224
 30
0.0
 10
19.7413
 20
-33.0224
 30
0.0
  0
SPLINE
  5
CD
330
1F
100
AcDbEntity
  8
ROUND
100
AcDbSpline
210
0.0
220
0.0
230
1.0
 70
    24
 71
     3
 72
     8
 73
     4
 74
     0
 42
0.0000000001
 43
0.0000000001
 40
0.0
 40
0.0
 40
0.0
 40
0.0
 40
1.0
 40
1.0
 40
1.0
 40
1.0
 10
49.1791
 20
-31.9157
 30
0.0
 10
49.1791
 20
-31.8927
 30
0.0
 10
49.1791
 20
-31.8696
 30
0.0
 10
49.1791
 20
-31.8465
 30
0.0
  0
SPLINE
  5
CE
330
1F
100
AcDbEntity
  8
ROUND
  6
NEW_LINE16
 62
   250
100
AcDbSpline
210
0.0
220
0.0
230
1.0
 70
    24
 71
     3
 72
     8
 73
     4
 74
     0
 42
0.0000000001
 43
0.0000000001
 40
0.0
 40
0.0
 40
0.0
 40
0.0
 40
1.0
 40
1.0
 40
1.0
 40
1.0
 10
3.8189
 20
-31.8593
 30
0.0
 10
3.8189
 20
-31.8593
 30
0.0
 10
50.8541
 20
-31.8593
 30
0.0
 10
50.8541
 20
-31.8593
 30
0.0
  0
SPLINE
  5
D0
330
1F
100
AcDbEntity
  8
ROUND
  6
NEW_LINE17
 62
   250
100
AcDbSpline
210
0.0
220
0.0
230
1.0
 70
    24
 71
     3
 72
     8
 73
     4
 74
     0
 42
0.0000000001
 43
0.0000000001
 40
0.0
 40
0.0
 40
0.0
 40
0.0
 40
1.0
 40
1.0
 40
1.0
 40
1.0
 10
27.3365
 20
-33.7505
 30
0.0
 10
27.3365
 20
-33.7505
 30
0.0
 10
27.3365
 20
-30.7962
 30
0.0
 10
27.3365
 20
-30.7962
 30
0.0
  0
SPLINE
  5
D2
330
1F
100
AcDbEntity
  8
ROUND
  6
NEW_LINE18
 62
   250
100
AcDbSpline
210
0.0
220
0.0
230
1.0
 70
    24
 71
     3
 72
     8
 73
     4
 74
     0
 42
0.0000000001
 43
0.0000000001
 40
0.0
 40
0.0
 40
0.0
 40
0.0
 40
1.0
 40
1.0
 40
1.0
 40
1.0
 10
27.3369
 20
-27.3707
 30
0.0
 10
27.3369
 20
-27.3707
 30
0.0
 10
27.3369
 20
-8.9809
 30
0.0
 10
27.3369
 20
-8.9809
 30
0.0
  0
SPLINE
  5
D4
330
1F
100
AcDbEntity
  8
ROUND
100
AcDbSpline
210
0.0
220
0.0
230
1.0
 70
     8
 71
     3
 72
     8
 73
     4
 74
     0
 42
0.0000000001
 43
0.0000000001
 40
0.0
 40
0.0
 40
0.0
 40
0.0
 40
1.0
 40
1.0
 40
1.0
 40
1.0
 10
27.4368
 20
-10.2356
 30
0.0
 10
15.4729
 20
-10.2356
 30
0.0
 10
5.7698
 20
-19.9153
 30
0.0
 10
5.7319
 20
-31.8703
 30
0.0
  0
SPLINE
  5
D5
330
1F
100
AcDbEntity
  8
ROUND
100
AcDbSpline
210
0.0
220
0.0
230
1.0
 70
     8
 71
     3
 72
     8
 73
     4
 74
     0
 42
0.0000000001
 43
0.0000000001
 40
0.0
 40
0.0
 40
0.0
 40
0.0
 40
1.0
 40
1.0
 40
1.0
 40
1.0
 10
49.1417
 20
-31.8703
 30
0.0
 10
49.1038
 20
-19.9152
 30
0.0
 10
39.4007
 20
-10.2356
 30
0.0
 10
27.4368
 20
-10.2356
 30
0.0
  0
SPLINE
  5
D6
330
1F
100
AcDbEntity
  8
ROUND
100
AcDbSpline
210
0.0
220
0.0
230
1.0
 70
     8
 71
     3
 72
     8
 73
     4
 74
     0
 42
0.0000000001
 43
0.0000000001
 40
0.0
 40
0.0
 40
0.0
 40
0.0
 40
1.0
 40
1.0
 40
1.0
 40
1.0
 10
49.1418
 20
-31.9406
 30
0.0
 10
49.1418
 20
-31.9172
 30
0.0
 10
49.1418
 20
-31.8937
 30
0.0
 10
49.1417
 20
-31.8703
 30
0.0
  0
SPLINE
  5
D7
330
1F
100
AcDbEntity
  8
ROUND
100
AcDbSpline
210
0.0
220
0.0
230
1.0
 70
     8
 71
     3
 72
     8
 73
     4
 74
     0
 42
0.0000000001
 43
0.0000000001
 40
0.0
 40
0.0
 40
0.0
 40
0.0
 40
1.0
 40
1.0
 40
1.0
 40
1.0
 10
27.4368
 20
-13.2333
 30
0.0
 10
17.1451
 20
-13.2333
 30
0.0
 10
8.7944
 20
-21.544
 30
0.0
 10
8.7298
 20
-31.8205
 30
0.0
  0
SPLINE
  5
D8
330
1F
100
AcDbEntity
  8
ROUND
100
AcDbSpline
210
0.0
220
0.0
230
1.0
 70
     8
 71
     3
 72
     8
 73
     4
 74
     0
 42
0.0000000001
 43
0.0000000001
 40
0.0
 40
0.0
 40
0.0
 40
0.0
 40
1.0
 40
1.0
 40
1.0
 40
1.0
 10
46.1439
 20
-31.8425
 30
0.0
 10
46.0911
 20
-21.5559
 30
0.0
 10
37.7359
 20
-13.2333
 30
0.0
 10
27.4368
 20
-13.2333
 30
0.0
  0
SPLINE
  5
D9
330
1F
100
AcDbEntity
  8
ROUND
100
AcDbSpline
210
0.0
220
0.0
230
1.0
 70
     8
 71
     3
 72
     8
 73
     4
 74
     0
 42
0.0000000001
 43
0.0000000001
 40
0.0
 40
0.0
 40
0.0
 40
0.0
 40
1.0
 40
1.0
 40
1.0
 40
1.0
 10
46.1441
 20
-31.9406
 30
0.0
 10
46.1441
 20
-31.9079
 30
0.0
 10
46.144
 20
-31.8752
 30
0.0
 10
46.1439
 20
-31.8425
 30
0.0
  0
SPLINE
  5
DA
330
1F
100
AcDbEntity
  8
ROUND
100
AcDbSpline
210
0.0
220
0.0
230
1.0
 70
     8
 71
     3
 72
    12
 73
     8
 74
     0
 42
0.0000000001
 43
0.0000000001
 40
0.0
 40
0.0
 40
0.0
 40
0.0
 40
0.3333333333333333
 40
0.3333333333333333
 40
0.3333333333333333
 40
0.3333333333333333
 40
1.0
 40
1.0
 40
1.0
 40
1.0
 10
46.0055
 20
-31.8536
 30
0.0
 10
45.9587
 20
-21.6383
 30
0.0
 10
37.6631
 20
-13.3717
 30
0.0
 10
27.4368
 20
-13.3717
 30
0.0
 10
27.4368
 20
-13.3717
 30
0.0
 10
17.2124
 20
-13.3717
 30
0.0
 10
8.918
 20
-21.6353
 30
0.0
 10
8.8681
 20
-31.848
 30
0.0
  0
ENDSEC
  0
SECTION
  2
OBJECTS
  0
DICTIONARY
  5
C
330
0
100
AcDbDictionary
  3
ACAD_GROUP
350
D
  3
ACAD_LAYOUT
350
1A
  3
ACAD_MATERIAL
350
3B
  3
ACAD_MLEADERSTYLE
350
FD
  3
ACAD_MLINESTYLE
350
17
  3
ACAD_PLOTSETTINGS
350
19
  3
ACAD_VISUALSTYLE
350
2A
  3
ACDBHEADERROUNDTRIPXREC
350
DB
  3
ACDBVARIABLEDICTIONARY
350
FB
  0
DICTIONARY
  5
D
102
{ACAD_REACTORS
330
C
102
}
330
C
100
AcDbDictionary
  0
DICTIONARY
  5
1A
102
{ACAD_REACTORS
330
C
102
}
330
C
100
AcDbDictionary
  0
DICTIONARY
  5
3B
102
{ACAD_REACTORS
330
C
102
}
330
C
100
AcDbDictionary
  3
BYBLOCK
350
3D
  3
BYLAYER
350
3C
  3
GLOBAL
350
3E
  0
DICTIONARY
  5
FD
102
{ACAD_REACTORS
330
C
102
}
330
C
100
AcDbDictionary
  0
DICTIONARY
  5
17
102
{ACAD_REACTORS
330
C
102
}
330
C
100
AcDbDictionary
  3
STANDARD
350
18
  0
DICTIONARY
  5
19
102
{ACAD_REACTORS
330
C
102
}
330
C
100
AcDbDictionary
  0
DICTIONARY
  5
2A
102
{ACAD_REACTORS
330
C
102
}
330
C
100
AcDbDictionary
  3
2DWIREFRAME
350
2F
  3
3D_HIDDEN
350
31
  3
3DWIREFRAME
350
30
  3
BASIC
350
32
  3
BRIGHTEN
350
36
  3
COLORCHANGE
350
3A
  3
CONCEPTUAL
350
34
  3
DIM
350
35
  3
FACEPATTERN
350
39
  3
FLAT
350
2B
  3
FLATWITHEDGES
350
2C
  3
GOURAUD
350
2D
  3
GOURAUDWITHEDGES
350
2E
  3
LINEPATTERN
350
38
  3
REALISTIC
350
33
  3
THICKEN
350
37
  0
DICTIONARY
  5
DB
102
{ACAD_REACTORS
330
C
102
}
330
C
100
AcDbDictionary
  3
CEPSNTYPE
350
E4
  3
DIMSTYLEDATA
350
FA
  3
FINGERPRINTGUID
350
E5
  3
HYPERLINKBASE
350
DE
  3
INSUNITS
350
E3
  3
LAYOUTDICT
350
E0
  3
LWETCUNION
350
E2
  3
PLOTSETDICT
350
E1
  3
PSVPSCALE
350
E7
  3
PUCSBASE
350
EA
  3
PUCSORGBACK
350
F0
  3
PUCSORGBOTTOM
350
EC
  3
PUCSORGFRONT
350
EF
  3
PUCSORGLEFT
350
ED
  3
PUCSORGRIGHT
350
EE
  3
PUCSORGTOP
350
EB
  3
PUCSORTHOREF
350
E8
  3
PUCSORTHOVIEW
350
E9
  3
STYLESHEET
350
DF
  3
TSTACKALIGN
350
DC
  3
TSTACKSIZE
350
DD
  3
UCSBASE
350
F3
  3
UCSORGBACK
350
F9
  3
UCSORGBOTTOM
350
F5
  3
UCSORGFRONT
350
F8
  3
UCSORGLEFT
350
F6
  3
UCSORGRIGHT
350
F7
  3
UCSORGTOP
350
F4
  3
UCSORTHOREF
350
F1
  3
UCSORTHOVIEW
350
F2
  3
VERSIONGUID
350
E6
  0
DICTIONARY
  5
FB
102
{ACAD_REACTORS
330
C
102
}
330
C
100
AcDbDictionary
  3
DIMASSOC
350
FE
  3
HIDETEXT
350
FF
  0
MATERIAL
  5
3D
102
{ACAD_REACTORS
330
3B
102
}
102
{ACAD_XDICTIONARY
360
102
102
}
330
3B
100
AcDbMaterial
  1
ByBlock
  0
MATERIAL
  5
3C
102
{ACAD_REACTORS
330
3B
102
}
102
{ACAD_XDICTIONARY
360
100
102
}
330
3B
100
AcDbMaterial
  1
ByLayer
  0
MATERIAL
  5
3E
102
{ACAD_REACTORS
330
3B
102
}
102
{ACAD_XDICTIONARY
360
104
102
}
330
3B
100
AcDbMaterial
  1
Global
  0
MLINESTYLE
  5
18
102
{ACAD_REACTORS
330
17
102
}
330
17
100
AcDbMlineStyle
  2
Standard
 70
     0
  3

 62
   256
 51
90.0
 52
90.0
 71
     2
 49
0.5
 62
   256
  6
BYLAYER
 49
-0.5
 62
   256
  6
BYLAYER
  0
ACAD_PROXY_OBJECT
  5
2F
102
{ACAD_REACTORS
330
2A
102
}
330
2A
100
AcDbProxyObject
 90
      499
 91
      501
 93
      436
310
42CC9915DA5C99599C985B595049028333333333333E3BF0000000000000FB0107901411070040501600405405064090741402480A0340
1001
ACAD
1000
AcDbSavedByObjectVersion
1070
     0
  0
ACAD_PROXY_OBJECT
  5
31
102
{ACAD_REACTORS
330
2A
102
}
330
2A
100
AcDbProxyObject
 90
      499
 91
      501
 93
      500
310
424CD108121A5919195B90640502408333333333333E3BF0000000000000FB01079024090700405020000000000001110200405405064090740C02480A0340
1001
ACAD
1000
AcDbSavedByObjectVersion
1070
     0
  0
ACAD_PROXY_OBJECT
  5
30
102
{ACAD_REACTORS
330
2A
102
}
330
2A
100
AcDbProxyObject
 90
      499
 91
      501
 93
      436
310
42CCD915DA5C99599C985B595059028333333333333E3BF0000000000000FB0107901411070040501600405405064090741402480A0340
1001
ACAD
1000
AcDbSavedByObjectVersion
1070
     0
  0
ACAD_PROXY_OBJECT
  5
32
102
{ACAD_REACTORS
330
2A
102
}
330
2A
100
AcDbProxyObject
 90
      499
 91
      501
 93
      388
310
4150985CDA58D07406404333333333333E3BF0000000000000FB0107A41107004050150841D405064090741402480A0350
1001
ACAD
1000
AcDbSavedByObjectVersion
1070
     0
  0
ACAD_PROXY_OBJECT
  5
36
102
{ACAD_REACTORS
330
2A
102
}
330
2A
100
AcDbProxyObject
 90
      499
 91
      501
 93
      428
310
42109C9A59DA1D195B90C409028333333333333E3BF0000000000000FB010790141107004050150841D405064090741402480A029950
1001
ACAD
1000
AcDbSavedByObjectVersion
1070
     0
  0
ACAD_PROXY_OBJECT
  5
3A
102
{ACAD_REACTORS
330
2A
102
}
330
2A
100
AcDbProxyObject
 90
      499
 91
      501
 93
      452
310
42D0DBDB1BDC90DA185B99D95104090240C333333333333E3BF0000000000000FB0108901411070040501508421405064090741402480A0350
1001
ACAD
1000
AcDbSavedByObjectVersion
1070
     0
  0
ACAD_PROXY_OBJECT
  5
34
102
{ACAD_REACTORS
330
2A
102
}
330
2A
100
AcDbProxyObject
 90
      499
 91
      501
 93
      500
310
4290DBDB98D95C1D1D585B10940D028333333333333E3BF0000000000000FB0107902409070040501000000000000111010841D405064090740C02480A0340
1001
ACAD
1000
AcDbSavedByObjectVersion
1070
     0
  0
ACAD_PROXY_OBJECT
  5
35
102
{ACAD_REACTORS
330
2A
102
}
330
2A
100
AcDbProxyObject
 90
      499
 91
      501
 93
      412
310
40D11A5B50B409028333333333333E3BF0000000000000FB010790141107004050150841D405064090741402480A02677FFFFFD0
1001
ACAD
1000
AcDbSavedByObjectVersion
1070
     0
  0
ACAD_PROXY_OBJECT
  5
39
102
{ACAD_REACTORS
330
2A
102
}
330
2A
100
AcDbProxyObject
 90
      499
 91
      501
 93
      444
310
42D19858D95C185D1D195C9B90F409028333333333333E3BF0000000000000FB010790141107004050150841D405064090741402480A0350
1001
ACAD
1000
AcDbSavedByObjectVersion
1070
     0
  0
ACAD_PROXY_OBJECT
  5
2B
102
{ACAD_REACTORS
330
2A
102
}
330
2A
100
AcDbProxyObject
 90
      499
 91
      501
 93
      388
310
41119B185D240901404333333333333E3BF0000000000000F9010740A41107004050150841D405064090741402480A1B50
1001
ACAD
1000
AcDbSavedByObjectVersion
1070
     0
  0
ACAD_PROXY_OBJECT
  5
2C
102
{ACAD_REACTORS
330
2A
102
}
330
2A
100
AcDbProxyObject
 90
      499
 91
      501
 93
      476
310
43519B185D15DA5D1A115919D95CD0140901404333333333333E3BF0000000000000F9010740901411070040501600405405064090741402480A1B50
1001
ACAD
1000
AcDbSavedByObjectVersion
1070
     0
  0
ACAD_PROXY_OBJECT
  5
2D
102
{ACAD_REACTORS
330
2A
102
}
330
2A
100
AcDbProxyObject
 90
      499
 91
      501
 93
      412
310
41D1DBDD5C985D5910240902404333333333333E3BF0000000000000F9010740A411070040501641D405064090741402480A1B50
1001
ACAD
1000
AcDbSavedByObjectVersion
1070
     0
  0
ACAD_PROXY_OBJECT
  5
2E
102
{ACAD_REACTORS
330
2A
102
}
330
2A
100
AcDbProxyObject
 90
      499
 91
      501
 93
      500
310
4411DBDD5C985D5915DA5D1A115919D95CD0340902404333333333333E3BF0000000000000F9010740901411070040501600405405064090741402480A1B50
1001
ACAD
1000
AcDbSavedByObjectVersion
1070
     0
  0
ACAD_PROXY_OBJECT
  5
38
102
{ACAD_REACTORS
330
2A
102
}
330
2A
100
AcDbProxyObject
 90
      499
 91
      501
 93
      444
310
42D31A5B995C185D1D195C9B90E409028333333333333E3BF0000000000000FB010790141107004050750841D405064090741402483A0350
1001
ACAD
1000
AcDbSavedByObjectVersion
1070
     0
  0
ACAD_PROXY_OBJECT
  5
33
102
{ACAD_REACTORS
330
2A
102
}
330
2A
100
AcDbProxyObject
 90
      499
 91
      501
 93
      420
310
425499585B1A5CDD1A58D08409028333333333333E3BF0000000000000FB01079019070040501508421405064090741402480A1B40
1001
ACAD
1000
AcDbSavedByObjectVersion
1070
     0
  0
ACAD_PROXY_OBJECT
  5
37
102
{ACAD_REACTORS
330
2A
102
}
330
2A
100
AcDbProxyObject
 90
      499
 91
      501
 93
      412
310
41D51A1A58DAD95B90D409028333333333333E3BF0000000000000FB010790141107004050150C41D405064090741402480A0350
1001
ACAD
1000
AcDbSavedByObjectVersion
1070
     0
  0
XRECORD
  5
E4
102
{ACAD_REACTORS
330
DB
102
}
330
DB
100
AcDbXrecord
 90
        0
  0
XRECORD
  5
FA
102
{ACAD_REACTORS
330
DB
102
}
330
DB
100
AcDbXrecord
1000
DSTYLE
1002
{
1070
   340
340
11
1002
}
  0
XRECORD
  5
E5
102
{ACAD_REACTORS
330
DB
102
}
330
DB
100
AcDbXrecord
  1
{4C1DFD5C-DAD5-40EF-B4C8-C30DB2CF1062}
  0
XRECORD
  5
DE
102
{ACAD_REACTORS
330
DB
102
}
330
DB
100
AcDbXrecord
  1

  0
XRECORD
  5
E3
102
{ACAD_REACTORS
330
DB
102
}
330
DB
100
AcDbXrecord
 90
        4
  0
XRECORD
  5
E0
102
{ACAD_REACTORS
330
DB
102
}
330
DB
100
AcDbXrecord
340
1A
  0
XRECORD
  5
E2
102
{ACAD_REACTORS
330
DB
102
}
330
DB
100
AcDbXrecord
 90
    10781
  0
XRECORD
  5
E1
102
{ACAD_REACTORS
330
DB
102
}
330
DB
100
AcDbXrecord
340
19
  0
XRECORD
  5
E7
102
{ACAD_REACTORS
330
DB
102
}
330
DB
100
AcDbXrecord
 40
0.0
  0
XRECORD
  5
EA
102
{ACAD_REACTORS
330
DB
102
}
330
DB
100
AcDbXrecord
340
0
  0
XRECORD
  5
F0
102
{ACAD_REACTORS
330
DB
102
}
330
DB
100
AcDbXrecord
 10
0.0
 20
0.0
 30
0.0
  0
XRECORD
  5
EC
102
{ACAD_REACTORS
330
DB
102
}
330
DB
100
AcDbXrecord
 10
0.0
 20
0.0
 30
0.0
  0
XRECORD
  5
EF
102
{ACAD_REACTORS
330
DB
102
}
330
DB
100
AcDbXrecord
 10
0.0
 20
0.0
 30
0.0
  0
XRECORD
  5
ED
102
{ACAD_REACTORS
330
DB
102
}
330
DB
100
AcDbXrecord
 10
0.0
 20
0.0
 30
0.0
  0
XRECORD
  5
EE
102
{ACAD_REACTORS
330
DB
102
}
330
DB
100
AcDbXrecord
 10
0.0
 20
0.0
 30
0.0
  0
XRECORD
  5
EB
102
{ACAD_REACTORS
330
DB
102
}
330
DB
100
AcDbXrecord
 10
0.0
 20
0.0
 30
0.0
  0
XRECORD
  5
E8
102
{ACAD_REACTORS
330
DB
102
}
330
DB
100
AcDbXrecord
340
0
  0
XRECORD
  5
E9
102
{ACAD_REACTORS
330
DB
102
}
330
DB
100
AcDbXrecord
 70
     0
  0
XRECORD
  5
DF
102
{ACAD_REACTORS
330
DB
102
}
330
DB
100
AcDbXrecord
  1

  0
XRECORD
  5
DC
102
{ACAD_REACTORS
330
DB
102
}
330
DB
100
AcDbXrecord
 90
        1
  0
XRECORD
  5
DD
102
{ACAD_REACTORS
330
DB
102
}
330
DB
100
AcDbXrecord
 90
       70
  0
XRECORD
  5
F3
102
{ACAD_REACTORS
330
DB
102
}
330
DB
100
AcDbXrecord
340
0
  0
XRECORD
  5
F9
102
{ACAD_REACTORS
330
DB
102
}
330
DB
100
AcDbXrecord
 10
0.0
 20
0.0
 30
0.0
  0
XRECORD
  5
F5
102
{ACAD_REACTORS
330
DB
102
}
330
DB
100
AcDbXrecord
 10
0.0
 20
0.0
 30
0.0
  0
XRECORD
  5
F8
102
{ACAD_REACTORS
330
DB
102
}
330
DB
100
AcDbXrecord
 10
0.0
 20
0.0
 30
0.0
  0
XRECORD
  5
F6
102
{ACAD_REACTORS
330
DB
102
}
330
DB
100
AcDbXrecord
 10
0.0
 20
0.0
 30
0.0
  0
XRECORD
  5
F7
102
{ACAD_REACTORS
330
DB
102
}
330
DB
100
AcDbXrecord
 10
0.0
 20
0.0
 30
0.0
  0
XRECORD
  5
F4
102
{ACAD_REACTORS
330
DB
102
}
330
DB
100
AcDbXrecord
 10
0.0
 20
0.0
 30
0.0
  0
XRECORD
  5
F1
102
{ACAD_REACTORS
330
DB
102
}
330
DB
100
AcDbXrecord
340
0
  0
XRECORD
  5
F2
102
{ACAD_REACTORS
330
DB
102
}
330
DB
100
AcDbXrecord
 70
     0
  0
XRECORD
  5
E6
102
{ACAD_REACTORS
330
DB
102
}
330
DB
100
AcDbXrecord
  1
{FAEB1C32-E019-11D5-929B-00C0DF256EC4}
  0
DICTIONARYVAR
  5
FE
102
{ACAD_REACTORS
330
FB
102
}
330
FB
100
DictionaryVariables
280
     0
  1
2
  0
DICTIONARYVAR
  5
FF
102
{ACAD_REACTORS
330
FB
102
}
330
FB
100
DictionaryVariables
280
     0
  1
1
  0
DICTIONARY
  5
102
330
3D
100
AcDbDictionary
280
     1
  3
ACAD_XREC_ROUNDTRIP
360
103
  0
DICTIONARY
  5
100
330
3C
100
AcDbDictionary
280
     1
  3
ACAD_XREC_ROUNDTRIP
360
101
  0
DICTIONARY
  5
104
330
3E
100
AcDbDictionary
280
     1
  3
ACAD_XREC_ROUNDTRIP
360
105
  0
XRECORD
  5
103
102
{ACAD_REACTORS
330
102
102
}
330
102
100
AcDbXrecord
102
MATERIAL
148
0.0
149
0.0
149
0.0
 93
        0
 94
      127
282
     0
 72
     1
 77
     1
171
     1
175
     1
179
     1
273
     0
  0
XRECORD
  5
101
102
{ACAD_REACTORS
330
100
102
}
330
100
100
AcDbXrecord
102
MATERIAL
148
0.0
149
0.0
149
0.0
 93
        0
 94
      127
282
     0
 72
     1
 77
     1
171
     1
175
     1
179
     1
273
     0
  0
XRECORD
  5
105
102
{ACAD_REACTORS
330
104
102
}
330
104
100
AcDbXrecord
102
MATERIAL
148
0.0
149
0.0
149
0.0
 93
        0
 94
      127
282
     0
 72
     1
 77
     1
171
     1
175
     1
179
     1
273
     0
  0
ENDSEC
  0
EOF
