  0
SECTION
  2
HEADER
  9
$ACADVER
  1
AC1015
  9
$ACADMAINTVER
 70
     6
  9
$DWGCODEPAGE
  3
ANSI_1250
  9
$INSBASE
 10
0.0
 20
0.0
 30
0.0
  9
$EXTMIN
 10
-27.2785
 20
-9.9965
 30
0.0
  9
$EXTMAX
 10
27.3533
 20
9.8555
 30
0.0
  9
$LIMMIN
 10
0.0
 20
0.0
  9
$LIMMAX
 10
12.0
 20
9.0
  9
$ORTHOMODE
 70
     0
  9
$REGENMODE
 70
     1
  9
$FILLMODE
 70
     1
  9
$QTEXTMODE
 70
     0
  9
$MIRRTEXT
 70
     1
  9
$LTSCALE
 40
1.0
  9
$ATTMODE
 70
     1
  9
$TEXTSIZE
 40
0.2
  9
$TRACEWID
 40
0.05
  9
$TEXTSTYLE
  7
Standard
  9
$CLAYER
  8
0
  9
$CELTYPE
  6
ByLayer
  9
$CECOLOR
 62
   256
  9
$CELTSCALE
 40
1.0
  9
$DISPSILH
 70
     0
  9
$DIMSCALE
 40
1.0
  9
$DIMASZ
 40
0.18
  9
$DIMEXO
 40
0.0625
  9
$DIMDLI
 40
0.38
  9
$DIMRND
 40
0.0
  9
$DIMDLE
 40
0.0
  9
$DIMEXE
 40
0.18
  9
$DIMTP
 40
0.0
  9
$DIMTM
 40
0.0
  9
$DIMTXT
 40
0.18
  9
$DIMCEN
 40
0.09
  9
$DIMTSZ
 40
0.0
  9
$DIMTOL
 70
     0
  9
$DIMLIM
 70
     0
  9
$DIMTIH
 70
     1
  9
$DIMTOH
 70
     1
  9
$DIMSE1
 70
     0
  9
$DIMSE2
 70
     0
  9
$DIMTAD
 70
     0
  9
$DIMZIN
 70
     0
  9
$DIMBLK
  1

  9
$DIMASO
 70
     1
  9
$DIMSHO
 70
     1
  9
$DIMPOST
  1

  9
$DIMAPOST
  1

  9
$DIMALT
 70
     0
  9
$DIMALTD
 70
     2
  9
$DIMALTF
 40
25.4
  9
$DIMLFAC
 40
1.0
  9
$DIMTOFL
 70
     0
  9
$DIMTVP
 40
0.0
  9
$DIMTIX
 70
     0
  9
$DIMSOXD
 70
     0
  9
$DIMSAH
 70
     0
  9
$DIMBLK1
  1

  9
$DIMBLK2
  1

  9
$DIMSTYLE
  2
Standard
  9
$DIMCLRD
 70
     0
  9
$DIMCLRE
 70
     0
  9
$DIMCLRT
 70
     0
  9
$DIMTFAC
 40
1.0
  9
$DIMGAP
 40
0.09
  9
$DIMJUST
 70
     0
  9
$DIMSD1
 70
     0
  9
$DIMSD2
 70
     0
  9
$DIMTOLJ
 70
     1
  9
$DIMTZIN
 70
     0
  9
$DIMALTZ
 70
     0
  9
$DIMALTTZ
 70
     0
  9
$DIMUPT
 70
     0
  9
$DIMDEC
 70
     4
  9
$DIMTDEC
 70
     4
  9
$DIMALTU
 70
     2
  9
$DIMALTTD
 70
     2
  9
$DIMTXSTY
  7
Standard
  9
$DIMAUNIT
 70
     0
  9
$DIMADEC
 70
     0
  9
$DIMALTRND
 40
0.0
  9
$DIMAZIN
 70
     0
  9
$DIMDSEP
 70
    46
  9
$DIMATFIT
 70
     3
  9
$DIMFRAC
 70
     0
  9
$DIMLDRBLK
  1

  9
$DIMLUNIT
 70
     2
  9
$DIMLWD
 70
    -2
  9
$DIMLWE
 70
    -2
  9
$DIMTMOVE
 70
     0
  9
$LUNITS
 70
     2
  9
$LUPREC
 70
     4
  9
$SKETCHINC
 40
0.1
  9
$FILLETRAD
 40
0.5
  9
$AUNITS
 70
     0
  9
$AUPREC
 70
     0
  9
$MENU
  1
.
  9
$ELEVATION
 40
0.0
  9
$PELEVATION
 40
0.0
  9
$THICKNESS
 40
0.0
  9
$LIMCHECK
 70
     0
  9
$CHAMFERA
 40
0.5
  9
$CHAMFERB
 40
0.5
  9
$CHAMFERC
 40
1.0
  9
$CHAMFERD
 40
0.0
  9
$SKPOLY
 70
     0
  9
$TDCREATE
 40
2457637.399016863
  9
$TDUCREATE
 40
2457637.31568353
  9
$TDUPDATE
 40
2457637.399016875
  9
$TDUUPDATE
 40
2457637.315683542
  9
$TDINDWG
 40
0.0000000116
  9
$TDUSRTIMER
 40
0.0000000116
  9
$USRTIMER
 70
     1
  9
$ANGBASE
 50
0.0
  9
$ANGDIR
 70
     0
  9
$PDMODE
 70
     0
  9
$PDSIZE
 40
0.0
  9
$PLINEWID
 40
0.0
  9
$SPLFRAME
 70
     0
  9
$SPLINETYPE
 70
     6
  9
$SPLINESEGS
 70
     8
  9
$HANDSEED
  5
B8
  9
$SURFTAB1
 70
     6
  9
$SURFTAB2
 70
     6
  9
$SURFTYPE
 70
     6
  9
$SURFU
 70
     6
  9
$SURFV
 70
     6
  9
$UCSBASE
  2

  9
$UCSNAME
  2

  9
$UCSORG
 10
0.0
 20
0.0
 30
0.0
  9
$UCSXDIR
 10
1.0
 20
0.0
 30
0.0
  9
$UCSYDIR
 10
0.0
 20
1.0
 30
0.0
  9
$UCSORTHOREF
  2

  9
$UCSORTHOVIEW
 70
     0
  9
$UCSORGTOP
 10
0.0
 20
0.0
 30
0.0
  9
$UCSORGBOTTOM
 10
0.0
 20
0.0
 30
0.0
  9
$UCSORGLEFT
 10
0.0
 20
0.0
 30
0.0
  9
$UCSORGRIGHT
 10
0.0
 20
0.0
 30
0.0
  9
$UCSORGFRONT
 10
0.0
 20
0.0
 30
0.0
  9
$UCSORGBACK
 10
0.0
 20
0.0
 30
0.0
  9
$PUCSBASE
  2

  9
$PUCSNAME
  2

  9
$PUCSORG
 10
0.0
 20
0.0
 30
0.0
  9
$PUCSXDIR
 10
1.0
 20
0.0
 30
0.0
  9
$PUCSYDIR
 10
0.0
 20
1.0
 30
0.0
  9
$PUCSORTHOREF
  2

  9
$PUCSORTHOVIEW
 70
     0
  9
$PUCSORGTOP
 10
0.0
 20
0.0
 30
0.0
  9
$PUCSORGBOTTOM
 10
0.0
 20
0.0
 30
0.0
  9
$PUCSORGLEFT
 10
0.0
 20
0.0
 30
0.0
  9
$PUCSORGRIGHT
 10
0.0
 20
0.0
 30
0.0
  9
$PUCSORGFRONT
 10
0.0
 20
0.0
 30
0.0
  9
$PUCSORGBACK
 10
0.0
 20
0.0
 30
0.0
  9
$USERI1
 70
     0
  9
$USERI2
 70
     0
  9
$USERI3
 70
     0
  9
$USERI4
 70
     0
  9
$USERI5
 70
     0
  9
$USERR1
 40
0.0
  9
$USERR2
 40
0.0
  9
$USERR3
 40
0.0
  9
$USERR4
 40
0.0
  9
$USERR5
 40
0.0
  9
$WORLDVIEW
 70
     1
  9
$SHADEDGE
 70
     3
  9
$SHADEDIF
 70
    70
  9
$TILEMODE
 70
     1
  9
$MAXACTVP
 70
    64
  9
$PINSBASE
 10
0.0
 20
0.0
 30
0.0
  9
$PLIMCHECK
 70
     0
  9
$PEXTMIN
 10
1.000000000000000E+20
 20
1.000000000000000E+20
 30
1.000000000000000E+20
  9
$PEXTMAX
 10
-1.000000000000000E+20
 20
-1.000000000000000E+20
 30
-1.000000000000000E+20
  9
$PLIMMIN
 10
0.0
 20
0.0
  9
$PLIMMAX
 10
12.0
 20
9.0
  9
$UNITMODE
 70
     0
  9
$VISRETAIN
 70
     1
  9
$PLINEGEN
 70
     0
  9
$PSLTSCALE
 70
     1
  9
$TREEDEPTH
 70
  3020
  9
$CMLSTYLE
  2
Standard
  9
$CMLJUST
 70
     0
  9
$CMLSCALE
 40
1.0
  9
$PROXYGRAPHICS
 70
     1
  9
$MEASUREMENT
 70
     0
  9
$CELWEIGHT
370
    -1
  9
$ENDCAPS
280
     0
  9
$JOINSTYLE
280
     0
  9
$LWDISPLAY
290
     0
  9
$INSUNITS
 70
     4
  9
$HYPERLINKBASE
  1

  9
$STYLESHEET
  1

  9
$XEDIT
290
     1
  9
$CEPSNTYPE
380
     0
  9
$PSTYLEMODE
290
     1
  9
$FINGERPRINTGUID
  2
{CFFF2FF7-5770-4A59-AE73-DE68478A529C}
  9
$VERSIONGUID
  2
{FAEB1C32-E019-11D5-929B-00C0DF256EC4}
  9
$EXTNAMES
290
     1
  9
$PSVPSCALE
 40
0.0
  9
$OLESTARTUP
290
     0
  0
ENDSEC
  0
SECTION
  2
CLASSES
  0
CLASS
  1
ACDBDICTIONARYWDFLT
  2
AcDbDictionaryWithDefault
  3
ObjectDBX Classes
 90
        0
280
     0
281
     0
  0
CLASS
  1
VISUALSTYLE
  2
AcDbVisualStyle
  3
ObjectDBX Classes
 90
     4095
280
     0
281
     0
  0
CLASS
  1
MATERIAL
  2
AcDbMaterial
  3
ObjectDBX Classes
 90
     1153
280
     0
281
     0
  0
CLASS
  1
DICTIONARYVAR
  2
AcDbDictionaryVar
  3
ObjectDBX Classes
 90
        0
280
     0
281
     0
  0
CLASS
  1
ACDBPLACEHOLDER
  2
AcDbPlaceHolder
  3
ObjectDBX Classes
 90
        0
280
     0
281
     0
  0
CLASS
  1
LAYOUT
  2
AcDbLayout
  3
ObjectDBX Classes
 90
        0
280
     0
281
     0
  0
ENDSEC
  0
SECTION
  2
TABLES
  0
TABLE
  2
VPORT
  5
8
330
0
100
AcDbSymbolTable
 70
     1
  0
VPORT
  5
29
330
8
100
AcDbSymbolTableRecord
100
AcDbViewportTableRecord
  2
*Active
 70
     0
 10
0.0
 20
0.0
 11
1.0
 21
1.0
 12
10.42990654205607
 22
4.5
 13
0.0
 23
0.0
 14
0.5
 24
0.5
 15
0.5
 25
0.5
 16
0.0
 26
0.0
 36
1.0
 17
0.0
 27
0.0
 37
0.0
 40
9.0
 41
1.972972972850329
 42
50.0
 43
0.0
 44
0.0
 50
0.0
 51
0.0
 71
     0
 72
   100
 73
     1
 74
     3
 75
     0
 76
     0
 77
     0
 78
     0
281
     0
 65
     1
110
0.0
120
0.0
130
0.0
111
1.0
121
0.0
131
0.0
112
0.0
122
1.0
132
0.0
 79
     0
146
0.0
  0
ENDTAB
  0
TABLE
  2
LTYPE
  5
5
330
0
100
AcDbSymbolTable
 70
     1
  0
LTYPE
  5
14
330
5
100
AcDbSymbolTableRecord
100
AcDbLinetypeTableRecord
  2
ByBlock
 70
     0
  3

 72
    65
 73
     0
 40
0.0
  0
LTYPE
  5
15
330
5
100
AcDbSymbolTableRecord
100
AcDbLinetypeTableRecord
  2
ByLayer
 70
     0
  3

 72
    65
 73
     0
 40
0.0
  0
LTYPE
  5
16
330
5
100
AcDbSymbolTableRecord
100
AcDbLinetypeTableRecord
  2
Continuous
 70
     0
  3
Solid line
 72
    65
 73
     0
 40
0.0
  0
ENDTAB
  0
TABLE
  2
LAYER
  5
2
330
0
100
AcDbSymbolTable
 70
     2
  0
LAYER
  5
10
330
2
100
AcDbSymbolTableRecord
100
AcDbLayerTableRecord
  2
0
 70
     0
 62
     7
  6
Continuous
370
    -3
390
F
  0
LAYER
  5
40
330
2
100
AcDbSymbolTableRecord
100
AcDbLayerTableRecord
  2
ROUND
 70
     0
 62
     7
  6
Continuous
370
    -3
390
F
  0
ENDTAB
  0
TABLE
  2
STYLE
  5
3
330
0
100
AcDbSymbolTable
 70
     1
  0
STYLE
  5
11
330
3
100
AcDbSymbolTableRecord
100
AcDbTextStyleTableRecord
  2
Standard
 70
     0
 40
0.0
 41
1.0
 50
0.0
 71
     0
 42
0.2
  3
txt
  4

  0
ENDTAB
  0
TABLE
  2
VIEW
  5
6
330
0
100
AcDbSymbolTable
 70
     0
  0
ENDTAB
  0
TABLE
  2
UCS
  5
7
330
0
100
AcDbSymbolTable
 70
     0
  0
ENDTAB
  0
TABLE
  2
APPID
  5
9
330
0
100
AcDbSymbolTable
 70
     2
  0
APPID
  5
12
330
9
100
AcDbSymbolTableRecord
100
AcDbRegAppTableRecord
  2
ACAD
 70
     0
  0
APPID
  5
3F
330
9
100
AcDbSymbolTableRecord
100
AcDbRegAppTableRecord
  2
ODA
 70
     0
  0
ENDTAB
  0
TABLE
  2
DIMSTYLE
  5
A
330
0
100
AcDbSymbolTable
 70
     1
100
AcDbDimStyleTable
  0
DIMSTYLE
105
27
330
A
100
AcDbSymbolTableRecord
100
AcDbDimStyleTableRecord
  2
Standard
 70
     0
340
11
  0
ENDTAB
  0
TABLE
  2
BLOCK_RECORD
  5
1
330
0
100
AcDbSymbolTable
 70
     1
  0
BLOCK_RECORD
  5
1F
330
1
100
AcDbSymbolTableRecord
100
AcDbBlockTableRecord
  2
*Model_Space
340
22
  0
BLOCK_RECORD
  5
1B
330
1
100
AcDbSymbolTableRecord
100
AcDbBlockTableRecord
  2
*Paper_Space
340
1E
  0
BLOCK_RECORD
  5
23
330
1
100
AcDbSymbolTableRecord
100
AcDbBlockTableRecord
  2
*Paper_Space0
340
26
  0
ENDTAB
  0
ENDSEC
  0
SECTION
  2
BLOCKS
  0
BLOCK
  5
20
330
1F
100
AcDbEntity
  8
0
100
AcDbBlockBegin
  2
*Model_Space
 70
     0
 10
0.0
 20
0.0
 30
0.0
  3
*Model_Space
  1

  0
ENDBLK
  5
21
330
1F
100
AcDbEntity
  8
0
100
AcDbBlockEnd
  0
BLOCK
  5
1C
330
1B
100
AcDbEntity
 67
     1
  8
0
100
AcDbBlockBegin
  2
*Paper_Space
 70
     0
 10
0.0
 20
0.0
 30
0.0
  3
*Paper_Space
  1

  0
ENDBLK
  5
1D
330
1B
100
AcDbEntity
 67
     1
  8
0
100
AcDbBlockEnd
  0
BLOCK
  5
24
330
23
100
AcDbEntity
  8
0
100
AcDbBlockBegin
  2
*Paper_Space0
 70
     0
 10
0.0
 20
0.0
 30
0.0
  3
*Paper_Space0
  1

  0
ENDBLK
  5
25
330
23
100
AcDbEntity
  8
0
100
AcDbBlockEnd
  0
ENDSEC
  0
SECTION
  2
ENTITIES
  0
SPLINE
  5
41
330
1F
100
AcDbEntity
  8
ROUND
 62
   254
100
AcDbSpline
210
0.0
220
0.0
230
1.0
 70
    11
 71
     3
 72
   216
 73
   212
 74
     0
 42
0.0000000001
 43
0.0000000001
 40
0.0
 40
0.0
 40
0.0
 40
0.0
 40
0.0185185185185185
 40
0.0185185185185185
 40
0.0185185185185185
 40
0.0185185185185185
 40
0.037037037037037
 40
0.037037037037037
 40
0.037037037037037
 40
0.037037037037037
 40
0.0555555555555556
 40
0.0555555555555556
 40
0.0555555555555556
 40
0.0555555555555556
 40
0.0740740740740741
 40
0.0740740740740741
 40
0.0740740740740741
 40
0.0740740740740741
 40
0.0925925925925926
 40
0.0925925925925926
 40
0.0925925925925926
 40
0.0925925925925926
 40
0.1111111111111111
 40
0.1111111111111111
 40
0.1111111111111111
 40
0.1111111111111111
 40
0.1296296296296296
 40
0.1296296296296296
 40
0.1296296296296296
 40
0.1296296296296296
 40
0.1481481481481481
 40
0.1481481481481481
 40
0.1481481481481481
 40
0.1481481481481481
 40
0.1666666666666667
 40
0.1666666666666667
 40
0.1666666666666667
 40
0.1666666666666667
 40
0.1851851851851852
 40
0.1851851851851852
 40
0.1851851851851852
 40
0.1851851851851852
 40
0.2037037037037037
 40
0.2037037037037037
 40
0.2037037037037037
 40
0.2037037037037037
 40
0.2222222222222222
 40
0.2222222222222222
 40
0.2222222222222222
 40
0.2222222222222222
 40
0.2407407407407407
 40
0.2407407407407407
 40
0.2407407407407407
 40
0.2407407407407407
 40
0.2592592592592592
 40
0.2592592592592592
 40
0.2592592592592592
 40
0.2592592592592592
 40
0.2777777777777778
 40
0.2777777777777778
 40
0.2777777777777778
 40
0.2777777777777778
 40
0.2962962962962963
 40
0.2962962962962963
 40
0.2962962962962963
 40
0.2962962962962963
 40
0.3148148148148148
 40
0.3148148148148148
 40
0.3148148148148148
 40
0.3148148148148148
 40
0.3333333333333333
 40
0.3333333333333333
 40
0.3333333333333333
 40
0.3333333333333333
 40
0.3518518518518519
 40
0.3518518518518519
 40
0.3518518518518519
 40
0.3518518518518519
 40
0.3703703703703703
 40
0.3703703703703703
 40
0.3703703703703703
 40
0.3703703703703703
 40
0.3888888888888889
 40
0.3888888888888889
 40
0.3888888888888889
 40
0.3888888888888889
 40
0.4074074074074074
 40
0.4074074074074074
 40
0.4074074074074074
 40
0.4074074074074074
 40
0.4259259259259259
 40
0.4259259259259259
 40
0.4259259259259259
 40
0.4259259259259259
 40
0.4444444444444444
 40
0.4444444444444444
 40
0.4444444444444444
 40
0.4444444444444444
 40
0.462962962962963
 40
0.462962962962963
 40
0.462962962962963
 40
0.462962962962963
 40
0.4814814814814815
 40
0.4814814814814815
 40
0.4814814814814815
 40
0.4814814814814815
 40
0.5
 40
0.5
 40
0.5
 40
0.5
 40
0.5185185185185185
 40
0.5185185185185185
 40
0.5185185185185185
 40
0.5185185185185185
 40
0.5370370370370371
 40
0.5370370370370371
 40
0.5370370370370371
 40
0.5370370370370371
 40
0.5555555555555556
 40
0.5555555555555556
 40
0.5555555555555556
 40
0.5555555555555556
 40
0.5740740740740741
 40
0.5740740740740741
 40
0.5740740740740741
 40
0.5740740740740741
 40
0.5925925925925926
 40
0.5925925925925926
 40
0.5925925925925926
 40
0.5925925925925926
 40
0.6111111111111112
 40
0.6111111111111112
 40
0.6111111111111112
 40
0.6111111111111112
 40
0.6296296296296297
 40
0.6296296296296297
 40
0.6296296296296297
 40
0.6296296296296297
 40
0.6481481481481481
 40
0.6481481481481481
 40
0.6481481481481481
 40
0.6481481481481481
 40
0.6666666666666666
 40
0.6666666666666666
 40
0.6666666666666666
 40
0.6666666666666666
 40
0.6851851851851852
 40
0.6851851851851852
 40
0.6851851851851852
 40
0.6851851851851852
 40
0.7037037037037037
 40
0.7037037037037037
 40
0.7037037037037037
 40
0.7037037037037037
 40
0.7222222222222222
 40
0.7222222222222222
 40
0.7222222222222222
 40
0.7222222222222222
 40
0.7407407407407407
 40
0.7407407407407407
 40
0.7407407407407407
 40
0.7407407407407407
 40
0.7592592592592593
 40
0.7592592592592593
 40
0.7592592592592593
 40
0.7592592592592593
 40
0.7777777777777778
 40
0.7777777777777778
 40
0.7777777777777778
 40
0.7777777777777778
 40
0.7962962962962963
 40
0.7962962962962963
 40
0.7962962962962963
 40
0.7962962962962963
 40
0.8148148148148148
 40
0.8148148148148148
 40
0.8148148148148148
 40
0.8148148148148148
 40
0.8333333333333334
 40
0.8333333333333334
 40
0.8333333333333334
 40
0.8333333333333334
 40
0.8518518518518519
 40
0.8518518518518519
 40
0.8518518518518519
 40
0.8518518518518519
 40
0.8703703703703703
 40
0.8703703703703703
 40
0.8703703703703703
 40
0.8703703703703703
 40
0.8888888888888888
 40
0.8888888888888888
 40
0.8888888888888888
 40
0.8888888888888888
 40
0.9074074074074074
 40
0.9074074074074074
 40
0.9074074074074074
 40
0.9074074074074074
 40
0.9259259259259259
 40
0.9259259259259259
 40
0.9259259259259259
 40
0.9259259259259259
 40
0.9444444444444444
 40
0.9444444444444444
 40
0.9444444444444444
 40
0.9444444444444444
 40
0.9629629629629629
 40
0.9629629629629629
 40
0.9629629629629629
 40
0.9629629629629629
 40
1.0
 40
1.0
 40
1.0
 40
1.0
 10
-22.4427
 20
-9.7823
 30
0.0
 10
-22.4427
 20
-9.7823
 30
0.0
 10
-22.4427
 20
-9.1825
 30
0.0
 10
-22.4427
 20
-9.1825
 30
0.0
 10
-22.4427
 20
-9.1825
 30
0.0
 10
-22.4427
 20
-9.1825
 30
0.0
 10
-22.4427
 20
0.2942
 30
0.0
 10
-22.4427
 20
0.2942
 30
0.0
 10
-22.4427
 20
0.2942
 30
0.0
 10
-22.4427
 20
0.6993
 30
0.0
 10
-22.5053
 20
1.0586
 30
0.0
 10
-22.2608
 20
1.393
 30
0.0
 10
-22.2608
 20
1.393
 30
0.0
 10
-22.2283
 20
1.4374
 30
0.0
 10
-22.1817
 20
1.4894
 30
0.0
 10
-22.1413
 20
1.5229
 30
0.0
 10
-22.1413
 20
1.5229
 30
0.0
 10
-22.1413
 20
1.5229
 30
0.0
 10
-22.0061
 20
1.6217
 30
0.0
 10
-22.0061
 20
1.6217
 30
0.0
 10
-22.0061
 20
1.6217
 30
0.0
 10
-21.7198
 20
1.8006
 30
0.0
 10
-21.3805
 20
1.7416
 30
0.0
 10
-21.0581
 20
1.7418
 30
0.0
 10
-21.0581
 20
1.7418
 30
0.0
 10
-21.0581
 20
1.7418
 30
0.0
 10
-19.5156
 20
0.3898
 30
0.0
 10
-19.5156
 20
0.3898
 30
0.0
 10
-19.5156
 20
0.3898
 30
0.0
 10
-19.7351
 20
0.2898
 30
0.0
 10
-19.9002
 20
0.0653
 30
0.0
 10
-19.9522
 20
-0.1663
 30
0.0
 10
-19.9522
 20
-0.1663
 30
0.0
 10
-19.9522
 20
-0.1663
 30
0.0
 10
-19.968
 20
-0.2703
 30
0.0
 10
-19.968
 20
-0.2703
 30
0.0
 10
-19.968
 20
-0.2703
 30
0.0
 10
-19.968
 20
-0.2703
 30
0.0
 10
-19.968
 20
-0.8699
 30
0.0
 10
-19.968
 20
-0.8699
 30
0.0
 10
-19.968
 20
-0.8699
 30
0.0
 10
-19.968
 20
-0.8699
 30
0.0
 10
-19.968
 20
-6.4226
 30
0.0
 10
-19.968
 20
-6.4226
 30
0.0
 10
-19.968
 20
-6.4226
 30
0.0
 10
-19.968
 20
-6.6688
 30
0.0
 10
-20.0211
 20
-7.0262
 30
0.0
 10
-19.9003
 20
-7.2822
 30
0.0
 10
-19.9003
 20
-7.2822
 30
0.0
 10
-19.7045
 20
-7.6967
 30
0.0
 10
-19.2087
 20
-7.8815
 30
0.0
 10
-18.793
 20
-7.6875
 30
0.0
 10
-18.793
 20
-7.6875
 30
0.0
 10
-18.6461
 20
-7.6191
 30
0.0
 10
-18.5431
 20
-7.5115
 30
0.0
 10
-18.4497
 20
-7.381
 30
0.0
 10
-18.4497
 20
-7.381
 30
0.0
 10
-18.2562
 20
-7.1102
 30
0.0
 10
-18.3249
 20
-6.664
 30
0.0
 10
-18.3249
 20
-6.381
 30
0.0
 10
-18.3249
 20
-6.381
 30
0.0
 10
-18.3249
 20
-6.381
 30
0.0
 10
-18.3249
 20
-0.9114
 30
0.0
 10
-18.3249
 20
-0.9114
 30
0.0
 10
-18.3249
 20
-0.9114
 30
0.0
 10
-18.3249
 20
-0.548
 30
0.0
 10
-18.2557
 20
-0.1572
 30
0.0
 10
-18.4913
 20
0.1508
 30
0.0
 10
-18.4913
 20
0.1508
 30
0.0
 10
-18.4913
 20
0.1508
 30
0.0
 10
-18.5226
 20
0.1872
 30
0.0
 10
-18.5226
 20
0.1872
 30
0.0
 10
-18.5226
 20
0.1872
 30
0.0
 10
-18.5226
 20
0.1872
 30
0.0
 10
-18.6214
 20
0.286
 30
0.0
 10
-18.6214
 20
0.286
 30
0.0
 10
-18.6214
 20
0.286
 30
0.0
 10
-18.6863
 20
0.3446
 30
0.0
 10
-18.7702
 20
0.3877
 30
0.0
 10
-18.8501
 20
0.4211
 30
0.0
 10
-18.8501
 20
0.4211
 30
0.0
 10
-18.9243
 20
0.4522
 30
0.0
 10
-19.0101
 20
0.4624
 30
0.0
 10
-19.0893
 20
0.4731
 30
0.0
 10
-19.0893
 20
0.4731
 30
0.0
 10
-19.0893
 20
0.4731
 30
0.0
 10
-19.2036
 20
0.4731
 30
0.0
 10
-19.2036
 20
0.4731
 30
0.0
 10
-19.2036
 20
0.4731
 30
0.0
 10
-19.3253
 20
0.4558
 30
0.0
 10
-19.3984
 20
0.4434
 30
0.0
 10
-19.5156
 20
0.3898
 30
0.0
 10
-19.5156
 20
0.3898
 30
0.0
 10
-19.5156
 20
0.3898
 30
0.0
 10
-21.0581
 20
1.7418
 30
0.0
 10
-21.0581
 20
1.7418
 30
0.0
 10
-21.0581
 20
1.7418
 30
0.0
 10
-21.0581
 20
1.7418
 30
0.0
 10
-15.6127
 20
1.746
 30
0.0
 10
-15.6127
 20
1.746
 30
0.0
 10
-15.6127
 20
1.746
 30
0.0
 10
-15.6127
 20
1.746
 30
0.0
 10
-14.4133
 20
1.7465
 30
0.0
 10
-14.4133
 20
1.7465
 30
0.0
 10
-14.4133
 20
1.7465
 30
0.0
 10
-14.4133
 20
1.7465
 30
0.0
 10
-2.9159
 20
1.7465
 30
0.0
 10
-2.9159
 20
1.7465
 30
0.0
 10
-2.9159
 20
1.7465
 30
0.0
 10
-2.9159
 20
1.7465
 30
0.0
 10
-4.4478
 20
0.4159
 30
0.0
 10
-4.4478
 20
0.4159
 30
0.0
 10
-4.4478
 20
0.4159
 30
0.0
 10
-4.5668
 20
0.4599
 30
0.0
 10
-4.5878
 20
0.4567
 30
0.0
 10
-4.7027
 20
0.4731
 30
0.0
 10
-4.7027
 20
0.4731
 30
0.0
 10
-4.7027
 20
0.4731
 30
0.0
 10
-4.8118
 20
0.4731
 30
0.0
 10
-4.8118
 20
0.4731
 30
0.0
 10
-4.8118
 20
0.4731
 30
0.0
 10
-5.1758
 20
0.4303
 30
0.0
 10
-5.4766
 20
0.201
 30
0.0
 10
-5.5605
 20
-0.1663
 30
0.0
 10
-5.5605
 20
-0.1663
 30
0.0
 10
-5.5605
 20
-0.1663
 30
0.0
 10
-5.576
 20
-0.2548
 30
0.0
 10
-5.576
 20
-0.2548
 30
0.0
 10
-5.576
 20
-0.2548
 30
0.0
 10
-5.576
 20
-0.2548
 30
0.0
 10
-5.576
 20
-0.8543
 30
0.0
 10
-5.576
 20
-0.8543
 30
0.0
 10
-5.576
 20
-0.8543
 30
0.0
 10
-5.576
 20
-0.8543
 30
0.0
 10
-5.576
 20
-6.4382
 30
0.0
 10
-5.576
 20
-6.4382
 30
0.0
 10
-5.576
 20
-6.4382
 30
0.0
 10
-5.576
 20
-6.4382
 30
0.0
 10
-5.576
 20
-7.0379
 30
0.0
 10
-5.576
 20
-7.0379
 30
0.0
 10
-5.576
 20
-7.0379
 30
0.0
 10
-5.576
 20
-7.0379
 30
0.0
 10
-5.5605
 20
-7.1261
 30
0.0
 10
-5.5605
 20
-7.1261
 30
0.0
 10
-5.5605
 20
-7.1261
 30
0.0
 10
-5.4469
 20
-7.6454
 30
0.0
 10
-4.8616
 20
-7.9075
 30
0.0
 10
-4.3908
 20
-7.6823
 30
0.0
 10
-4.3908
 20
-7.6823
 30
0.0
 10
-4.3345
 20
-7.6556
 30
0.0
 10
-4.239
 20
-7.5975
 30
0.0
 10
-4.1931
 20
-7.5472
 30
0.0
 10
-4.1931
 20
-7.5472
 30
0.0
 10
-4.1292
 20
-7.4771
 30
0.0
 10
-4.0558
 20
-7.3967
 30
0.0
 10
-4.0164
 20
-7.3081
 30
0.0
 10
-4.0164
 20
-7.3081
 30
0.0
 10
-3.8826
 20
-7.0076
 30
0.0
 10
-3.9331
 20
-6.6844
 30
0.0
 10
-3.9331
 20
-6.3602
 30
0.0
 10
-3.9331
 20
-6.3602
 30
0.0
 10
-3.9331
 20
-6.3602
 30
0.0
 10
-3.9331
 20
-0.9324
 30
0.0
 10
-3.9331
 20
-0.9324
 30
0.0
 10
-3.9331
 20
-0.9324
 30
0.0
 10
-3.9331
 20
-0.7227
 30
0.0
 10
-3.9023
 20
-0.4025
 30
0.0
 10
-3.954
 20
-0.1611
 30
0.0
 10
-3.954
 20
-0.1611
 30
0.0
 10
-4.0081
 20
0.0915
 30
0.0
 10
-4.2039
 20
0.3257
 30
0.0
 10
-4.4478
 20
0.4159
 30
0.0
 10
-4.4478
 20
0.4159
 30
0.0
 10
-4.4478
 20
0.4159
 30
0.0
 10
-2.9159
 20
1.7465
 30
0.0
 10
-2.9159
 20
1.7465
 30
0.0
 10
-2.9159
 20
1.7465
 30
0.0
 10
-2.5279
 20
1.7465
 30
0.0
 10
-2.1547
 20
1.8087
 30
0.0
 10
-1.8274
 20
1.575
 30
0.0
 10
-1.8274
 20
1.575
 30
0.0
 10
-1.7808
 20
1.5419
 30
0.0
 10
-1.7074
 20
1.4713
 30
0.0
 10
-1.6767
 20
1.4346
 30
0.0
 10
-1.6767
 20
1.4346
 30
0.0
 10
-1.6157
 20
1.3618
 30
0.0
 10
-1.5668
 20
1.2881
 30
0.0
 10
-1.531
 20
1.2007
 30
0.0
 10
-1.531
 20
1.2007
 30
0.0
 10
-1.5004
 20
1.126
 30
0.0
 10
-1.4654
 20
1.0142
 30
0.0
 10
-1.4634
 20
0.9305
 30
0.0
 10
-1.4634
 20
0.9305
 30
0.0
 10
-1.4634
 20
0.9305
 30
0.0
 10
-1.4634
 20
0.3307
 30
0.0
 10
-1.4634
 20
0.3307
 30
0.0
 10
-1.4634
 20
0.3307
 30
0.0
 10
-1.4634
 20
0.3307
 30
0.0
 10
-1.4634
 20
-9.1877
 30
0.0
 10
-1.4634
 20
-9.1877
 30
0.0
 10
-1.4634
 20
-9.1877
 30
0.0
 10
-1.4634
 20
-9.1877
 30
0.0
 10
-1.4634
 20
-9.7875
 30
0.0
 10
-1.4634
 20
-9.7875
 30
0.0
 10
-1.4634
 20
-9.7875
 30
0.0
 10
-1.4634
 20
-9.7875
 30
0.0
 10
-22.4377
 20
-9.7875
 30
0.0
 10
-22.4377
 20
-9.7875
 30
0.0
 10
-22.4377
 20
-9.7875
 30
0.0
 10
-22.4377
 20
-9.7875
 30
0.0
 10
-22.4427
 20
-9.7823
 30
0.0
 10
-22.4427
 20
-9.7823
 30
0.0
  0
SPLINE
  5
42
330
1F
100
AcDbEntity
  8
ROUND
 62
   250
370
    30
100
AcDbSpline
210
0.0
220
0.0
230
1.0
 70
    24
 71
     3
 72
     8
 73
     4
 74
     0
 42
0.0000000001
 43
0.0000000001
 40
0.0
 40
0.0
 40
0.0
 40
0.0
 40
1.0
 40
1.0
 40
1.0
 40
1.0
 10
-22.4455
 20
-9.7952
 30
0.0
 10
-22.4455
 20
-9.7952
 30
0.0
 10
-1.4556
 20
-9.7952
 30
0.0
 10
-1.4556
 20
-9.7952
 30
0.0
  0
SPLINE
  5
43
330
1F
100
AcDbEntity
  8
ROUND
 62
   250
370
    15
100
AcDbSpline
210
0.0
220
0.0
230
1.0
 70
    24
 71
     3
 72
     8
 73
     4
 74
     0
 42
0.0000000001
 43
0.0000000001
 40
0.0
 40
0.0
 40
0.0
 40
0.0
 40
1.0
 40
1.0
 40
1.0
 40
1.0
 10
-1.4556
 20
-9.3454
 30
0.0
 10
-1.4556
 20
-9.3454
 30
0.0
 10
-22.4455
 20
-9.3454
 30
0.0
 10
-22.4455
 20
-9.3454
 30
0.0
  0
SPLINE
  5
44
330
1F
100
AcDbEntity
  8
ROUND
 62
   250
370
    30
100
AcDbSpline
210
0.0
220
0.0
230
1.0
 70
    24
 71
     3
 72
    12
 73
     8
 74
     0
 42
0.0000000001
 43
0.0000000001
 40
0.0
 40
0.0
 40
0.0
 40
0.0
 40
0.3333333333333333
 40
0.3333333333333333
 40
0.3333333333333333
 40
0.3333333333333333
 40
1.0
 40
1.0
 40
1.0
 40
1.0
 10
-22.4455
 20
-9.7952
 30
0.0
 10
-22.4455
 20
-9.7952
 30
0.0
 10
-22.4455
 20
-9.1957
 30
0.0
 10
-22.4455
 20
-9.1957
 30
0.0
 10
-22.4455
 20
-9.1957
 30
0.0
 10
-22.4455
 20
-9.1957
 30
0.0
 10
-22.4455
 20
0.2497
 30
0.0
 10
-22.4455
 20
0.2497
 30
0.0
  0
SPLINE
  5
45
330
1F
100
AcDbEntity
  8
ROUND
 62
   250
370
    30
100
AcDbSpline
210
0.0
220
0.0
230
1.0
 70
     8
 71
     3
 72
     8
 73
     4
 74
     0
 42
0.0000000001
 43
0.0000000001
 40
0.0
 40
0.0
 40
0.0
 40
0.0
 40
1.0
 40
1.0
 40
1.0
 40
1.0
 10
-22.4455
 20
0.2497
 30
0.0
 10
-22.4455
 20
0.6107
 30
0.0
 10
-22.5325
 20
1.2169
 30
0.0
 10
-22.1744
 20
1.4914
 30
0.0
  0
SPLINE
  5
46
330
1F
100
AcDbEntity
  8
ROUND
 62
   250
370
    30
100
AcDbSpline
210
0.0
220
0.0
230
1.0
 70
    24
 71
     3
 72
     8
 73
     4
 74
     0
 42
0.0000000001
 43
0.0000000001
 40
0.0
 40
0.0
 40
0.0
 40
0.0
 40
1.0
 40
1.0
 40
1.0
 40
1.0
 10
-22.4161
 20
1.073
 30
0.0
 10
-22.4161
 20
1.073
 30
0.0
 10
-22.3248
 20
1.2993
 30
0.0
 10
-22.3248
 20
1.2993
 30
0.0
  0
SPLINE
  5
47
330
1F
100
AcDbEntity
  8
ROUND
 62
   250
370
    30
100
AcDbSpline
210
0.0
220
0.0
230
1.0
 70
     8
 71
     3
 72
     8
 73
     4
 74
     0
 42
0.0000000001
 43
0.0000000001
 40
0.0
 40
0.0
 40
0.0
 40
0.0
 40
1.0
 40
1.0
 40
1.0
 40
1.0
 10
-22.3248
 20
1.2993
 30
0.0
 10
-22.2335
 20
1.491
 30
0.0
 10
-21.9779
 20
1.6922
 30
0.0
 10
-21.7695
 20
1.7195
 30
0.0
  0
SPLINE
  5
48
330
1F
100
AcDbEntity
  8
ROUND
 62
   250
370
    30
100
AcDbSpline
210
0.0
220
0.0
230
1.0
 70
     8
 71
     3
 72
     8
 73
     4
 74
     0
 42
0.0000000001
 43
0.0000000001
 40
0.0
 40
0.0
 40
0.0
 40
0.0
 40
1.0
 40
1.0
 40
1.0
 40
1.0
 10
-22.1877
 20
1.4782
 30
0.0
 10
-21.913
 20
1.8361
 30
0.0
 10
-21.3075
 20
1.7491
 30
0.0
 10
-20.9463
 20
1.7491
 30
0.0
  0
SPLINE
  5
49
330
1F
100
AcDbEntity
  8
ROUND
 62
   250
370
    30
100
AcDbSpline
210
0.0
220
0.0
230
1.0
 70
    24
 71
     3
 72
     8
 73
     4
 74
     0
 42
0.0000000001
 43
0.0000000001
 40
0.0
 40
0.0
 40
0.0
 40
0.0
 40
1.0
 40
1.0
 40
1.0
 40
1.0
 10
-20.9463
 20
1.7491
 30
0.0
 10
-20.9463
 20
1.7491
 30
0.0
 10
-2.9549
 20
1.7491
 30
0.0
 10
-2.9549
 20
1.7491
 30
0.0
  0
SPLINE
  5
4A
330
1F
100
AcDbEntity
  8
ROUND
 62
   250
370
    30
100
AcDbSpline
210
0.0
220
0.0
230
1.0
 70
     8
 71
     3
 72
    12
 73
     8
 74
     0
 42
0.0000000001
 43
0.0000000001
 40
0.0
 40
0.0
 40
0.0
 40
0.0
 40
0.3333333333333333
 40
0.3333333333333333
 40
0.3333333333333333
 40
0.3333333333333333
 40
1.0
 40
1.0
 40
1.0
 40
1.0
 10
-2.9549
 20
1.7491
 30
0.0
 10
-2.4987
 20
1.7491
 30
0.0
 10
-2.0208
 20
1.8226
 30
0.0
 10
-1.6868
 20
1.4515
 30
0.0
 10
-1.6868
 20
1.4515
 30
0.0
 10
-1.6564
 20
1.4178
 30
0.0
 10
-1.5958
 20
1.3408
 30
0.0
 10
-1.5762
 20
1.2993
 30
0.0
  0
SPLINE
  5
4B
330
1F
100
AcDbEntity
  8
ROUND
 62
   250
370
    30
100
AcDbSpline
210
0.0
220
0.0
230
1.0
 70
    24
 71
     3
 72
     8
 73
     4
 74
     0
 42
0.0000000001
 43
0.0000000001
 40
0.0
 40
0.0
 40
0.0
 40
0.0
 40
1.0
 40
1.0
 40
1.0
 40
1.0
 10
-1.5762
 20
1.2993
 30
0.0
 10
-1.5762
 20
1.2993
 30
0.0
 10
-1.485
 20
1.073
 30
0.0
 10
-1.485
 20
1.073
 30
0.0
  0
SPLINE
  5
4C
330
1F
100
AcDbEntity
  8
ROUND
 62
   250
370
    30
100
AcDbSpline
210
0.0
220
0.0
230
1.0
 70
     8
 71
     3
 72
    12
 73
     8
 74
     0
 42
0.0000000001
 43
0.0000000001
 40
0.0
 40
0.0
 40
0.0
 40
0.0
 40
0.3333333333333333
 40
0.3333333333333333
 40
0.3333333333333333
 40
0.3333333333333333
 40
1.0
 40
1.0
 40
1.0
 40
1.0
 10
-2.1317
 20
1.7195
 30
0.0
 10
-2.1317
 20
1.7195
 30
0.0
 10
-1.9055
 20
1.6286
 30
0.0
 10
-1.9055
 20
1.6286
 30
0.0
 10
-1.9055
 20
1.6286
 30
0.0
 10
-1.9055
 20
1.6286
 30
0.0
 10
-1.719
 20
1.4856
 30
0.0
 10
-1.719
 20
1.4856
 30
0.0
  0
SPLINE
  5
4D
330
1F
100
AcDbEntity
  8
ROUND
 62
   250
370
    30
100
AcDbSpline
210
0.0
220
0.0
230
1.0
 70
     8
 71
     3
 72
     8
 73
     4
 74
     0
 42
0.0000000001
 43
0.0000000001
 40
0.0
 40
0.0
 40
0.0
 40
0.0
 40
1.0
 40
1.0
 40
1.0
 40
1.0
 10
-1.719
 20
1.4856
 30
0.0
 10
-1.38
 20
1.1466
 30
0.0
 10
-1.4556
 20
0.6905
 30
0.0
 10
-1.4556
 20
0.2497
 30
0.0
  0
SPLINE
  5
4E
330
1F
100
AcDbEntity
  8
ROUND
 62
   250
370
    30
100
AcDbSpline
210
0.0
220
0.0
230
1.0
 70
    24
 71
     3
 72
    12
 73
     8
 74
     0
 42
0.0000000001
 43
0.0000000001
 40
0.0
 40
0.0
 40
0.0
 40
0.0
 40
0.3333333333333333
 40
0.3333333333333333
 40
0.3333333333333333
 40
0.3333333333333333
 40
1.0
 40
1.0
 40
1.0
 40
1.0
 10
-1.4556
 20
0.2497
 30
0.0
 10
-1.4556
 20
0.2497
 30
0.0
 10
-1.4556
 20
-9.1957
 30
0.0
 10
-1.4556
 20
-9.1957
 30
0.0
 10
-1.4556
 20
-9.1957
 30
0.0
 10
-1.4556
 20
-9.1957
 30
0.0
 10
-1.4556
 20
-9.7952
 30
0.0
 10
-1.4556
 20
-9.7952
 30
0.0
  0
SPLINE
  5
4F
330
1F
100
AcDbEntity
  8
ROUND
 62
   250
370
    30
100
AcDbSpline
210
0.0
220
0.0
230
1.0
 70
     8
 71
     3
 72
    16
 73
    12
 74
     0
 42
0.0000000001
 43
0.0000000001
 40
0.0
 40
0.0
 40
0.0
 40
0.0
 40
0.25
 40
0.25
 40
0.25
 40
0.25
 40
0.5
 40
0.5
 40
0.5
 40
0.5
 40
1.0
 40
1.0
 40
1.0
 40
1.0
 10
-19.9716
 20
-6.9467
 30
0.0
 10
-19.9584
 20
-7.191
 30
0.0
 10
-19.8713
 20
-7.4135
 30
0.0
 10
-19.6809
 20
-7.5752
 30
0.0
 10
-19.6809
 20
-7.5752
 30
0.0
 10
-19.2441
 20
-7.946
 30
0.0
 10
-18.5485
 20
-7.7531
 30
0.0
 10
-18.3655
 20
-7.21
 30
0.0
 10
-18.3655
 20
-7.21
 30
0.0
 10
-18.278
 20
-6.95
 30
0.0
 10
-18.3223
 20
-6.5816
 30
0.0
 10
-18.3223
 20
-6.347
 30
0.0
  0
SPLINE
  5
50
330
1F
100
AcDbEntity
  8
ROUND
 62
   250
370
    30
100
AcDbSpline
210
0.0
220
0.0
230
1.0
 70
    24
 71
     3
 72
     8
 73
     4
 74
     0
 42
0.0000000001
 43
0.0000000001
 40
0.0
 40
0.0
 40
0.0
 40
0.0
 40
1.0
 40
1.0
 40
1.0
 40
1.0
 10
-18.3223
 20
-6.347
 30
0.0
 10
-18.3223
 20
-6.347
 30
0.0
 10
-18.3223
 20
-0.9496
 30
0.0
 10
-18.3223
 20
-0.9496
 30
0.0
  0
SPLINE
  5
51
330
1F
100
AcDbEntity
  8
ROUND
 62
   250
370
    30
100
AcDbSpline
210
0.0
220
0.0
230
1.0
 70
     8
 71
     3
 72
    28
 73
    24
 74
     0
 42
0.0000000001
 43
0.0000000001
 40
0.0
 40
0.0
 40
0.0
 40
0.0
 40
0.1428571428571428
 40
0.1428571428571428
 40
0.1428571428571428
 40
0.1428571428571428
 40
0.2857142857142857
 40
0.2857142857142857
 40
0.2857142857142857
 40
0.2857142857142857
 40
0.4285714285714285
 40
0.4285714285714285
 40
0.4285714285714285
 40
0.4285714285714285
 40
0.5714285714285714
 40
0.5714285714285714
 40
0.5714285714285714
 40
0.5714285714285714
 40
0.7142857142857143
 40
0.7142857142857143
 40
0.7142857142857143
 40
0.7142857142857143
 40
1.0
 40
1.0
 40
1.0
 40
1.0
 10
-18.3223
 20
-0.9496
 30
0.0
 10
-18.3223
 20
-0.4805
 30
0.0
 10
-18.2437
 20
0.0338
 30
0.0
 10
-18.6843
 20
0.3327
 30
0.0
 10
-18.6843
 20
0.3327
 30
0.0
 10
-18.7582
 20
0.3827
 30
0.0
 10
-18.8402
 20
0.4207
 30
0.0
 10
-18.9264
 20
0.4447
 30
0.0
 10
-18.9264
 20
0.4447
 30
0.0
 10
-19.015
 20
0.4692
 30
0.0
 10
-19.1005
 20
0.4734
 30
0.0
 10
-19.1918
 20
0.4734
 30
0.0
 10
-19.1918
 20
0.4734
 30
0.0
 10
-19.2824
 20
0.4637
 30
0.0
 10
-19.3669
 20
0.4502
 30
0.0
 10
-19.4523
 20
0.4162
 30
0.0
 10
-19.4523
 20
0.4162
 30
0.0
 10
-19.5352
 20
0.383
 30
0.0
 10
-19.6128
 20
0.3365
 30
0.0
 10
-19.6809
 20
0.2786
 30
0.0
 10
-19.6809
 20
0.2786
 30
0.0
 10
-20.0505
 20
-0.0355
 30
0.0
 10
-19.9716
 20
-0.5117
 30
0.0
 10
-19.9716
 20
-0.9496
 30
0.0
  0
SPLINE
  5
52
330
1F
100
AcDbEntity
  8
ROUND
 62
   250
370
    30
100
AcDbSpline
210
0.0
220
0.0
230
1.0
 70
     8
 71
     3
 72
    16
 73
    12
 74
     0
 42
0.0000000001
 43
0.0000000001
 40
0.0
 40
0.0
 40
0.0
 40
0.0
 40
0.25
 40
0.25
 40
0.25
 40
0.25
 40
0.5
 40
0.5
 40
0.5
 40
0.5
 40
1.0
 40
1.0
 40
1.0
 40
1.0
 10
-19.9716
 20
-0.9496
 30
0.0
 10
-19.9716
 20
-0.9496
 30
0.0
 10
-19.9716
 20
-6.347
 30
0.0
 10
-19.9716
 20
-6.347
 30
0.0
 10
-19.9716
 20
-6.347
 30
0.0
 10
-19.9716
 20
-6.347
 30
0.0
 10
-19.9716
 20
-6.9467
 30
0.0
 10
-19.9716
 20
-6.9467
 30
0.0
 10
-19.9716
 20
-6.9467
 30
0.0
 10
-19.9716
 20
-6.9467
 30
0.0
 10
-19.9447
 20
-7.1516
 30
0.0
 10
-19.9447
 20
-7.1516
 30
0.0
  0
SPLINE
  5
53
330
1F
100
AcDbEntity
  8
ROUND
 62
   250
370
    30
100
AcDbSpline
210
0.0
220
0.0
230
1.0
 70
     8
 71
     3
 72
    24
 73
    20
 74
     0
 42
0.0000000001
 43
0.0000000001
 40
0.0
 40
0.0
 40
0.0
 40
0.0
 40
0.1666666666666667
 40
0.1666666666666667
 40
0.1666666666666667
 40
0.1666666666666667
 40
0.3333333333333333
 40
0.3333333333333333
 40
0.3333333333333333
 40
0.3333333333333333
 40
0.5
 40
0.5
 40
0.5
 40
0.5
 40
0.6666666666666666
 40
0.6666666666666666
 40
0.6666666666666666
 40
0.6666666666666666
 40
1.0
 40
1.0
 40
1.0
 40
1.0
 10
-5.5516
 20
-0.1449
 30
0.0
 10
-5.5516
 20
-0.1449
 30
0.0
 10
-5.5787
 20
-0.3498
 30
0.0
 10
-5.5787
 20
-0.3498
 30
0.0
 10
-5.5787
 20
-0.3498
 30
0.0
 10
-5.5787
 20
-0.3498
 30
0.0
 10
-5.5787
 20
-0.9496
 30
0.0
 10
-5.5787
 20
-0.9496
 30
0.0
 10
-5.5787
 20
-0.9496
 30
0.0
 10
-5.5787
 20
-0.9496
 30
0.0
 10
-5.5787
 20
-6.347
 30
0.0
 10
-5.5787
 20
-6.347
 30
0.0
 10
-5.5787
 20
-6.347
 30
0.0
 10
-5.5787
 20
-6.347
 30
0.0
 10
-5.5787
 20
-6.9467
 30
0.0
 10
-5.5787
 20
-6.9467
 30
0.0
 10
-5.5787
 20
-6.9467
 30
0.0
 10
-5.5787
 20
-6.9467
 30
0.0
 10
-5.5516
 20
-7.1516
 30
0.0
 10
-5.5516
 20
-7.1516
 30
0.0
  0
SPLINE
  5
54
330
1F
100
AcDbEntity
  8
ROUND
 62
   250
370
    30
100
AcDbSpline
210
0.0
220
0.0
230
1.0
 70
     8
 71
     3
 72
    16
 73
    12
 74
     0
 42
0.0000000001
 43
0.0000000001
 40
0.0
 40
0.0
 40
0.0
 40
0.0
 40
0.25
 40
0.25
 40
0.25
 40
0.25
 40
0.5
 40
0.5
 40
0.5
 40
0.5
 40
1.0
 40
1.0
 40
1.0
 40
1.0
 10
-5.5787
 20
-6.9467
 30
0.0
 10
-5.5655
 20
-7.191
 30
0.0
 10
-5.4782
 20
-7.4135
 30
0.0
 10
-5.2878
 20
-7.5752
 30
0.0
 10
-5.2878
 20
-7.5752
 30
0.0
 10
-4.8512
 20
-7.946
 30
0.0
 10
-4.1556
 20
-7.7531
 30
0.0
 10
-3.9726
 20
-7.21
 30
0.0
 10
-3.9726
 20
-7.21
 30
0.0
 10
-3.885
 20
-6.95
 30
0.0
 10
-3.9293
 20
-6.5816
 30
0.0
 10
-3.9293
 20
-6.347
 30
0.0
  0
SPLINE
  5
55
330
1F
100
AcDbEntity
  8
ROUND
 62
   250
370
    30
100
AcDbSpline
210
0.0
220
0.0
230
1.0
 70
    24
 71
     3
 72
     8
 73
     4
 74
     0
 42
0.0000000001
 43
0.0000000001
 40
0.0
 40
0.0
 40
0.0
 40
0.0
 40
1.0
 40
1.0
 40
1.0
 40
1.0
 10
-3.9293
 20
-6.347
 30
0.0
 10
-3.9293
 20
-6.347
 30
0.0
 10
-3.9293
 20
-0.9496
 30
0.0
 10
-3.9293
 20
-0.9496
 30
0.0
  0
SPLINE
  5
56
330
1F
100
AcDbEntity
  8
ROUND
 62
   250
370
    30
100
AcDbSpline
210
0.0
220
0.0
230
1.0
 70
     8
 71
     3
 72
    20
 73
    16
 74
     0
 42
0.0000000001
 43
0.0000000001
 40
0.0
 40
0.0
 40
0.0
 40
0.0
 40
0.2
 40
0.2
 40
0.2
 40
0.2
 40
0.4
 40
0.4
 40
0.4
 40
0.4
 40
0.6
 40
0.6
 40
0.6
 40
0.6
 40
1.0
 40
1.0
 40
1.0
 40
1.0
 10
-3.9293
 20
-0.9496
 30
0.0
 10
-3.9293
 20
-0.4805
 30
0.0
 10
-3.8506
 20
0.0339
 30
0.0
 10
-4.2912
 20
0.3327
 30
0.0
 10
-4.2912
 20
0.3327
 30
0.0
 10
-4.3653
 20
0.3827
 30
0.0
 10
-4.4474
 20
0.4207
 30
0.0
 10
-4.5334
 20
0.4447
 30
0.0
 10
-4.5334
 20
0.4447
 30
0.0
 10
-4.6219
 20
0.4692
 30
0.0
 10
-4.7074
 20
0.4734
 30
0.0
 10
-4.7986
 20
0.4734
 30
0.0
 10
-4.7986
 20
0.4734
 30
0.0
 10
-5.2471
 20
0.4247
 30
0.0
 10
-5.5542
 20
0.1004
 30
0.0
 10
-5.5787
 20
-0.3498
 30
0.0
  0
SPLINE
  5
57
330
1F
100
AcDbEntity
  8
ROUND
 62
   250
370
    15
100
AcDbSpline
210
0.0
220
0.0
230
1.0
 70
    24
 71
     3
 72
     8
 73
     4
 74
     0
 42
0.0000000001
 43
0.0000000001
 40
0.0
 40
0.0
 40
0.0
 40
0.0
 40
1.0
 40
1.0
 40
1.0
 40
1.0
 10
-1.4712
 20
1.898
 30
0.0
 10
-1.4712
 20
1.898
 30
0.0
 10
-1.4712
 20
7.438
 30
0.0
 10
-1.4712
 20
7.438
 30
0.0
  0
SPLINE
  5
58
330
1F
100
AcDbEntity
  8
ROUND
 62
   250
370
    15
100
AcDbSpline
210
0.0
220
0.0
230
1.0
 70
    24
 71
     3
 72
     8
 73
     4
 74
     0
 42
0.0000000001
 43
0.0000000001
 40
0.0
 40
0.0
 40
0.0
 40
0.0
 40
1.0
 40
1.0
 40
1.0
 40
1.0
 10
-22.5107
 20
2.0567
 30
0.0
 10
-22.5107
 20
2.0567
 30
0.0
 10
-22.5107
 20
7.4379
 30
0.0
 10
-22.5107
 20
7.4379
 30
0.0
  0
SPLINE
  5
59
330
1F
100
AcDbEntity
  8
ROUND
 62
   250
370
    15
100
AcDbSpline
210
0.0
220
0.0
230
1.0
 70
    24
 71
     3
 72
     8
 73
     4
 74
     0
 42
0.0000000001
 43
0.0000000001
 40
0.0
 40
0.0
 40
0.0
 40
0.0
 40
1.0
 40
1.0
 40
1.0
 40
1.0
 10
-20.05
 20
0.522
 30
0.0
 10
-20.05
 20
0.522
 30
0.0
 10
-20.05
 20
3.0118
 30
0.0
 10
-20.05
 20
3.0118
 30
0.0
  0
SPLINE
  5
5A
330
1F
100
AcDbEntity
  8
ROUND
 62
   250
370
    15
100
AcDbSpline
210
0.0
220
0.0
230
1.0
 70
    24
 71
     3
 72
     8
 73
     4
 74
     0
 42
0.0000000001
 43
0.0000000001
 40
0.0
 40
0.0
 40
0.0
 40
0.0
 40
1.0
 40
1.0
 40
1.0
 40
1.0
 10
-18.3038
 20
0.4161
 30
0.0
 10
-18.3038
 20
0.4161
 30
0.0
 10
-18.3038
 20
2.9059
 30
0.0
 10
-18.3038
 20
2.9059
 30
0.0
  0
SPLINE
  5
5B
330
1F
100
AcDbEntity
  8
ROUND
 62
   250
100
AcDbSpline
210
0.0
220
0.0
230
1.0
 70
    11
 71
     3
 72
    36
 73
    32
 74
     0
 42
0.0000000001
 43
0.0000000001
 40
0.0
 40
0.0
 40
0.0
 40
0.0
 40
0.1111111111111111
 40
0.1111111111111111
 40
0.1111111111111111
 40
0.1111111111111111
 40
0.2222222222222222
 40
0.2222222222222222
 40
0.2222222222222222
 40
0.2222222222222222
 40
0.3333333333333333
 40
0.3333333333333333
 40
0.3333333333333333
 40
0.3333333333333333
 40
0.4444444444444444
 40
0.4444444444444444
 40
0.4444444444444444
 40
0.4444444444444444
 40
0.5555555555555556
 40
0.5555555555555556
 40
0.5555555555555556
 40
0.5555555555555556
 40
0.6666666666666666
 40
0.6666666666666666
 40
0.6666666666666666
 40
0.6666666666666666
 40
0.7777777777777778
 40
0.7777777777777778
 40
0.7777777777777778
 40
0.7777777777777778
 40
1.0
 40
1.0
 40
1.0
 40
1.0
 10
-13.2107
 20
9.8128
 30
0.0
 10
-13.2107
 20
9.8128
 30
0.0
 10
-13.2107
 20
9.5296
 30
0.0
 10
-13.2107
 20
9.5296
 30
0.0
 10
-13.2107
 20
9.5296
 30
0.0
 10
-13.2107
 20
9.5296
 30
0.0
 10
-12.2236
 20
9.5296
 30
0.0
 10
-12.2236
 20
9.5296
 30
0.0
 10
-12.2236
 20
9.5296
 30
0.0
 10
-12.2236
 20
9.5296
 30
0.0
 10
-12.2236
 20
9.5219
 30
0.0
 10
-12.2236
 20
9.5219
 30
0.0
 10
-12.2236
 20
9.5219
 30
0.0
 10
-12.2236
 20
9.5219
 30
0.0
 10
-13.0989
 20
7.2907
 30
0.0
 10
-13.0989
 20
7.2907
 30
0.0
 10
-13.0989
 20
7.2907
 30
0.0
 10
-13.0989
 20
7.2907
 30
0.0
 10
-12.8164
 20
7.2907
 30
0.0
 10
-12.8164
 20
7.2907
 30
0.0
 10
-12.8164
 20
7.2907
 30
0.0
 10
-12.8164
 20
7.2907
 30
0.0
 10
-11.9379
 20
9.5879
 30
0.0
 10
-11.9379
 20
9.5879
 30
0.0
 10
-11.9379
 20
9.5879
 30
0.0
 10
-11.9379
 20
9.5879
 30
0.0
 10
-11.9379
 20
9.8128
 30
0.0
 10
-11.9379
 20
9.8128
 30
0.0
 10
-11.9379
 20
9.8128
 30
0.0
 10
-11.9379
 20
9.8128
 30
0.0
 10
-13.2107
 20
9.8128
 30
0.0
 10
-13.2107
 20
9.8128
 30
0.0
  0
SPLINE
  5
5C
330
1F
100
AcDbEntity
  8
ROUND
 62
   250
100
AcDbSpline
210
0.0
220
0.0
230
1.0
 70
    11
 71
     3
 72
    56
 73
    52
 74
     0
 42
0.0000000001
 43
0.0000000001
 40
0.0
 40
0.0
 40
0.0
 40
0.0
 40
0.0714285714285714
 40
0.0714285714285714
 40
0.0714285714285714
 40
0.0714285714285714
 40
0.1428571428571428
 40
0.1428571428571428
 40
0.1428571428571428
 40
0.1428571428571428
 40
0.2142857142857143
 40
0.2142857142857143
 40
0.2142857142857143
 40
0.2142857142857143
 40
0.2857142857142857
 40
0.2857142857142857
 40
0.2857142857142857
 40
0.2857142857142857
 40
0.3571428571428572
 40
0.3571428571428572
 40
0.3571428571428572
 40
0.3571428571428572
 40
0.4285714285714285
 40
0.4285714285714285
 40
0.4285714285714285
 40
0.4285714285714285
 40
0.5
 40
0.5
 40
0.5
 40
0.5
 40
0.5714285714285714
 40
0.5714285714285714
 40
0.5714285714285714
 40
0.5714285714285714
 40
0.6428571428571429
 40
0.6428571428571429
 40
0.6428571428571429
 40
0.6428571428571429
 40
0.7142857142857143
 40
0.7142857142857143
 40
0.7142857142857143
 40
0.7142857142857143
 40
0.7857142857142857
 40
0.7857142857142857
 40
0.7857142857142857
 40
0.7857142857142857
 40
0.8571428571428571
 40
0.8571428571428571
 40
0.8571428571428571
 40
0.8571428571428571
 40
1.0
 40
1.0
 40
1.0
 40
1.0
 10
-10.9788
 20
9.8555
 30
0.0
 10
-11.0817
 20
9.8555
 30
0.0
 10
-11.1759
 20
9.8271
 30
0.0
 10
-11.2617
 20
9.7701
 30
0.0
 10
-11.2617
 20
9.7701
 30
0.0
 10
-11.3477
 20
9.7133
 30
0.0
 10
-11.4216
 20
9.6299
 30
0.0
 10
-11.4847
 20
9.5187
 30
0.0
 10
-11.4847
 20
9.5187
 30
0.0
 10
-11.5478
 20
9.4073
 30
0.0
 10
-11.5965
 20
9.2703
 30
0.0
 10
-11.6312
 20
9.1073
 30
0.0
 10
-11.6312
 20
9.1073
 30
0.0
 10
-11.6653
 20
8.9444
 30
0.0
 10
-11.6828
 20
8.7568
 30
0.0
 10
-11.6834
 20
8.5439
 30
0.0
 10
-11.6834
 20
8.5439
 30
0.0
 10
-11.6803
 20
8.2652
 30
0.0
 10
-11.6508
 20
8.0299
 30
0.0
 10
-11.5945
 20
7.8372
 30
0.0
 10
-11.5945
 20
7.8372
 30
0.0
 10
-11.5381
 20
7.6444
 30
0.0
 10
-11.4599
 20
7.4984
 30
0.0
 10
-11.3606
 20
7.3987
 30
0.0
 10
-11.3606
 20
7.3987
 30
0.0
 10
-11.2613
 20
7.2991
 30
0.0
 10
-11.1454
 20
7.2487
 30
0.0
 10
-11.013
 20
7.248
 30
0.0
 10
-11.013
 20
7.248
 30
0.0
 10
-10.8645
 20
7.2487
 30
0.0
 10
-10.7382
 20
7.3004
 30
0.0
 10
-10.6338
 20
7.4026
 30
0.0
 10
-10.6338
 20
7.4026
 30
0.0
 10
-10.5292
 20
7.5048
 30
0.0
 10
-10.4495
 20
7.6548
 30
0.0
 10
-10.3947
 20
7.8528
 30
0.0
 10
-10.3947
 20
7.8528
 30
0.0
 10
-10.3394
 20
8.0506
 30
0.0
 10
-10.3119
 20
8.2925
 30
0.0
 10
-10.3114
 20
8.5789
 30
0.0
 10
-10.3114
 20
8.5789
 30
0.0
 10
-10.3119
 20
8.8474
 30
0.0
 10
-10.3383
 20
9.077
 30
0.0
 10
-10.3906
 20
9.2671
 30
0.0
 10
-10.3906
 20
9.2671
 30
0.0
 10
-10.4428
 20
9.4572
 30
0.0
 10
-10.5188
 20
9.6026
 30
0.0
 10
-10.6181
 20
9.7029
 30
0.0
 10
-10.6181
 20
9.7029
 30
0.0
 10
-10.7175
 20
9.8038
 30
0.0
 10
-10.8375
 20
9.8549
 30
0.0
 10
-10.9788
 20
9.8555
 30
0.0
  0
SPLINE
  5
5D
330
1F
100
AcDbEntity
  8
ROUND
 62
   250
100
AcDbSpline
210
0.0
220
0.0
230
1.0
 70
    11
 71
     3
 72
    56
 73
    52
 74
     0
 42
0.0000000001
 43
0.0000000001
 40
0.0
 40
0.0
 40
0.0
 40
0.0
 40
0.0714285714285714
 40
0.0714285714285714
 40
0.0714285714285714
 40
0.0714285714285714
 40
0.1428571428571428
 40
0.1428571428571428
 40
0.1428571428571428
 40
0.1428571428571428
 40
0.2142857142857143
 40
0.2142857142857143
 40
0.2142857142857143
 40
0.2142857142857143
 40
0.2857142857142857
 40
0.2857142857142857
 40
0.2857142857142857
 40
0.2857142857142857
 40
0.3571428571428572
 40
0.3571428571428572
 40
0.3571428571428572
 40
0.3571428571428572
 40
0.4285714285714285
 40
0.4285714285714285
 40
0.4285714285714285
 40
0.4285714285714285
 40
0.5
 40
0.5
 40
0.5
 40
0.5
 40
0.5714285714285714
 40
0.5714285714285714
 40
0.5714285714285714
 40
0.5714285714285714
 40
0.6428571428571429
 40
0.6428571428571429
 40
0.6428571428571429
 40
0.6428571428571429
 40
0.7142857142857143
 40
0.7142857142857143
 40
0.7142857142857143
 40
0.7142857142857143
 40
0.7857142857142857
 40
0.7857142857142857
 40
0.7857142857142857
 40
0.7857142857142857
 40
0.8571428571428571
 40
0.8571428571428571
 40
0.8571428571428571
 40
0.8571428571428571
 40
1.0
 40
1.0
 40
1.0
 40
1.0
 10
-10.9975
 20
9.5917
 30
0.0
 10
-10.926
 20
9.5911
 30
0.0
 10
-10.8645
 20
9.5671
 30
0.0
 10
-10.8127
 20
9.5187
 30
0.0
 10
-10.8127
 20
9.5187
 30
0.0
 10
-10.761
 20
9.4701
 30
0.0
 10
-10.7186
 20
9.4008
 30
0.0
 10
-10.6854
 20
9.3105
 30
0.0
 10
-10.6854
 20
9.3105
 30
0.0
 10
-10.6523
 20
9.2204
 30
0.0
 10
-10.6274
 20
9.1117
 30
0.0
 10
-10.6114
 20
8.9864
 30
0.0
 10
-10.6114
 20
8.9864
 30
0.0
 10
-10.5955
 20
8.8603
 30
0.0
 10
-10.5877
 20
8.7193
 30
0.0
 10
-10.5877
 20
8.5635
 30
0.0
 10
-10.5877
 20
8.5635
 30
0.0
 10
-10.5877
 20
8.3474
 30
0.0
 10
-10.6026
 20
8.1612
 30
0.0
 10
-10.6326
 20
8.0047
 30
0.0
 10
-10.6326
 20
8.0047
 30
0.0
 10
-10.6622
 20
7.8476
 30
0.0
 10
-10.7076
 20
7.7265
 30
0.0
 10
-10.7682
 20
7.6411
 30
0.0
 10
-10.7682
 20
7.6411
 30
0.0
 10
-10.8287
 20
7.5558
 30
0.0
 10
-10.9054
 20
7.5131
 30
0.0
 10
-10.9975
 20
7.5118
 30
0.0
 10
-10.9975
 20
7.5118
 30
0.0
 10
-11.0807
 20
7.5125
 30
0.0
 10
-11.1526
 20
7.5525
 30
0.0
 10
-11.2141
 20
7.6329
 30
0.0
 10
-11.2141
 20
7.6329
 30
0.0
 10
-11.2752
 20
7.7131
 30
0.0
 10
-11.3223
 20
7.8294
 30
0.0
 10
-11.356
 20
7.9821
 30
0.0
 10
-11.356
 20
7.9821
 30
0.0
 10
-11.3896
 20
8.1352
 30
0.0
 10
-11.4067
 20
8.3208
 30
0.0
 10
-11.4072
 20
8.5402
 30
0.0
 10
-11.4072
 20
8.5402
 30
0.0
 10
-11.4067
 20
8.7697
 30
0.0
 10
-11.3886
 20
8.9618
 30
0.0
 10
-11.3533
 20
9.1184
 30
0.0
 10
-11.3533
 20
9.1184
 30
0.0
 10
-11.3181
 20
9.2742
 30
0.0
 10
-11.2701
 20
9.3919
 30
0.0
 10
-11.2085
 20
9.472
 30
0.0
 10
-11.2085
 20
9.472
 30
0.0
 10
-11.147
 20
9.5517
 30
0.0
 10
-11.0765
 20
9.5917
 30
0.0
 10
-10.9975
 20
9.5917
 30
0.0
  0
SPLINE
  5
5E
330
1F
100
AcDbEntity
  8
ROUND
 62
   250
100
AcDbSpline
210
0.0
220
0.0
230
1.0
 70
    11
 71
     3
 72
   132
 73
   128
 74
     0
 42
0.0000000001
 43
0.0000000001
 40
0.0
 40
0.0
 40
0.0
 40
0.0
 40
0.0303030303030303
 40
0.0303030303030303
 40
0.0303030303030303
 40
0.0303030303030303
 40
0.0606060606060606
 40
0.0606060606060606
 40
0.0606060606060606
 40
0.0606060606060606
 40
0.0909090909090909
 40
0.0909090909090909
 40
0.0909090909090909
 40
0.0909090909090909
 40
0.1212121212121212
 40
0.1212121212121212
 40
0.1212121212121212
 40
0.1212121212121212
 40
0.1515151515151515
 40
0.1515151515151515
 40
0.1515151515151515
 40
0.1515151515151515
 40
0.1818181818181818
 40
0.1818181818181818
 40
0.1818181818181818
 40
0.1818181818181818
 40
0.2121212121212121
 40
0.2121212121212121
 40
0.2121212121212121
 40
0.2121212121212121
 40
0.2424242424242424
 40
0.2424242424242424
 40
0.2424242424242424
 40
0.2424242424242424
 40
0.2727272727272727
 40
0.2727272727272727
 40
0.2727272727272727
 40
0.2727272727272727
 40
0.303030303030303
 40
0.303030303030303
 40
0.303030303030303
 40
0.303030303030303
 40
0.3333333333333333
 40
0.3333333333333333
 40
0.3333333333333333
 40
0.3333333333333333
 40
0.3636363636363636
 40
0.3636363636363636
 40
0.3636363636363636
 40
0.3636363636363636
 40
0.3939393939393939
 40
0.3939393939393939
 40
0.3939393939393939
 40
0.3939393939393939
 40
0.4242424242424243
 40
0.4242424242424243
 40
0.4242424242424243
 40
0.4242424242424243
 40
0.4545454545454545
 40
0.4545454545454545
 40
0.4545454545454545
 40
0.4545454545454545
 40
0.4848484848484849
 40
0.4848484848484849
 40
0.4848484848484849
 40
0.4848484848484849
 40
0.5151515151515151
 40
0.5151515151515151
 40
0.5151515151515151
 40
0.5151515151515151
 40
0.5454545454545454
 40
0.5454545454545454
 40
0.5454545454545454
 40
0.5454545454545454
 40
0.5757575757575758
 40
0.5757575757575758
 40
0.5757575757575758
 40
0.5757575757575758
 40
0.6060606060606061
 40
0.6060606060606061
 40
0.6060606060606061
 40
0.6060606060606061
 40
0.6363636363636364
 40
0.6363636363636364
 40
0.6363636363636364
 40
0.6363636363636364
 40
0.6666666666666666
 40
0.6666666666666666
 40
0.6666666666666666
 40
0.6666666666666666
 40
0.696969696969697
 40
0.696969696969697
 40
0.696969696969697
 40
0.696969696969697
 40
0.7272727272727273
 40
0.7272727272727273
 40
0.7272727272727273
 40
0.7272727272727273
 40
0.7575757575757576
 40
0.7575757575757576
 40
0.7575757575757576
 40
0.7575757575757576
 40
0.7878787878787878
 40
0.7878787878787878
 40
0.7878787878787878
 40
0.7878787878787878
 40
0.8181818181818182
 40
0.8181818181818182
 40
0.8181818181818182
 40
0.8181818181818182
 40
0.8484848484848485
 40
0.8484848484848485
 40
0.8484848484848485
 40
0.8484848484848485
 40
0.8787878787878788
 40
0.8787878787878788
 40
0.8787878787878788
 40
0.8787878787878788
 40
0.9090909090909091
 40
0.9090909090909091
 40
0.9090909090909091
 40
0.9090909090909091
 40
0.9393939393939394
 40
0.9393939393939394
 40
0.9393939393939394
 40
0.9393939393939394
 40
1.0
 40
1.0
 40
1.0
 40
1.0
 10
-14.7687
 20
5.7923
 30
0.0
 10
-14.7687
 20
5.7923
 30
0.0
 10
-15.734
 20
5.7923
 30
0.0
 10
-15.734
 20
5.7923
 30
0.0
 10
-15.734
 20
5.7923
 30
0.0
 10
-15.734
 20
5.7923
 30
0.0
 10
-15.8644
 20
4.5817
 30
0.0
 10
-15.8644
 20
4.5817
 30
0.0
 10
-15.8644
 20
4.5817
 30
0.0
 10
-15.8271
 20
4.5882
 30
0.0
 10
-15.7858
 20
4.5934
 30
0.0
 10
-15.7392
 20
4.5979
 30
0.0
 10
-15.7392
 20
4.5979
 30
0.0
 10
-15.6933
 20
4.6024
 30
0.0
 10
-15.6405
 20
4.605
 30
0.0
 10
-15.5819
 20
4.605
 30
0.0
 10
-15.5819
 20
4.605
 30
0.0
 10
-15.4485
 20
4.6043
 30
0.0
 10
-15.3393
 20
4.5805
 30
0.0
 10
-15.2545
 20
4.5338
 30
0.0
 10
-15.2545
 20
4.5338
 30
0.0
 10
-15.1692
 20
4.4867
 30
0.0
 10
-15.106
 20
4.4219
 30
0.0
 10
-15.0652
 20
4.3393
 30
0.0
 10
-15.0652
 20
4.3393
 30
0.0
 10
-15.0243
 20
4.2559
 30
0.0
 10
-15.004
 20
4.1594
 30
0.0
 10
-15.0046
 20
4.0502
 30
0.0
 10
-15.0046
 20
4.0502
 30
0.0
 10
-15.004
 20
3.9653
 30
0.0
 10
-15.0165
 20
3.8898
 30
0.0
 10
-15.0419
 20
3.8226
 30
0.0
 10
-15.0419
 20
3.8226
 30
0.0
 10
-15.0667
 20
3.7546
 30
0.0
 10
-15.1013
 20
3.6978
 30
0.0
 10
-15.1454
 20
3.6499
 30
0.0
 10
-15.1454
 20
3.6499
 30
0.0
 10
-15.1893
 20
3.6025
 30
0.0
 10
-15.24
 20
3.5665
 30
0.0
 10
-15.2974
 20
3.5412
 30
0.0
 10
-15.2974
 20
3.5412
 30
0.0
 10
-15.3548
 20
3.5159
 30
0.0
 10
-15.4154
 20
3.503
 30
0.0
 10
-15.4795
 20
3.503
 30
0.0
 10
-15.4795
 20
3.503
 30
0.0
 10
-15.5422
 20
3.5037
 30
0.0
 10
-15.6012
 20
3.5107
 30
0.0
 10
-15.6566
 20
3.5256
 30
0.0
 10
-15.6566
 20
3.5256
 30
0.0
 10
-15.7118
 20
3.5399
 30
0.0
 10
-15.7616
 20
3.5573
 30
0.0
 10
-15.8055
 20
3.5787
 30
0.0
 10
-15.8055
 20
3.5787
 30
0.0
 10
-15.8495
 20
3.6
 30
0.0
 10
-15.8857
 20
3.6214
 30
0.0
 10
-15.9141
 20
3.6427
 30
0.0
 10
-15.9141
 20
3.6427
 30
0.0
 10
-15.9141
 20
3.6427
 30
0.0
 10
-15.9824
 20
3.3826
 30
0.0
 10
-15.9824
 20
3.3826
 30
0.0
 10
-15.9824
 20
3.3826
 30
0.0
 10
-15.9488
 20
3.3563
 30
0.0
 10
-15.9069
 20
3.3317
 30
0.0
 10
-15.8567
 20
3.3077
 30
0.0
 10
-15.8567
 20
3.3077
 30
0.0
 10
-15.8065
 20
3.2844
 30
0.0
 10
-15.7497
 20
3.2657
 30
0.0
 10
-15.686
 20
3.2508
 30
0.0
 10
-15.686
 20
3.2508
 30
0.0
 10
-15.6218
 20
3.2359
 30
0.0
 10
-15.553
 20
3.2282
 30
0.0
 10
-15.4795
 20
3.2275
 30
0.0
 10
-15.4795
 20
3.2275
 30
0.0
 10
-15.3693
 20
3.2282
 30
0.0
 10
-15.269
 20
3.2501
 30
0.0
 10
-15.1773
 20
3.2928
 30
0.0
 10
-15.1773
 20
3.2928
 30
0.0
 10
-15.0858
 20
3.3355
 30
0.0
 10
-15.0066
 20
3.3957
 30
0.0
 10
-14.9399
 20
3.4732
 30
0.0
 10
-14.9399
 20
3.4732
 30
0.0
 10
-14.8726
 20
3.5509
 30
0.0
 10
-14.821
 20
3.642
 30
0.0
 10
-14.7842
 20
3.7462
 30
0.0
 10
-14.7842
 20
3.7462
 30
0.0
 10
-14.7475
 20
3.8509
 30
0.0
 10
-14.7288
 20
3.9653
 30
0.0
 10
-14.7283
 20
4.0889
 30
0.0
 10
-14.7283
 20
4.0889
 30
0.0
 10
-14.7288
 20
4.1936
 30
0.0
 10
-14.7423
 20
4.2881
 30
0.0
 10
-14.7682
 20
4.3715
 30
0.0
 10
-14.7682
 20
4.3715
 30
0.0
 10
-14.794
 20
4.4549
 30
0.0
 10
-14.8281
 20
4.5267
 30
0.0
 10
-14.8716
 20
4.5875
 30
0.0
 10
-14.8716
 20
4.5875
 30
0.0
 10
-14.9151
 20
4.6483
 30
0.0
 10
-14.9637
 20
4.6969
 30
0.0
 10
-15.0169
 20
4.7331
 30
0.0
 10
-15.0169
 20
4.7331
 30
0.0
 10
-15.0796
 20
4.781
 30
0.0
 10
-15.1474
 20
4.8158
 30
0.0
 10
-15.2214
 20
4.8371
 30
0.0
 10
-15.2214
 20
4.8371
 30
0.0
 10
-15.2954
 20
4.8585
 30
0.0
 10
-15.3719
 20
4.8696
 30
0.0
 10
-15.4517
 20
4.8689
 30
0.0
 10
-15.4517
 20
4.8689
 30
0.0
 10
-15.4878
 20
4.8689
 30
0.0
 10
-15.5188
 20
4.8681
 30
0.0
 10
-15.5442
 20
4.8663
 30
0.0
 10
-15.5442
 20
4.8663
 30
0.0
 10
-15.5696
 20
4.8644
 30
0.0
 10
-15.5934
 20
4.8611
 30
0.0
 10
-15.6161
 20
4.8572
 30
0.0
 10
-15.6161
 20
4.8572
 30
0.0
 10
-15.6161
 20
4.8572
 30
0.0
 10
-15.5385
 20
5.5052
 30
0.0
 10
-15.5385
 20
5.5052
 30
0.0
 10
-15.5385
 20
5.5052
 30
0.0
 10
-15.5385
 20
5.5052
 30
0.0
 10
-14.7687
 20
5.5052
 30
0.0
 10
-14.7687
 20
5.5052
 30
0.0
 10
-14.7687
 20
5.5052
 30
0.0
 10
-14.7687
 20
5.5052
 30
0.0
 10
-14.7687
 20
5.7923
 30
0.0
 10
-14.7687
 20
5.7923
 30
0.0
  0
SPLINE
  5
5F
330
1F
100
AcDbEntity
  8
ROUND
 62
   250
100
AcDbSpline
210
0.0
220
0.0
230
1.0
 70
    11
 71
     3
 72
    44
 73
    40
 74
     0
 42
0.0000000001
 43
0.0000000001
 40
0.0
 40
0.0
 40
0.0
 40
0.0
 40
0.0909090909090909
 40
0.0909090909090909
 40
0.0909090909090909
 40
0.0909090909090909
 40
0.1818181818181818
 40
0.1818181818181818
 40
0.1818181818181818
 40
0.1818181818181818
 40
0.2727272727272727
 40
0.2727272727272727
 40
0.2727272727272727
 40
0.2727272727272727
 40
0.3636363636363636
 40
0.3636363636363636
 40
0.3636363636363636
 40
0.3636363636363636
 40
0.4545454545454545
 40
0.4545454545454545
 40
0.4545454545454545
 40
0.4545454545454545
 40
0.5454545454545454
 40
0.5454545454545454
 40
0.5454545454545454
 40
0.5454545454545454
 40
0.6363636363636364
 40
0.6363636363636364
 40
0.6363636363636364
 40
0.6363636363636364
 40
0.7272727272727273
 40
0.7272727272727273
 40
0.7272727272727273
 40
0.7272727272727273
 40
0.8181818181818182
 40
0.8181818181818182
 40
0.8181818181818182
 40
0.8181818181818182
 40
1.0
 40
1.0
 40
1.0
 40
1.0
 10
-14.2782
 20
2.8163
 30
0.0
 10
-14.256
 20
2.8627
 30
0.0
 10
-14.2321
 20
2.9223
 30
0.0
 10
-14.2053
 20
2.994
 30
0.0
 10
-14.2053
 20
2.994
 30
0.0
 10
-14.1789
 20
3.0665
 30
0.0
 10
-14.1521
 20
3.1454
 30
0.0
 10
-14.1245
 20
3.2327
 30
0.0
 10
-14.1245
 20
3.2327
 30
0.0
 10
-14.0971
 20
3.3193
 30
0.0
 10
-14.0707
 20
3.4079
 30
0.0
 10
-14.0459
 20
3.4985
 30
0.0
 10
-14.0459
 20
3.4985
 30
0.0
 10
-14.0211
 20
3.5891
 30
0.0
 10
-13.9994
 20
3.6757
 30
0.0
 10
-13.9802
 20
3.7591
 30
0.0
 10
-13.9802
 20
3.7591
 30
0.0
 10
-13.9802
 20
3.7591
 30
0.0
 10
-14.2845
 20
3.7203
 30
0.0
 10
-14.2845
 20
3.7203
 30
0.0
 10
-14.2845
 20
3.7203
 30
0.0
 10
-14.2933
 20
3.6486
 30
0.0
 10
-14.3046
 20
3.5715
 30
0.0
 10
-14.3181
 20
3.4881
 30
0.0
 10
-14.3181
 20
3.4881
 30
0.0
 10
-14.332
 20
3.4047
 30
0.0
 10
-14.3476
 20
3.3206
 30
0.0
 10
-14.3647
 20
3.2359
 30
0.0
 10
-14.3647
 20
3.2359
 30
0.0
 10
-14.3818
 20
3.1506
 30
0.0
 10
-14.3993
 20
3.0697
 30
0.0
 10
-14.4174
 20
2.9928
 30
0.0
 10
-14.4174
 20
2.9928
 30
0.0
 10
-14.4356
 20
2.9158
 30
0.0
 10
-14.4537
 20
2.8478
 30
0.0
 10
-14.4707
 20
2.789
 30
0.0
 10
-14.4707
 20
2.789
 30
0.0
 10
-14.4707
 20
2.789
 30
0.0
 10
-14.2782
 20
2.8163
 30
0.0
 10
-14.2782
 20
2.8163
 30
0.0
  0
SPLINE
  5
60
330
1F
100
AcDbEntity
  8
ROUND
 62
   250
100
AcDbSpline
210
0.0
220
0.0
230
1.0
 70
    11
 71
     3
 72
   132
 73
   128
 74
     0
 42
0.0000000001
 43
0.0000000001
 40
0.0
 40
0.0
 40
0.0
 40
0.0
 40
0.0303030303030303
 40
0.0303030303030303
 40
0.0303030303030303
 40
0.0303030303030303
 40
0.0606060606060606
 40
0.0606060606060606
 40
0.0606060606060606
 40
0.0606060606060606
 40
0.0909090909090909
 40
0.0909090909090909
 40
0.0909090909090909
 40
0.0909090909090909
 40
0.1212121212121212
 40
0.1212121212121212
 40
0.1212121212121212
 40
0.1212121212121212
 40
0.1515151515151515
 40
0.1515151515151515
 40
0.1515151515151515
 40
0.1515151515151515
 40
0.1818181818181818
 40
0.1818181818181818
 40
0.1818181818181818
 40
0.1818181818181818
 40
0.2121212121212121
 40
0.2121212121212121
 40
0.2121212121212121
 40
0.2121212121212121
 40
0.2424242424242424
 40
0.2424242424242424
 40
0.2424242424242424
 40
0.2424242424242424
 40
0.2727272727272727
 40
0.2727272727272727
 40
0.2727272727272727
 40
0.2727272727272727
 40
0.303030303030303
 40
0.303030303030303
 40
0.303030303030303
 40
0.303030303030303
 40
0.3333333333333333
 40
0.3333333333333333
 40
0.3333333333333333
 40
0.3333333333333333
 40
0.3636363636363636
 40
0.3636363636363636
 40
0.3636363636363636
 40
0.3636363636363636
 40
0.3939393939393939
 40
0.3939393939393939
 40
0.3939393939393939
 40
0.3939393939393939
 40
0.4242424242424243
 40
0.4242424242424243
 40
0.4242424242424243
 40
0.4242424242424243
 40
0.4545454545454545
 40
0.4545454545454545
 40
0.4545454545454545
 40
0.4545454545454545
 40
0.4848484848484849
 40
0.4848484848484849
 40
0.4848484848484849
 40
0.4848484848484849
 40
0.5151515151515151
 40
0.5151515151515151
 40
0.5151515151515151
 40
0.5151515151515151
 40
0.5454545454545454
 40
0.5454545454545454
 40
0.5454545454545454
 40
0.5454545454545454
 40
0.5757575757575758
 40
0.5757575757575758
 40
0.5757575757575758
 40
0.5757575757575758
 40
0.6060606060606061
 40
0.6060606060606061
 40
0.6060606060606061
 40
0.6060606060606061
 40
0.6363636363636364
 40
0.6363636363636364
 40
0.6363636363636364
 40
0.6363636363636364
 40
0.6666666666666666
 40
0.6666666666666666
 40
0.6666666666666666
 40
0.6666666666666666
 40
0.696969696969697
 40
0.696969696969697
 40
0.696969696969697
 40
0.696969696969697
 40
0.7272727272727273
 40
0.7272727272727273
 40
0.7272727272727273
 40
0.7272727272727273
 40
0.7575757575757576
 40
0.7575757575757576
 40
0.7575757575757576
 40
0.7575757575757576
 40
0.7878787878787878
 40
0.7878787878787878
 40
0.7878787878787878
 40
0.7878787878787878
 40
0.8181818181818182
 40
0.8181818181818182
 40
0.8181818181818182
 40
0.8181818181818182
 40
0.8484848484848485
 40
0.8484848484848485
 40
0.8484848484848485
 40
0.8484848484848485
 40
0.8787878787878788
 40
0.8787878787878788
 40
0.8787878787878788
 40
0.8787878787878788
 40
0.9090909090909091
 40
0.9090909090909091
 40
0.9090909090909091
 40
0.9090909090909091
 40
0.9393939393939394
 40
0.9393939393939394
 40
0.9393939393939394
 40
0.9393939393939394
 40
1.0
 40
1.0
 40
1.0
 40
1.0
 10
-12.5337
 20
5.7923
 30
0.0
 10
-12.5337
 20
5.7923
 30
0.0
 10
-13.499
 20
5.7923
 30
0.0
 10
-13.499
 20
5.7923
 30
0.0
 10
-13.499
 20
5.7923
 30
0.0
 10
-13.499
 20
5.7923
 30
0.0
 10
-13.6294
 20
4.5817
 30
0.0
 10
-13.6294
 20
4.5817
 30
0.0
 10
-13.6294
 20
4.5817
 30
0.0
 10
-13.5921
 20
4.5882
 30
0.0
 10
-13.5508
 20
4.5934
 30
0.0
 10
-13.5042
 20
4.5979
 30
0.0
 10
-13.5042
 20
4.5979
 30
0.0
 10
-13.4582
 20
4.6024
 30
0.0
 10
-13.4054
 20
4.605
 30
0.0
 10
-13.3469
 20
4.605
 30
0.0
 10
-13.3469
 20
4.605
 30
0.0
 10
-13.2135
 20
4.6043
 30
0.0
 10
-13.1043
 20
4.5805
 30
0.0
 10
-13.0195
 20
4.5338
 30
0.0
 10
-13.0195
 20
4.5338
 30
0.0
 10
-12.9341
 20
4.4867
 30
0.0
 10
-12.871
 20
4.4219
 30
0.0
 10
-12.8301
 20
4.3393
 30
0.0
 10
-12.8301
 20
4.3393
 30
0.0
 10
-12.7892
 20
4.2559
 30
0.0
 10
-12.769
 20
4.1594
 30
0.0
 10
-12.7696
 20
4.0502
 30
0.0
 10
-12.7696
 20
4.0502
 30
0.0
 10
-12.769
 20
3.9653
 30
0.0
 10
-12.7815
 20
3.8898
 30
0.0
 10
-12.8069
 20
3.8226
 30
0.0
 10
-12.8069
 20
3.8226
 30
0.0
 10
-12.8317
 20
3.7546
 30
0.0
 10
-12.8663
 20
3.6978
 30
0.0
 10
-12.9103
 20
3.6499
 30
0.0
 10
-12.9103
 20
3.6499
 30
0.0
 10
-12.9542
 20
3.6025
 30
0.0
 10
-13.005
 20
3.5665
 30
0.0
 10
-13.0624
 20
3.5412
 30
0.0
 10
-13.0624
 20
3.5412
 30
0.0
 10
-13.1198
 20
3.5159
 30
0.0
 10
-13.1803
 20
3.503
 30
0.0
 10
-13.2445
 20
3.503
 30
0.0
 10
-13.2445
 20
3.503
 30
0.0
 10
-13.3072
 20
3.5037
 30
0.0
 10
-13.3661
 20
3.5107
 30
0.0
 10
-13.4215
 20
3.5256
 30
0.0
 10
-13.4215
 20
3.5256
 30
0.0
 10
-13.4768
 20
3.5399
 30
0.0
 10
-13.5265
 20
3.5573
 30
0.0
 10
-13.5704
 20
3.5787
 30
0.0
 10
-13.5704
 20
3.5787
 30
0.0
 10
-13.6145
 20
3.6
 30
0.0
 10
-13.6506
 20
3.6214
 30
0.0
 10
-13.6791
 20
3.6427
 30
0.0
 10
-13.6791
 20
3.6427
 30
0.0
 10
-13.6791
 20
3.6427
 30
0.0
 10
-13.7473
 20
3.3826
 30
0.0
 10
-13.7473
 20
3.3826
 30
0.0
 10
-13.7473
 20
3.3826
 30
0.0
 10
-13.7138
 20
3.3563
 30
0.0
 10
-13.6719
 20
3.3317
 30
0.0
 10
-13.6217
 20
3.3077
 30
0.0
 10
-13.6217
 20
3.3077
 30
0.0
 10
-13.5714
 20
3.2844
 30
0.0
 10
-13.5146
 20
3.2657
 30
0.0
 10
-13.4509
 20
3.2508
 30
0.0
 10
-13.4509
 20
3.2508
 30
0.0
 10
-13.3868
 20
3.2359
 30
0.0
 10
-13.3179
 20
3.2282
 30
0.0
 10
-13.2445
 20
3.2275
 30
0.0
 10
-13.2445
 20
3.2275
 30
0.0
 10
-13.1343
 20
3.2282
 30
0.0
 10
-13.034
 20
3.2501
 30
0.0
 10
-12.9423
 20
3.2928
 30
0.0
 10
-12.9423
 20
3.2928
 30
0.0
 10
-12.8508
 20
3.3355
 30
0.0
 10
-12.7716
 20
3.3957
 30
0.0
 10
-12.7049
 20
3.4732
 30
0.0
 10
-12.7049
 20
3.4732
 30
0.0
 10
-12.6376
 20
3.5509
 30
0.0
 10
-12.5859
 20
3.642
 30
0.0
 10
-12.5492
 20
3.7462
 30
0.0
 10
-12.5492
 20
3.7462
 30
0.0
 10
-12.5125
 20
3.8509
 30
0.0
 10
-12.4938
 20
3.9653
 30
0.0
 10
-12.4932
 20
4.0889
 30
0.0
 10
-12.4932
 20
4.0889
 30
0.0
 10
-12.4938
 20
4.1936
 30
0.0
 10
-12.5073
 20
4.2881
 30
0.0
 10
-12.5331
 20
4.3715
 30
0.0
 10
-12.5331
 20
4.3715
 30
0.0
 10
-12.5589
 20
4.4549
 30
0.0
 10
-12.5931
 20
4.5267
 30
0.0
 10
-12.6366
 20
4.5875
 30
0.0
 10
-12.6366
 20
4.5875
 30
0.0
 10
-12.68
 20
4.6483
 30
0.0
 10
-12.7287
 20
4.6969
 30
0.0
 10
-12.7819
 20
4.7331
 30
0.0
 10
-12.7819
 20
4.7331
 30
0.0
 10
-12.8446
 20
4.781
 30
0.0
 10
-12.9123
 20
4.8158
 30
0.0
 10
-12.9864
 20
4.8371
 30
0.0
 10
-12.9864
 20
4.8371
 30
0.0
 10
-13.0604
 20
4.8585
 30
0.0
 10
-13.1369
 20
4.8696
 30
0.0
 10
-13.2166
 20
4.8689
 30
0.0
 10
-13.2166
 20
4.8689
 30
0.0
 10
-13.2528
 20
4.8689
 30
0.0
 10
-13.2838
 20
4.8681
 30
0.0
 10
-13.3092
 20
4.8663
 30
0.0
 10
-13.3092
 20
4.8663
 30
0.0
 10
-13.3346
 20
4.8644
 30
0.0
 10
-13.3584
 20
4.8611
 30
0.0
 10
-13.3811
 20
4.8572
 30
0.0
 10
-13.3811
 20
4.8572
 30
0.0
 10
-13.3811
 20
4.8572
 30
0.0
 10
-13.3034
 20
5.5052
 30
0.0
 10
-13.3034
 20
5.5052
 30
0.0
 10
-13.3034
 20
5.5052
 30
0.0
 10
-13.3034
 20
5.5052
 30
0.0
 10
-12.5337
 20
5.5052
 30
0.0
 10
-12.5337
 20
5.5052
 30
0.0
 10
-12.5337
 20
5.5052
 30
0.0
 10
-12.5337
 20
5.5052
 30
0.0
 10
-12.5337
 20
5.7923
 30
0.0
 10
-12.5337
 20
5.7923
 30
0.0
  0
SPLINE
  5
61
330
1F
100
AcDbEntity
  8
ROUND
 62
   250
370
    15
100
AcDbSpline
210
0.0
220
0.0
230
1.0
 70
    24
 71
     3
 72
     8
 73
     4
 74
     0
 42
0.0000000001
 43
0.0000000001
 40
0.0
 40
0.0
 40
0.0
 40
0.0
 40
1.0
 40
1.0
 40
1.0
 40
1.0
 10
-2.0008
 20
6.8787
 30
0.0
 10
-2.0008
 20
6.8787
 30
0.0
 10
-21.6725
 20
6.8787
 30
0.0
 10
-21.6725
 20
6.8787
 30
0.0
  0
SPLINE
  5
62
330
1F
100
AcDbEntity
  8
ROUND
 62
   250
370
    15
100
AcDbSpline
210
0.0
220
0.0
230
1.0
 70
    24
 71
     3
 72
     8
 73
     4
 74
     0
 42
0.0000000001
 43
0.0000000001
 40
0.0
 40
0.0
 40
0.0
 40
0.0
 40
1.0
 40
1.0
 40
1.0
 40
1.0
 10
-12.0478
 20
2.448
 30
0.0
 10
-12.0478
 20
2.448
 30
0.0
 10
-21.8646
 20
2.448
 30
0.0
 10
-21.8646
 20
2.448
 30
0.0
  0
SPLINE
  5
63
330
1F
100
AcDbEntity
  8
ROUND
 62
   250
370
     9
100
AcDbSpline
210
0.0
220
0.0
230
1.0
 70
    11
 71
     3
 72
    32
 73
    28
 74
     0
 42
0.0000000001
 43
0.0000000001
 40
0.0
 40
0.0
 40
0.0
 40
0.0
 40
0.125
 40
0.125
 40
0.125
 40
0.125
 40
0.25
 40
0.25
 40
0.25
 40
0.25
 40
0.375
 40
0.375
 40
0.375
 40
0.375
 40
0.5
 40
0.5
 40
0.5
 40
0.5
 40
0.625
 40
0.625
 40
0.625
 40
0.625
 40
0.75
 40
0.75
 40
0.75
 40
0.75
 40
1.0
 40
1.0
 40
1.0
 40
1.0
 10
-2.8732
 20
6.3996
 30
0.0
 10
-2.8732
 20
6.3996
 30
0.0
 10
-2.8732
 20
6.3996
 30
0.0
 10
-2.8732
 20
6.3996
 30
0.0
 10
-2.8732
 20
6.3996
 30
0.0
 10
-2.8732
 20
6.3996
 30
0.0
 10
-2.8732
 20
6.3996
 30
0.0
 10
-2.8732
 20
6.3996
 30
0.0
 10
-2.8732
 20
6.3996
 30
0.0
 10
-2.8732
 20
6.3996
 30
0.0
 10
-1.6004
 20
6.843
 30
0.0
 10
-1.6004
 20
6.843
 30
0.0
 10
-1.6004
 20
6.843
 30
0.0
 10
-1.6004
 20
6.843
 30
0.0
 10
-2.8732
 20
7.2864
 30
0.0
 10
-2.8732
 20
7.2864
 30
0.0
 10
-2.8732
 20
7.2864
 30
0.0
 10
-2.8732
 20
7.2864
 30
0.0
 10
-2.8732
 20
7.2864
 30
0.0
 10
-2.8732
 20
7.2864
 30
0.0
 10
-2.8732
 20
7.2864
 30
0.0
 10
-2.8732
 20
7.2864
 30
0.0
 10
-2.8732
 20
7.2864
 30
0.0
 10
-2.8732
 20
7.2864
 30
0.0
 10
-2.8732
 20
7.2864
 30
0.0
 10
-2.8732
 20
7.2864
 30
0.0
 10
-2.8732
 20
6.3996
 30
0.0
 10
-2.8732
 20
6.3996
 30
0.0
  0
SPLINE
  5
64
330
1F
100
AcDbEntity
  8
ROUND
 62
   250
370
     9
100
AcDbSpline
210
0.0
220
0.0
230
1.0
 70
    11
 71
     3
 72
    32
 73
    28
 74
     0
 42
0.0000000001
 43
0.0000000001
 40
0.0
 40
0.0
 40
0.0
 40
0.0
 40
0.125
 40
0.125
 40
0.125
 40
0.125
 40
0.25
 40
0.25
 40
0.25
 40
0.25
 40
0.375
 40
0.375
 40
0.375
 40
0.375
 40
0.5
 40
0.5
 40
0.5
 40
0.5
 40
0.625
 40
0.625
 40
0.625
 40
0.625
 40
0.75
 40
0.75
 40
0.75
 40
0.75
 40
1.0
 40
1.0
 40
1.0
 40
1.0
 10
-21.3013
 20
1.9689
 30
0.0
 10
-21.3013
 20
1.9689
 30
0.0
 10
-21.3013
 20
1.9689
 30
0.0
 10
-21.3013
 20
1.9689
 30
0.0
 10
-21.3013
 20
1.9689
 30
0.0
 10
-21.3013
 20
1.9689
 30
0.0
 10
-21.3013
 20
1.9689
 30
0.0
 10
-21.3013
 20
1.9689
 30
0.0
 10
-21.3013
 20
1.9689
 30
0.0
 10
-21.3013
 20
1.9689
 30
0.0
 10
-20.0285
 20
2.4123
 30
0.0
 10
-20.0285
 20
2.4123
 30
0.0
 10
-20.0285
 20
2.4123
 30
0.0
 10
-20.0285
 20
2.4123
 30
0.0
 10
-21.3013
 20
2.8557
 30
0.0
 10
-21.3013
 20
2.8557
 30
0.0
 10
-21.3013
 20
2.8557
 30
0.0
 10
-21.3013
 20
2.8557
 30
0.0
 10
-21.3013
 20
2.8557
 30
0.0
 10
-21.3013
 20
2.8557
 30
0.0
 10
-21.3013
 20
2.8557
 30
0.0
 10
-21.3013
 20
2.8557
 30
0.0
 10
-21.3013
 20
2.8557
 30
0.0
 10
-21.3013
 20
2.8557
 30
0.0
 10
-21.3013
 20
2.8557
 30
0.0
 10
-21.3013
 20
2.8557
 30
0.0
 10
-21.3013
 20
1.9689
 30
0.0
 10
-21.3013
 20
1.9689
 30
0.0
  0
SPLINE
  5
65
330
1F
100
AcDbEntity
  8
ROUND
 62
   250
370
     9
100
AcDbSpline
210
0.0
220
0.0
230
1.0
 70
    11
 71
     3
 72
    32
 73
    28
 74
     0
 42
0.0000000001
 43
0.0000000001
 40
0.0
 40
0.0
 40
0.0
 40
0.0
 40
0.125
 40
0.125
 40
0.125
 40
0.125
 40
0.25
 40
0.25
 40
0.25
 40
0.25
 40
0.375
 40
0.375
 40
0.375
 40
0.375
 40
0.5
 40
0.5
 40
0.5
 40
0.5
 40
0.625
 40
0.625
 40
0.625
 40
0.625
 40
0.75
 40
0.75
 40
0.75
 40
0.75
 40
1.0
 40
1.0
 40
1.0
 40
1.0
 10
-21.0761
 20
6.4501
 30
0.0
 10
-21.0761
 20
6.4501
 30
0.0
 10
-21.0761
 20
6.4501
 30
0.0
 10
-21.0761
 20
6.4501
 30
0.0
 10
-21.0761
 20
6.4501
 30
0.0
 10
-21.0761
 20
6.4501
 30
0.0
 10
-21.0761
 20
6.4501
 30
0.0
 10
-21.0761
 20
6.4501
 30
0.0
 10
-21.0761
 20
6.4501
 30
0.0
 10
-21.0761
 20
6.4501
 30
0.0
 10
-22.3489
 20
6.8935
 30
0.0
 10
-22.3489
 20
6.8935
 30
0.0
 10
-22.3489
 20
6.8935
 30
0.0
 10
-22.3489
 20
6.8935
 30
0.0
 10
-21.0761
 20
7.3369
 30
0.0
 10
-21.0761
 20
7.3369
 30
0.0
 10
-21.0761
 20
7.3369
 30
0.0
 10
-21.0761
 20
7.3369
 30
0.0
 10
-21.0761
 20
7.3369
 30
0.0
 10
-21.0761
 20
7.3369
 30
0.0
 10
-21.0761
 20
7.3369
 30
0.0
 10
-21.0761
 20
7.3369
 30
0.0
 10
-21.0761
 20
7.3369
 30
0.0
 10
-21.0761
 20
7.3369
 30
0.0
 10
-21.0761
 20
7.3369
 30
0.0
 10
-21.0761
 20
7.3369
 30
0.0
 10
-21.0761
 20
6.4501
 30
0.0
 10
-21.0761
 20
6.4501
 30
0.0
  0
SPLINE
  5
66
330
1F
100
AcDbEntity
  8
ROUND
 62
   250
370
     9
100
AcDbSpline
210
0.0
220
0.0
230
1.0
 70
    11
 71
     3
 72
    32
 73
    28
 74
     0
 42
0.0000000001
 43
0.0000000001
 40
0.0
 40
0.0
 40
0.0
 40
0.0
 40
0.125
 40
0.125
 40
0.125
 40
0.125
 40
0.25
 40
0.25
 40
0.25
 40
0.25
 40
0.375
 40
0.375
 40
0.375
 40
0.375
 40
0.5
 40
0.5
 40
0.5
 40
0.5
 40
0.625
 40
0.625
 40
0.625
 40
0.625
 40
0.75
 40
0.75
 40
0.75
 40
0.75
 40
1.0
 40
1.0
 40
1.0
 40
1.0
 10
-17.0015
 20
2.0195
 30
0.0
 10
-17.0015
 20
2.0195
 30
0.0
 10
-17.0015
 20
2.0195
 30
0.0
 10
-17.0015
 20
2.0195
 30
0.0
 10
-17.0015
 20
2.0195
 30
0.0
 10
-17.0015
 20
2.0195
 30
0.0
 10
-17.0015
 20
2.0195
 30
0.0
 10
-17.0015
 20
2.0195
 30
0.0
 10
-17.0015
 20
2.0195
 30
0.0
 10
-17.0015
 20
2.0195
 30
0.0
 10
-18.2743
 20
2.4629
 30
0.0
 10
-18.2743
 20
2.4629
 30
0.0
 10
-18.2743
 20
2.4629
 30
0.0
 10
-18.2743
 20
2.4629
 30
0.0
 10
-17.0015
 20
2.9063
 30
0.0
 10
-17.0015
 20
2.9063
 30
0.0
 10
-17.0015
 20
2.9063
 30
0.0
 10
-17.0015
 20
2.9063
 30
0.0
 10
-17.0015
 20
2.9063
 30
0.0
 10
-17.0015
 20
2.9063
 30
0.0
 10
-17.0015
 20
2.9063
 30
0.0
 10
-17.0015
 20
2.9063
 30
0.0
 10
-17.0015
 20
2.9063
 30
0.0
 10
-17.0015
 20
2.9063
 30
0.0
 10
-17.0015
 20
2.9063
 30
0.0
 10
-17.0015
 20
2.9063
 30
0.0
 10
-17.0015
 20
2.0195
 30
0.0
 10
-17.0015
 20
2.0195
 30
0.0
  0
SPLINE
  5
67
330
1F
100
AcDbEntity
  8
ROUND
 62
   250
370
    15
100
AcDbSpline
210
0.0
220
0.0
230
1.0
 70
    24
 71
     3
 72
     8
 73
     4
 74
     0
 42
0.0000000001
 43
0.0000000001
 40
0.0
 40
0.0
 40
0.0
 40
0.0
 40
1.0
 40
1.0
 40
1.0
 40
1.0
 10
-23.0271
 20
-9.7072
 30
0.0
 10
-23.0271
 20
-9.7072
 30
0.0
 10
-24.683
 20
-9.7072
 30
0.0
 10
-24.683
 20
-9.7072
 30
0.0
  0
SPLINE
  5
68
330
1F
100
AcDbEntity
  8
ROUND
 62
   250
370
    15
100
AcDbSpline
210
0.0
220
0.0
230
1.0
 70
    24
 71
     3
 72
     8
 73
     4
 74
     0
 42
0.0000000001
 43
0.0000000001
 40
0.0
 40
0.0
 40
0.0
 40
0.0
 40
1.0
 40
1.0
 40
1.0
 40
1.0
 10
-24.0448
 20
1.1346
 30
0.0
 10
-24.0448
 20
1.1346
 30
0.0
 10
-24.0448
 20
-9.6633
 30
0.0
 10
-24.0448
 20
-9.6633
 30
0.0
  0
SPLINE
  5
69
330
1F
100
AcDbEntity
  8
ROUND
 62
   250
370
     9
100
AcDbSpline
210
0.0
220
0.0
230
1.0
 70
    11
 71
     3
 72
    32
 73
    28
 74
     0
 42
0.0000000001
 43
0.0000000001
 40
0.0
 40
0.0
 40
0.0
 40
0.0
 40
0.125
 40
0.125
 40
0.125
 40
0.125
 40
0.25
 40
0.25
 40
0.25
 40
0.25
 40
0.375
 40
0.375
 40
0.375
 40
0.375
 40
0.5
 40
0.5
 40
0.5
 40
0.5
 40
0.625
 40
0.625
 40
0.625
 40
0.625
 40
0.75
 40
0.75
 40
0.75
 40
0.75
 40
1.0
 40
1.0
 40
1.0
 40
1.0
 10
-23.603
 20
0.3508
 30
0.0
 10
-23.603
 20
0.3508
 30
0.0
 10
-23.603
 20
0.3508
 30
0.0
 10
-23.603
 20
0.3508
 30
0.0
 10
-23.603
 20
0.3508
 30
0.0
 10
-23.603
 20
0.3508
 30
0.0
 10
-23.603
 20
0.3508
 30
0.0
 10
-23.603
 20
0.3508
 30
0.0
 10
-23.603
 20
0.3508
 30
0.0
 10
-23.603
 20
0.3508
 30
0.0
 10
-24.0464
 20
1.6236
 30
0.0
 10
-24.0464
 20
1.6236
 30
0.0
 10
-24.0464
 20
1.6236
 30
0.0
 10
-24.0464
 20
1.6236
 30
0.0
 10
-24.4898
 20
0.3508
 30
0.0
 10
-24.4898
 20
0.3508
 30
0.0
 10
-24.4898
 20
0.3508
 30
0.0
 10
-24.4898
 20
0.3508
 30
0.0
 10
-24.4898
 20
0.3508
 30
0.0
 10
-24.4898
 20
0.3508
 30
0.0
 10
-24.4898
 20
0.3508
 30
0.0
 10
-24.4898
 20
0.3508
 30
0.0
 10
-24.4898
 20
0.3508
 30
0.0
 10
-24.4898
 20
0.3508
 30
0.0
 10
-24.4898
 20
0.3508
 30
0.0
 10
-24.4898
 20
0.3508
 30
0.0
 10
-23.603
 20
0.3508
 30
0.0
 10
-23.603
 20
0.3508
 30
0.0
  0
SPLINE
  5
6A
330
1F
100
AcDbEntity
  8
ROUND
 62
   250
370
     9
100
AcDbSpline
210
0.0
220
0.0
230
1.0
 70
    11
 71
     3
 72
    32
 73
    28
 74
     0
 42
0.0000000001
 43
0.0000000001
 40
0.0
 40
0.0
 40
0.0
 40
0.0
 40
0.125
 40
0.125
 40
0.125
 40
0.125
 40
0.25
 40
0.25
 40
0.25
 40
0.25
 40
0.375
 40
0.375
 40
0.375
 40
0.375
 40
0.5
 40
0.5
 40
0.5
 40
0.5
 40
0.625
 40
0.625
 40
0.625
 40
0.625
 40
0.75
 40
0.75
 40
0.75
 40
0.75
 40
1.0
 40
1.0
 40
1.0
 40
1.0
 10
-23.6062
 20
-8.3023
 30
0.0
 10
-23.6062
 20
-8.3023
 30
0.0
 10
-23.6062
 20
-8.3023
 30
0.0
 10
-23.6062
 20
-8.3023
 30
0.0
 10
-23.6062
 20
-8.3023
 30
0.0
 10
-23.6062
 20
-8.3023
 30
0.0
 10
-23.6062
 20
-8.3023
 30
0.0
 10
-23.6062
 20
-8.3023
 30
0.0
 10
-23.6062
 20
-8.3023
 30
0.0
 10
-23.6062
 20
-8.3023
 30
0.0
 10
-24.0496
 20
-9.5751
 30
0.0
 10
-24.0496
 20
-9.5751
 30
0.0
 10
-24.0496
 20
-9.5751
 30
0.0
 10
-24.0496
 20
-9.5751
 30
0.0
 10
-24.493
 20
-8.3023
 30
0.0
 10
-24.493
 20
-8.3023
 30
0.0
 10
-24.493
 20
-8.3023
 30
0.0
 10
-24.493
 20
-8.3023
 30
0.0
 10
-24.493
 20
-8.3023
 30
0.0
 10
-24.493
 20
-8.3023
 30
0.0
 10
-24.493
 20
-8.3023
 30
0.0
 10
-24.493
 20
-8.3023
 30
0.0
 10
-24.493
 20
-8.3023
 30
0.0
 10
-24.493
 20
-8.3023
 30
0.0
 10
-24.493
 20
-8.3023
 30
0.0
 10
-24.493
 20
-8.3023
 30
0.0
 10
-23.6062
 20
-8.3023
 30
0.0
 10
-23.6062
 20
-8.3023
 30
0.0
  0
SPLINE
  5
6B
330
1F
100
AcDbEntity
  8
ROUND
 62
   250
370
    15
100
AcDbSpline
210
0.0
220
0.0
230
1.0
 70
    24
 71
     3
 72
     8
 73
     4
 74
     0
 42
0.0000000001
 43
0.0000000001
 40
0.0
 40
0.0
 40
0.0
 40
0.0
 40
1.0
 40
1.0
 40
1.0
 40
1.0
 10
-24.458
 20
1.7769
 30
0.0
 10
-24.458
 20
1.7769
 30
0.0
 10
-22.3413
 20
1.7769
 30
0.0
 10
-22.3413
 20
1.7769
 30
0.0
  0
SPLINE
  5
6C
330
1F
100
AcDbEntity
  8
ROUND
 62
   250
100
AcDbSpline
210
0.0
220
0.0
230
1.0
 70
    11
 71
     3
 72
   196
 73
   192
 74
     0
 42
0.0000000001
 43
0.0000000001
 40
0.0
 40
0.0
 40
0.0
 40
0.0
 40
0.0204081632653061
 40
0.0204081632653061
 40
0.0204081632653061
 40
0.0204081632653061
 40
0.0408163265306122
 40
0.0408163265306122
 40
0.0408163265306122
 40
0.0408163265306122
 40
0.0612244897959184
 40
0.0612244897959184
 40
0.0612244897959184
 40
0.0612244897959184
 40
0.0816326530612245
 40
0.0816326530612245
 40
0.0816326530612245
 40
0.0816326530612245
 40
0.1020408163265306
 40
0.1020408163265306
 40
0.1020408163265306
 40
0.1020408163265306
 40
0.1224489795918367
 40
0.1224489795918367
 40
0.1224489795918367
 40
0.1224489795918367
 40
0.1428571428571428
 40
0.1428571428571428
 40
0.1428571428571428
 40
0.1428571428571428
 40
0.163265306122449
 40
0.163265306122449
 40
0.163265306122449
 40
0.163265306122449
 40
0.1836734693877551
 40
0.1836734693877551
 40
0.1836734693877551
 40
0.1836734693877551
 40
0.2040816326530612
 40
0.2040816326530612
 40
0.2040816326530612
 40
0.2040816326530612
 40
0.2244897959183673
 40
0.2244897959183673
 40
0.2244897959183673
 40
0.2244897959183673
 40
0.2448979591836735
 40
0.2448979591836735
 40
0.2448979591836735
 40
0.2448979591836735
 40
0.2653061224489796
 40
0.2653061224489796
 40
0.2653061224489796
 40
0.2653061224489796
 40
0.2857142857142857
 40
0.2857142857142857
 40
0.2857142857142857
 40
0.2857142857142857
 40
0.3061224489795918
 40
0.3061224489795918
 40
0.3061224489795918
 40
0.3061224489795918
 40
0.3265306122448979
 40
0.3265306122448979
 40
0.3265306122448979
 40
0.3265306122448979
 40
0.3469387755102041
 40
0.3469387755102041
 40
0.3469387755102041
 40
0.3469387755102041
 40
0.3673469387755102
 40
0.3673469387755102
 40
0.3673469387755102
 40
0.3673469387755102
 40
0.3877551020408163
 40
0.3877551020408163
 40
0.3877551020408163
 40
0.3877551020408163
 40
0.4081632653061225
 40
0.4081632653061225
 40
0.4081632653061225
 40
0.4081632653061225
 40
0.4285714285714285
 40
0.4285714285714285
 40
0.4285714285714285
 40
0.4285714285714285
 40
0.4489795918367347
 40
0.4489795918367347
 40
0.4489795918367347
 40
0.4489795918367347
 40
0.4693877551020408
 40
0.4693877551020408
 40
0.4693877551020408
 40
0.4693877551020408
 40
0.4897959183673469
 40
0.4897959183673469
 40
0.4897959183673469
 40
0.4897959183673469
 40
0.5102040816326531
 40
0.5102040816326531
 40
0.5102040816326531
 40
0.5102040816326531
 40
0.5306122448979592
 40
0.5306122448979592
 40
0.5306122448979592
 40
0.5306122448979592
 40
0.5510204081632653
 40
0.5510204081632653
 40
0.5510204081632653
 40
0.5510204081632653
 40
0.5714285714285714
 40
0.5714285714285714
 40
0.5714285714285714
 40
0.5714285714285714
 40
0.5918367346938775
 40
0.5918367346938775
 40
0.5918367346938775
 40
0.5918367346938775
 40
0.6122448979591837
 40
0.6122448979591837
 40
0.6122448979591837
 40
0.6122448979591837
 40
0.6326530612244898
 40
0.6326530612244898
 40
0.6326530612244898
 40
0.6326530612244898
 40
0.6530612244897959
 40
0.6530612244897959
 40
0.6530612244897959
 40
0.6530612244897959
 40
0.673469387755102
 40
0.673469387755102
 40
0.673469387755102
 40
0.673469387755102
 40
0.6938775510204082
 40
0.6938775510204082
 40
0.6938775510204082
 40
0.6938775510204082
 40
0.7142857142857143
 40
0.7142857142857143
 40
0.7142857142857143
 40
0.7142857142857143
 40
0.7346938775510204
 40
0.7346938775510204
 40
0.7346938775510204
 40
0.7346938775510204
 40
0.7551020408163265
 40
0.7551020408163265
 40
0.7551020408163265
 40
0.7551020408163265
 40
0.7755102040816326
 40
0.7755102040816326
 40
0.7755102040816326
 40
0.7755102040816326
 40
0.7959183673469388
 40
0.7959183673469388
 40
0.7959183673469388
 40
0.7959183673469388
 40
0.8163265306122449
 40
0.8163265306122449
 40
0.8163265306122449
 40
0.8163265306122449
 40
0.8367346938775511
 40
0.8367346938775511
 40
0.8367346938775511
 40
0.8367346938775511
 40
0.8571428571428571
 40
0.8571428571428571
 40
0.8571428571428571
 40
0.8571428571428571
 40
0.8775510204081632
 40
0.8775510204081632
 40
0.8775510204081632
 40
0.8775510204081632
 40
0.8979591836734694
 40
0.8979591836734694
 40
0.8979591836734694
 40
0.8979591836734694
 40
0.9183673469387755
 40
0.9183673469387755
 40
0.9183673469387755
 40
0.9183673469387755
 40
0.9387755102040817
 40
0.9387755102040817
 40
0.9387755102040817
 40
0.9387755102040817
 40
0.9591836734693877
 40
0.9591836734693877
 40
0.9591836734693877
 40
0.9591836734693877
 40
1.0
 40
1.0
 40
1.0
 40
1.0
 10
-24.8416
 20
-6.8096
 30
0.0
 10
-24.8138
 20
-6.776
 30
0.0
 10
-24.7873
 20
-6.7325
 30
0.0
 10
-24.7615
 20
-6.6797
 30
0.0
 10
-24.7615
 20
-6.6797
 30
0.0
 10
-24.7356
 20
-6.6269
 30
0.0
 10
-24.7142
 20
-6.5669
 30
0.0
 10
-24.6969
 20
-6.4997
 30
0.0
 10
-24.6969
 20
-6.4997
 30
0.0
 10
-24.68
 20
-6.4325
 30
0.0
 10
-24.6715
 20
-6.3611
 30
0.0
 10
-24.6709
 20
-6.285
 30
0.0
 10
-24.6709
 20
-6.285
 30
0.0
 10
-24.6715
 20
-6.1644
 30
0.0
 10
-24.6922
 20
-6.0584
 30
0.0
 10
-24.7324
 20
-5.9668
 30
0.0
 10
-24.7324
 20
-5.9668
 30
0.0
 10
-24.7724
 20
-5.8752
 30
0.0
 10
-24.8281
 20
-5.7987
 30
0.0
 10
-24.898
 20
-5.7366
 30
0.0
 10
-24.898
 20
-5.7366
 30
0.0
 10
-24.9677
 20
-5.6745
 30
0.0
 10
-25.0486
 20
-5.6279
 30
0.0
 10
-25.1391
 20
-5.5963
 30
0.0
 10
-25.1391
 20
-5.5963
 30
0.0
 10
-25.2297
 20
-5.5653
 30
0.0
 10
-25.326
 20
-5.5493
 30
0.0
 10
-25.4276
 20
-5.5493
 30
0.0
 10
-25.4276
 20
-5.5493
 30
0.0
 10
-25.5162
 20
-5.5503
 30
0.0
 10
-25.5964
 20
-5.5628
 30
0.0
 10
-25.6688
 20
-5.586
 30
0.0
 10
-25.6688
 20
-5.586
 30
0.0
 10
-25.7419
 20
-5.6093
 30
0.0
 10
-25.8053
 20
-5.6414
 30
0.0
 10
-25.8603
 20
-5.6822
 30
0.0
 10
-25.8603
 20
-5.6822
 30
0.0
 10
-25.9152
 20
-5.7231
 30
0.0
 10
-25.9605
 20
-5.7707
 30
0.0
 10
-25.996
 20
-5.8246
 30
0.0
 10
-25.996
 20
-5.8246
 30
0.0
 10
-26.0316
 20
-5.8789
 30
0.0
 10
-26.0569
 20
-5.9368
 30
0.0
 10
-26.0718
 20
-5.9994
 30
0.0
 10
-26.0718
 20
-5.9994
 30
0.0
 10
-26.0718
 20
-5.9994
 30
0.0
 10
-26.0795
 20
-5.9994
 30
0.0
 10
-26.0795
 20
-5.9994
 30
0.0
 10
-26.0795
 20
-5.9994
 30
0.0
 10
-26.1176
 20
-5.9177
 30
0.0
 10
-26.1661
 20
-5.8488
 30
0.0
 10
-26.2257
 20
-5.794
 30
0.0
 10
-26.2257
 20
-5.794
 30
0.0
 10
-26.2851
 20
-5.7386
 30
0.0
 10
-26.3537
 20
-5.6968
 30
0.0
 10
-26.43
 20
-5.6688
 30
0.0
 10
-26.43
 20
-5.6688
 30
0.0
 10
-26.5063
 20
-5.6408
 30
0.0
 10
-26.5885
 20
-5.6269
 30
0.0
 10
-26.677
 20
-5.6269
 30
0.0
 10
-26.677
 20
-5.6269
 30
0.0
 10
-26.7546
 20
-5.6269
 30
0.0
 10
-26.8291
 20
-5.6383
 30
0.0
 10
-26.9001
 20
-5.661
 30
0.0
 10
-26.9001
 20
-5.661
 30
0.0
 10
-26.9719
 20
-5.6843
 30
0.0
 10
-27.036
 20
-5.7195
 30
0.0
 10
-27.093
 20
-5.7665
 30
0.0
 10
-27.093
 20
-5.7665
 30
0.0
 10
-27.1499
 20
-5.8136
 30
0.0
 10
-27.1945
 20
-5.8736
 30
0.0
 10
-27.2275
 20
-5.9467
 30
0.0
 10
-27.2275
 20
-5.9467
 30
0.0
 10
-27.261
 20
-6.019
 30
0.0
 10
-27.2779
 20
-6.1049
 30
0.0
 10
-27.2785
 20
-6.2043
 30
0.0
 10
-27.2785
 20
-6.2043
 30
0.0
 10
-27.2779
 20
-6.2772
 30
0.0
 10
-27.2682
 20
-6.3471
 30
0.0
 10
-27.2501
 20
-6.4143
 30
0.0
 10
-27.2501
 20
-6.4143
 30
0.0
 10
-27.2313
 20
-6.4815
 30
0.0
 10
-27.2074
 20
-6.5426
 30
0.0
 10
-27.1783
 20
-6.5975
 30
0.0
 10
-27.1783
 20
-6.5975
 30
0.0
 10
-27.1486
 20
-6.6523
 30
0.0
 10
-27.1176
 20
-6.6984
 30
0.0
 10
-27.0845
 20
-6.7351
 30
0.0
 10
-27.0845
 20
-6.7351
 30
0.0
 10
-27.0845
 20
-6.7351
 30
0.0
 10
-26.8362
 20
-6.6606
 30
0.0
 10
-26.8362
 20
-6.6606
 30
0.0
 10
-26.8362
 20
-6.6606
 30
0.0
 10
-26.8627
 20
-6.6311
 30
0.0
 10
-26.8886
 20
-6.5954
 30
0.0
 10
-26.9138
 20
-6.553
 30
0.0
 10
-26.9138
 20
-6.553
 30
0.0
 10
-26.9396
 20
-6.5111
 30
0.0
 10
-26.9603
 20
-6.4645
 30
0.0
 10
-26.9772
 20
-6.4139
 30
0.0
 10
-26.9772
 20
-6.4139
 30
0.0
 10
-26.9939
 20
-6.3636
 30
0.0
 10
-27.0024
 20
-6.3113
 30
0.0
 10
-27.0031
 20
-6.257
 30
0.0
 10
-27.0031
 20
-6.257
 30
0.0
 10
-27.0024
 20
-6.1733
 30
0.0
 10
-26.9843
 20
-6.1055
 30
0.0
 10
-26.9494
 20
-6.0537
 30
0.0
 10
-26.9494
 20
-6.0537
 30
0.0
 10
-26.9144
 20
-6.0014
 30
0.0
 10
-26.8685
 20
-5.9632
 30
0.0
 10
-26.811
 20
-5.9389
 30
0.0
 10
-26.811
 20
-5.9389
 30
0.0
 10
-26.7541
 20
-5.9145
 30
0.0
 10
-26.6913
 20
-5.9026
 30
0.0
 10
-26.6227
 20
-5.9032
 30
0.0
 10
-26.6227
 20
-5.9032
 30
0.0
 10
-26.5484
 20
-5.9037
 30
0.0
 10
-26.4838
 20
-5.9181
 30
0.0
 10
-26.43
 20
-5.9456
 30
0.0
 10
-26.43
 20
-5.9456
 30
0.0
 10
-26.3763
 20
-5.973
 30
0.0
 10
-26.3317
 20
-6.0092
 30
0.0
 10
-26.2975
 20
-6.0537
 30
0.0
 10
-26.2975
 20
-6.0537
 30
0.0
 10
-26.2626
 20
-6.0982
 30
0.0
 10
-26.2374
 20
-6.1468
 30
0.0
 10
-26.2205
 20
-6.1991
 30
0.0
 10
-26.2205
 20
-6.1991
 30
0.0
 10
-26.2043
 20
-6.2513
 30
0.0
 10
-26.1959
 20
-6.3026
 30
0.0
 10
-26.1959
 20
-6.3533
 30
0.0
 10
-26.1959
 20
-6.3533
 30
0.0
 10
-26.1959
 20
-6.3533
 30
0.0
 10
-26.1959
 20
-6.5054
 30
0.0
 10
-26.1959
 20
-6.5054
 30
0.0
 10
-26.1959
 20
-6.5054
 30
0.0
 10
-26.1959
 20
-6.5054
 30
0.0
 10
-25.9398
 20
-6.5054
 30
0.0
 10
-25.9398
 20
-6.5054
 30
0.0
 10
-25.9398
 20
-6.5054
 30
0.0
 10
-25.9398
 20
-6.5054
 30
0.0
 10
-25.9398
 20
-6.3533
 30
0.0
 10
-25.9398
 20
-6.3533
 30
0.0
 10
-25.9398
 20
-6.3533
 30
0.0
 10
-25.9398
 20
-6.2865
 30
0.0
 10
-25.9301
 20
-6.2224
 30
0.0
 10
-25.9107
 20
-6.1608
 30
0.0
 10
-25.9107
 20
-6.1608
 30
0.0
 10
-25.8913
 20
-6.0993
 30
0.0
 10
-25.8609
 20
-6.0438
 30
0.0
 10
-25.8201
 20
-5.9948
 30
0.0
 10
-25.8201
 20
-5.9948
 30
0.0
 10
-25.7793
 20
-5.9456
 30
0.0
 10
-25.7271
 20
-5.9062
 30
0.0
 10
-25.663
 20
-5.8773
 30
0.0
 10
-25.663
 20
-5.8773
 30
0.0
 10
-25.5996
 20
-5.8483
 30
0.0
 10
-25.5233
 20
-5.8333
 30
0.0
 10
-25.4354
 20
-5.8318
 30
0.0
 10
-25.4354
 20
-5.8318
 30
0.0
 10
-25.381
 20
-5.8307
 30
0.0
 10
-25.3254
 20
-5.8375
 30
0.0
 10
-25.2692
 20
-5.853
 30
0.0
 10
-25.2692
 20
-5.853
 30
0.0
 10
-25.2122
 20
-5.868
 30
0.0
 10
-25.1592
 20
-5.8933
 30
0.0
 10
-25.1107
 20
-5.9285
 30
0.0
 10
-25.1107
 20
-5.9285
 30
0.0
 10
-25.0622
 20
-5.9637
 30
0.0
 10
-25.0228
 20
-6.0107
 30
0.0
 10
-24.9929
 20
-6.0698
 30
0.0
 10
-24.9929
 20
-6.0698
 30
0.0
 10
-24.9626
 20
-6.1288
 30
0.0
 10
-24.947
 20
-6.2011
 30
0.0
 10
-24.9465
 20
-6.2881
 30
0.0
 10
-24.9465
 20
-6.2881
 30
0.0
 10
-24.947
 20
-6.3528
 30
0.0
 10
-24.9561
 20
-6.4143
 30
0.0
 10
-24.9736
 20
-6.4722
 30
0.0
 10
-24.9736
 20
-6.4722
 30
0.0
 10
-24.991
 20
-6.5302
 30
0.0
 10
-25.0117
 20
-6.582
 30
0.0
 10
-25.0357
 20
-6.6275
 30
0.0
 10
-25.0357
 20
-6.6275
 30
0.0
 10
-25.0596
 20
-6.6731
 30
0.0
 10
-25.0816
 20
-6.7087
 30
0.0
 10
-25.1016
 20
-6.7351
 30
0.0
 10
-25.1016
 20
-6.7351
 30
0.0
 10
-25.1016
 20
-6.7351
 30
0.0
 10
-24.8416
 20
-6.8096
 30
0.0
 10
-24.8416
 20
-6.8096
 30
0.0
  0
SPLINE
  5
6D
330
1F
100
AcDbEntity
  8
ROUND
 62
   250
100
AcDbSpline
210
0.0
220
0.0
230
1.0
 70
    11
 71
     3
 72
   124
 73
   120
 74
     0
 42
0.0000000001
 43
0.0000000001
 40
0.0
 40
0.0
 40
0.0
 40
0.0
 40
0.032258064516129
 40
0.032258064516129
 40
0.032258064516129
 40
0.032258064516129
 40
0.0645161290322581
 40
0.0645161290322581
 40
0.0645161290322581
 40
0.0645161290322581
 40
0.0967741935483871
 40
0.0967741935483871
 40
0.0967741935483871
 40
0.0967741935483871
 40
0.1290322580645161
 40
0.1290322580645161
 40
0.1290322580645161
 40
0.1290322580645161
 40
0.1612903225806452
 40
0.1612903225806452
 40
0.1612903225806452
 40
0.1612903225806452
 40
0.1935483870967742
 40
0.1935483870967742
 40
0.1935483870967742
 40
0.1935483870967742
 40
0.2258064516129032
 40
0.2258064516129032
 40
0.2258064516129032
 40
0.2258064516129032
 40
0.2580645161290323
 40
0.2580645161290323
 40
0.2580645161290323
 40
0.2580645161290323
 40
0.2903225806451613
 40
0.2903225806451613
 40
0.2903225806451613
 40
0.2903225806451613
 40
0.3225806451612903
 40
0.3225806451612903
 40
0.3225806451612903
 40
0.3225806451612903
 40
0.3548387096774194
 40
0.3548387096774194
 40
0.3548387096774194
 40
0.3548387096774194
 40
0.3870967741935484
 40
0.3870967741935484
 40
0.3870967741935484
 40
0.3870967741935484
 40
0.4193548387096774
 40
0.4193548387096774
 40
0.4193548387096774
 40
0.4193548387096774
 40
0.4516129032258064
 40
0.4516129032258064
 40
0.4516129032258064
 40
0.4516129032258064
 40
0.4838709677419355
 40
0.4838709677419355
 40
0.4838709677419355
 40
0.4838709677419355
 40
0.5161290322580645
 40
0.5161290322580645
 40
0.5161290322580645
 40
0.5161290322580645
 40
0.5483870967741935
 40
0.5483870967741935
 40
0.5483870967741935
 40
0.5483870967741935
 40
0.5806451612903226
 40
0.5806451612903226
 40
0.5806451612903226
 40
0.5806451612903226
 40
0.6129032258064516
 40
0.6129032258064516
 40
0.6129032258064516
 40
0.6129032258064516
 40
0.6451612903225806
 40
0.6451612903225806
 40
0.6451612903225806
 40
0.6451612903225806
 40
0.6774193548387096
 40
0.6774193548387096
 40
0.6774193548387096
 40
0.6774193548387096
 40
0.7096774193548387
 40
0.7096774193548387
 40
0.7096774193548387
 40
0.7096774193548387
 40
0.7419354838709677
 40
0.7419354838709677
 40
0.7419354838709677
 40
0.7419354838709677
 40
0.7741935483870968
 40
0.7741935483870968
 40
0.7741935483870968
 40
0.7741935483870968
 40
0.8064516129032258
 40
0.8064516129032258
 40
0.8064516129032258
 40
0.8064516129032258
 40
0.8387096774193549
 40
0.8387096774193549
 40
0.8387096774193549
 40
0.8387096774193549
 40
0.8709677419354839
 40
0.8709677419354839
 40
0.8709677419354839
 40
0.8709677419354839
 40
0.9032258064516129
 40
0.9032258064516129
 40
0.9032258064516129
 40
0.9032258064516129
 40
0.9354838709677419
 40
0.9354838709677419
 40
0.9354838709677419
 40
0.9354838709677419
 40
1.0
 40
1.0
 40
1.0
 40
1.0
 10
-27.2747
 20
-4.0561
 30
0.0
 10
-27.2747
 20
-4.0809
 30
0.0
 10
-27.2734
 20
-4.1104
 30
0.0
 10
-27.2708
 20
-4.1435
 30
0.0
 10
-27.2708
 20
-4.1435
 30
0.0
 10
-27.2682
 20
-4.1772
 30
0.0
 10
-27.2631
 20
-4.2144
 30
0.0
 10
-27.2552
 20
-4.2548
 30
0.0
 10
-27.2552
 20
-4.2548
 30
0.0
 10
-27.2358
 20
-4.3826
 30
0.0
 10
-27.1945
 20
-4.5011
 30
0.0
 10
-27.1317
 20
-4.6102
 30
0.0
 10
-27.1317
 20
-4.6102
 30
0.0
 10
-27.0691
 20
-4.7194
 30
0.0
 10
-26.9862
 20
-4.8161
 30
0.0
 10
-26.8828
 20
-4.9004
 30
0.0
 10
-26.8828
 20
-4.9004
 30
0.0
 10
-26.7999
 20
-4.9682
 30
0.0
 10
-26.7016
 20
-5.0278
 30
0.0
 10
-26.5879
 20
-5.0785
 30
0.0
 10
-26.5879
 20
-5.0785
 30
0.0
 10
-26.4746
 20
-5.1296
 30
0.0
 10
-26.3473
 20
-5.1695
 30
0.0
 10
-26.2062
 20
-5.1985
 30
0.0
 10
-26.2062
 20
-5.1985
 30
0.0
 10
-26.0652
 20
-5.2269
 30
0.0
 10
-25.9113
 20
-5.2415
 30
0.0
 10
-25.7458
 20
-5.2419
 30
0.0
 10
-25.7458
 20
-5.2419
 30
0.0
 10
-25.5816
 20
-5.2415
 30
0.0
 10
-25.4335
 20
-5.2243
 30
0.0
 10
-25.3015
 20
-5.1912
 30
0.0
 10
-25.3015
 20
-5.1912
 30
0.0
 10
-25.1688
 20
-5.1576
 30
0.0
 10
-25.0564
 20
-5.1094
 30
0.0
 10
-24.9626
 20
-5.0469
 30
0.0
 10
-24.9626
 20
-5.0469
 30
0.0
 10
-24.8688
 20
-4.9848
 30
0.0
 10
-24.7963
 20
-4.9098
 30
0.0
 10
-24.7465
 20
-4.8228
 30
0.0
 10
-24.7465
 20
-4.8228
 30
0.0
 10
-24.6969
 20
-4.7359
 30
0.0
 10
-24.6715
 20
-4.6386
 30
0.0
 10
-24.6709
 20
-4.531
 30
0.0
 10
-24.6709
 20
-4.531
 30
0.0
 10
-24.6722
 20
-4.4254
 30
0.0
 10
-24.6969
 20
-4.3308
 30
0.0
 10
-24.7446
 20
-4.2475
 30
0.0
 10
-24.7446
 20
-4.2475
 30
0.0
 10
-24.7931
 20
-4.1647
 30
0.0
 10
-24.8591
 20
-4.0939
 30
0.0
 10
-24.9425
 20
-4.0358
 30
0.0
 10
-24.9425
 20
-4.0358
 30
0.0
 10
-25.026
 20
-3.9779
 30
0.0
 10
-25.1211
 20
-3.9334
 30
0.0
 10
-25.2277
 20
-3.9035
 30
0.0
 10
-25.2277
 20
-3.9035
 30
0.0
 10
-25.3339
 20
-3.873
 30
0.0
 10
-25.4457
 20
-3.8574
 30
0.0
 10
-25.5634
 20
-3.8574
 30
0.0
 10
-25.5634
 20
-3.8574
 30
0.0
 10
-25.6863
 20
-3.8579
 30
0.0
 10
-25.7975
 20
-3.873
 30
0.0
 10
-25.8972
 20
-3.9024
 30
0.0
 10
-25.8972
 20
-3.9024
 30
0.0
 10
-25.9968
 20
-3.9319
 30
0.0
 10
-26.0827
 20
-3.9739
 30
0.0
 10
-26.1545
 20
-4.0276
 30
0.0
 10
-26.1545
 20
-4.0276
 30
0.0
 10
-26.2257
 20
-4.082
 30
0.0
 10
-26.2813
 20
-4.1461
 30
0.0
 10
-26.3195
 20
-4.22
 30
0.0
 10
-26.3195
 20
-4.22
 30
0.0
 10
-26.3582
 20
-4.294
 30
0.0
 10
-26.3776
 20
-4.3764
 30
0.0
 10
-26.3783
 20
-4.4659
 30
0.0
 10
-26.3783
 20
-4.4659
 30
0.0
 10
-26.3776
 20
-4.5403
 30
0.0
 10
-26.3641
 20
-4.6086
 30
0.0
 10
-26.3381
 20
-4.6707
 30
0.0
 10
-26.3381
 20
-4.6707
 30
0.0
 10
-26.3116
 20
-4.7328
 30
0.0
 10
-26.2767
 20
-4.7881
 30
0.0
 10
-26.2321
 20
-4.8362
 30
0.0
 10
-26.2321
 20
-4.8362
 30
0.0
 10
-26.1881
 20
-4.8839
 30
0.0
 10
-26.1383
 20
-4.9242
 30
0.0
 10
-26.0834
 20
-4.9564
 30
0.0
 10
-26.0834
 20
-4.9564
 30
0.0
 10
-26.0834
 20
-4.9564
 30
0.0
 10
-26.0834
 20
-4.9625
 30
0.0
 10
-26.0834
 20
-4.9625
 30
0.0
 10
-26.0834
 20
-4.9625
 30
0.0
 10
-26.1889
 20
-4.9511
 30
0.0
 10
-26.2904
 20
-4.9284
 30
0.0
 10
-26.3879
 20
-4.8937
 30
0.0
 10
-26.3879
 20
-4.8937
 30
0.0
 10
-26.4849
 20
-4.8595
 30
0.0
 10
-26.5742
 20
-4.8141
 30
0.0
 10
-26.655
 20
-4.7561
 30
0.0
 10
-26.655
 20
-4.7561
 30
0.0
 10
-26.7353
 20
-4.6982
 30
0.0
 10
-26.8039
 20
-4.6283
 30
0.0
 10
-26.8595
 20
-4.546
 30
0.0
 10
-26.8595
 20
-4.546
 30
0.0
 10
-26.9151
 20
-4.4638
 30
0.0
 10
-26.9539
 20
-4.3686
 30
0.0
 10
-26.9759
 20
-4.2609
 30
0.0
 10
-26.9759
 20
-4.2609
 30
0.0
 10
-26.9836
 20
-4.2221
 30
0.0
 10
-26.9894
 20
-4.1849
 30
0.0
 10
-26.9926
 20
-4.1503
 30
0.0
 10
-26.9926
 20
-4.1503
 30
0.0
 10
-26.9965
 20
-4.1155
 30
0.0
 10
-26.9973
 20
-4.084
 30
0.0
 10
-26.9952
 20
-4.0561
 30
0.0
 10
-26.9952
 20
-4.0561
 30
0.0
 10
-26.9952
 20
-4.0561
 30
0.0
 10
-27.2747
 20
-4.0561
 30
0.0
 10
-27.2747
 20
-4.0561
 30
0.0
  0
SPLINE
  5
6E
330
1F
100
AcDbEntity
  8
ROUND
 62
   250
100
AcDbSpline
210
0.0
220
0.0
230
1.0
 70
    11
 71
     3
 72
    64
 73
    60
 74
     0
 42
0.0000000001
 43
0.0000000001
 40
0.0
 40
0.0
 40
0.0
 40
0.0
 40
0.0625
 40
0.0625
 40
0.0625
 40
0.0625
 40
0.125
 40
0.125
 40
0.125
 40
0.125
 40
0.1875
 40
0.1875
 40
0.1875
 40
0.1875
 40
0.25
 40
0.25
 40
0.25
 40
0.25
 40
0.3125
 40
0.3125
 40
0.3125
 40
0.3125
 40
0.375
 40
0.375
 40
0.375
 40
0.375
 40
0.4375
 40
0.4375
 40
0.4375
 40
0.4375
 40
0.5
 40
0.5
 40
0.5
 40
0.5
 40
0.5625
 40
0.5625
 40
0.5625
 40
0.5625
 40
0.625
 40
0.625
 40
0.625
 40
0.625
 40
0.6875
 40
0.6875
 40
0.6875
 40
0.6875
 40
0.75
 40
0.75
 40
0.75
 40
0.75
 40
0.8125
 40
0.8125
 40
0.8125
 40
0.8125
 40
0.875
 40
0.875
 40
0.875
 40
0.875
 40
1.0
 40
1.0
 40
1.0
 40
1.0
 10
-24.9348
 20
-4.5248
 30
0.0
 10
-24.9354
 20
-4.5973
 30
0.0
 10
-24.9536
 20
-4.6609
 30
0.0
 10
-24.9897
 20
-4.7162
 30
0.0
 10
-24.9897
 20
-4.7162
 30
0.0
 10
-25.026
 20
-4.7711
 30
0.0
 10
-25.0764
 20
-4.8177
 30
0.0
 10
-25.1418
 20
-4.8555
 30
0.0
 10
-25.1418
 20
-4.8555
 30
0.0
 10
-25.207
 20
-4.8932
 30
0.0
 10
-25.284
 20
-4.9216
 30
0.0
 10
-25.372
 20
-4.9413
 30
0.0
 10
-25.372
 20
-4.9413
 30
0.0
 10
-25.46
 20
-4.961
 30
0.0
 10
-25.5562
 20
-4.9708
 30
0.0
 10
-25.6604
 20
-4.9719
 30
0.0
 10
-25.6604
 20
-4.9719
 30
0.0
 10
-25.6915
 20
-4.9719
 30
0.0
 10
-25.7186
 20
-4.9687
 30
0.0
 10
-25.7432
 20
-4.9636
 30
0.0
 10
-25.7432
 20
-4.9636
 30
0.0
 10
-25.7671
 20
-4.9583
 30
0.0
 10
-25.7885
 20
-4.9517
 30
0.0
 10
-25.8079
 20
-4.9439
 30
0.0
 10
-25.8079
 20
-4.9439
 30
0.0
 10
-25.8707
 20
-4.9186
 30
0.0
 10
-25.925
 20
-4.886
 30
0.0
 10
-25.9714
 20
-4.8451
 30
0.0
 10
-25.9714
 20
-4.8451
 30
0.0
 10
-26.0175
 20
-4.8048
 30
0.0
 10
-26.0536
 20
-4.7592
 30
0.0
 10
-26.0795
 20
-4.7086
 30
0.0
 10
-26.0795
 20
-4.7086
 30
0.0
 10
-26.1047
 20
-4.6578
 30
0.0
 10
-26.1182
 20
-4.605
 30
0.0
 10
-26.1182
 20
-4.5496
 30
0.0
 10
-26.1182
 20
-4.5496
 30
0.0
 10
-26.1176
 20
-4.4653
 30
0.0
 10
-26.0943
 20
-4.3924
 30
0.0
 10
-26.0485
 20
-4.3298
 30
0.0
 10
-26.0485
 20
-4.3298
 30
0.0
 10
-26.0026
 20
-4.2677
 30
0.0
 10
-25.9366
 20
-4.2196
 30
0.0
 10
-25.8506
 20
-4.1854
 30
0.0
 10
-25.8506
 20
-4.1854
 30
0.0
 10
-25.7645
 20
-4.1513
 30
0.0
 10
-25.6611
 20
-4.1342
 30
0.0
 10
-25.5401
 20
-4.1337
 30
0.0
 10
-25.5401
 20
-4.1337
 30
0.0
 10
-25.4192
 20
-4.1342
 30
0.0
 10
-25.3132
 20
-4.1507
 30
0.0
 10
-25.2226
 20
-4.1833
 30
0.0
 10
-25.2226
 20
-4.1833
 30
0.0
 10
-25.132
 20
-4.216
 30
0.0
 10
-25.0622
 20
-4.2615
 30
0.0
 10
-25.0117
 20
-4.32
 30
0.0
 10
-25.0117
 20
-4.32
 30
0.0
 10
-24.9613
 20
-4.3784
 30
0.0
 10
-24.9354
 20
-4.4468
 30
0.0
 10
-24.9348
 20
-4.5248
 30
0.0
  0
SPLINE
  5
6F
330
1F
100
AcDbEntity
  8
ROUND
 62
   250
100
AcDbSpline
210
0.0
220
0.0
230
1.0
 70
    11
 71
     3
 72
    44
 73
    40
 74
     0
 42
0.0000000001
 43
0.0000000001
 40
0.0
 40
0.0
 40
0.0
 40
0.0
 40
0.0909090909090909
 40
0.0909090909090909
 40
0.0909090909090909
 40
0.0909090909090909
 40
0.1818181818181818
 40
0.1818181818181818
 40
0.1818181818181818
 40
0.1818181818181818
 40
0.2727272727272727
 40
0.2727272727272727
 40
0.2727272727272727
 40
0.2727272727272727
 40
0.3636363636363636
 40
0.3636363636363636
 40
0.3636363636363636
 40
0.3636363636363636
 40
0.4545454545454545
 40
0.4545454545454545
 40
0.4545454545454545
 40
0.4545454545454545
 40
0.5454545454545454
 40
0.5454545454545454
 40
0.5454545454545454
 40
0.5454545454545454
 40
0.6363636363636364
 40
0.6363636363636364
 40
0.6363636363636364
 40
0.6363636363636364
 40
0.7272727272727273
 40
0.7272727272727273
 40
0.7272727272727273
 40
0.7272727272727273
 40
0.8181818181818182
 40
0.8181818181818182
 40
0.8181818181818182
 40
0.8181818181818182
 40
1.0
 40
1.0
 40
1.0
 40
1.0
 10
-24.2597
 20
-3.5128
 30
0.0
 10
-24.3061
 20
-3.4906
 30
0.0
 10
-24.3657
 20
-3.4667
 30
0.0
 10
-24.4375
 20
-3.4399
 30
0.0
 10
-24.4375
 20
-3.4399
 30
0.0
 10
-24.5099
 20
-3.4135
 30
0.0
 10
-24.5888
 20
-3.3866
 30
0.0
 10
-24.676
 20
-3.3592
 30
0.0
 10
-24.676
 20
-3.3592
 30
0.0
 10
-24.7628
 20
-3.3317
 30
0.0
 10
-24.8514
 20
-3.3053
 30
0.0
 10
-24.942
 20
-3.2805
 30
0.0
 10
-24.942
 20
-3.2805
 30
0.0
 10
-25.0324
 20
-3.2557
 30
0.0
 10
-25.119
 20
-3.2339
 30
0.0
 10
-25.2025
 20
-3.2148
 30
0.0
 10
-25.2025
 20
-3.2148
 30
0.0
 10
-25.2025
 20
-3.2148
 30
0.0
 10
-25.1638
 20
-3.519
 30
0.0
 10
-25.1638
 20
-3.519
 30
0.0
 10
-25.1638
 20
-3.519
 30
0.0
 10
-25.092
 20
-3.5278
 30
0.0
 10
-25.0149
 20
-3.5392
 30
0.0
 10
-24.9316
 20
-3.5527
 30
0.0
 10
-24.9316
 20
-3.5527
 30
0.0
 10
-24.8482
 20
-3.5667
 30
0.0
 10
-24.764
 20
-3.5822
 30
0.0
 10
-24.6794
 20
-3.5992
 30
0.0
 10
-24.6794
 20
-3.5992
 30
0.0
 10
-24.5939
 20
-3.6163
 30
0.0
 10
-24.5131
 20
-3.6339
 30
0.0
 10
-24.4362
 20
-3.652
 30
0.0
 10
-24.4362
 20
-3.652
 30
0.0
 10
-24.3591
 20
-3.6701
 30
0.0
 10
-24.2913
 20
-3.6882
 30
0.0
 10
-24.2324
 20
-3.7053
 30
0.0
 10
-24.2324
 20
-3.7053
 30
0.0
 10
-24.2324
 20
-3.7053
 30
0.0
 10
-24.2597
 20
-3.5128
 30
0.0
 10
-24.2597
 20
-3.5128
 30
0.0
  0
SPLINE
  5
70
330
1F
100
AcDbEntity
  8
ROUND
 62
   250
100
AcDbSpline
210
0.0
220
0.0
230
1.0
 70
    11
 71
     3
 72
   132
 73
   128
 74
     0
 42
0.0000000001
 43
0.0000000001
 40
0.0
 40
0.0
 40
0.0
 40
0.0
 40
0.0303030303030303
 40
0.0303030303030303
 40
0.0303030303030303
 40
0.0303030303030303
 40
0.0606060606060606
 40
0.0606060606060606
 40
0.0606060606060606
 40
0.0606060606060606
 40
0.0909090909090909
 40
0.0909090909090909
 40
0.0909090909090909
 40
0.0909090909090909
 40
0.1212121212121212
 40
0.1212121212121212
 40
0.1212121212121212
 40
0.1212121212121212
 40
0.1515151515151515
 40
0.1515151515151515
 40
0.1515151515151515
 40
0.1515151515151515
 40
0.1818181818181818
 40
0.1818181818181818
 40
0.1818181818181818
 40
0.1818181818181818
 40
0.2121212121212121
 40
0.2121212121212121
 40
0.2121212121212121
 40
0.2121212121212121
 40
0.2424242424242424
 40
0.2424242424242424
 40
0.2424242424242424
 40
0.2424242424242424
 40
0.2727272727272727
 40
0.2727272727272727
 40
0.2727272727272727
 40
0.2727272727272727
 40
0.303030303030303
 40
0.303030303030303
 40
0.303030303030303
 40
0.303030303030303
 40
0.3333333333333333
 40
0.3333333333333333
 40
0.3333333333333333
 40
0.3333333333333333
 40
0.3636363636363636
 40
0.3636363636363636
 40
0.3636363636363636
 40
0.3636363636363636
 40
0.3939393939393939
 40
0.3939393939393939
 40
0.3939393939393939
 40
0.3939393939393939
 40
0.4242424242424243
 40
0.4242424242424243
 40
0.4242424242424243
 40
0.4242424242424243
 40
0.4545454545454545
 40
0.4545454545454545
 40
0.4545454545454545
 40
0.4545454545454545
 40
0.4848484848484849
 40
0.4848484848484849
 40
0.4848484848484849
 40
0.4848484848484849
 40
0.5151515151515151
 40
0.5151515151515151
 40
0.5151515151515151
 40
0.5151515151515151
 40
0.5454545454545454
 40
0.5454545454545454
 40
0.5454545454545454
 40
0.5454545454545454
 40
0.5757575757575758
 40
0.5757575757575758
 40
0.5757575757575758
 40
0.5757575757575758
 40
0.6060606060606061
 40
0.6060606060606061
 40
0.6060606060606061
 40
0.6060606060606061
 40
0.6363636363636364
 40
0.6363636363636364
 40
0.6363636363636364
 40
0.6363636363636364
 40
0.6666666666666666
 40
0.6666666666666666
 40
0.6666666666666666
 40
0.6666666666666666
 40
0.696969696969697
 40
0.696969696969697
 40
0.696969696969697
 40
0.696969696969697
 40
0.7272727272727273
 40
0.7272727272727273
 40
0.7272727272727273
 40
0.7272727272727273
 40
0.7575757575757576
 40
0.7575757575757576
 40
0.7575757575757576
 40
0.7575757575757576
 40
0.7878787878787878
 40
0.7878787878787878
 40
0.7878787878787878
 40
0.7878787878787878
 40
0.8181818181818182
 40
0.8181818181818182
 40
0.8181818181818182
 40
0.8181818181818182
 40
0.8484848484848485
 40
0.8484848484848485
 40
0.8484848484848485
 40
0.8484848484848485
 40
0.8787878787878788
 40
0.8787878787878788
 40
0.8787878787878788
 40
0.8787878787878788
 40
0.9090909090909091
 40
0.9090909090909091
 40
0.9090909090909091
 40
0.9090909090909091
 40
0.9393939393939394
 40
0.9393939393939394
 40
0.9393939393939394
 40
0.9393939393939394
 40
1.0
 40
1.0
 40
1.0
 40
1.0
 10
-27.2358
 20
-1.7682
 30
0.0
 10
-27.2358
 20
-1.7682
 30
0.0
 10
-27.2358
 20
-2.7335
 30
0.0
 10
-27.2358
 20
-2.7335
 30
0.0
 10
-27.2358
 20
-2.7335
 30
0.0
 10
-27.2358
 20
-2.7335
 30
0.0
 10
-26.0252
 20
-2.8639
 30
0.0
 10
-26.0252
 20
-2.8639
 30
0.0
 10
-26.0252
 20
-2.8639
 30
0.0
 10
-26.0316
 20
-2.8267
 30
0.0
 10
-26.0368
 20
-2.7853
 30
0.0
 10
-26.0413
 20
-2.7388
 30
0.0
 10
-26.0413
 20
-2.7388
 30
0.0
 10
-26.0459
 20
-2.6926
 30
0.0
 10
-26.0485
 20
-2.64
 30
0.0
 10
-26.0485
 20
-2.5815
 30
0.0
 10
-26.0485
 20
-2.5815
 30
0.0
 10
-26.0477
 20
-2.448
 30
0.0
 10
-26.0239
 20
-2.3388
 30
0.0
 10
-25.9773
 20
-2.254
 30
0.0
 10
-25.9773
 20
-2.254
 30
0.0
 10
-25.9301
 20
-2.1686
 30
0.0
 10
-25.8654
 20
-2.1054
 30
0.0
 10
-25.7827
 20
-2.0646
 30
0.0
 10
-25.7827
 20
-2.0646
 30
0.0
 10
-25.6992
 20
-2.0237
 30
0.0
 10
-25.6028
 20
-2.0035
 30
0.0
 10
-25.4936
 20
-2.0041
 30
0.0
 10
-25.4936
 20
-2.0041
 30
0.0
 10
-25.4089
 20
-2.0035
 30
0.0
 10
-25.3331
 20
-2.016
 30
0.0
 10
-25.2658
 20
-2.0412
 30
0.0
 10
-25.2658
 20
-2.0412
 30
0.0
 10
-25.198
 20
-2.0662
 30
0.0
 10
-25.141
 20
-2.1008
 30
0.0
 10
-25.0933
 20
-2.1448
 30
0.0
 10
-25.0933
 20
-2.1448
 30
0.0
 10
-25.0461
 20
-2.1887
 30
0.0
 10
-25.0098
 20
-2.2394
 30
0.0
 10
-24.9846
 20
-2.2969
 30
0.0
 10
-24.9846
 20
-2.2969
 30
0.0
 10
-24.9594
 20
-2.3543
 30
0.0
 10
-24.9465
 20
-2.4149
 30
0.0
 10
-24.9465
 20
-2.479
 30
0.0
 10
-24.9465
 20
-2.479
 30
0.0
 10
-24.947
 20
-2.5416
 30
0.0
 10
-24.9542
 20
-2.6006
 30
0.0
 10
-24.969
 20
-2.6559
 30
0.0
 10
-24.969
 20
-2.6559
 30
0.0
 10
-24.9833
 20
-2.7113
 30
0.0
 10
-25.0008
 20
-2.761
 30
0.0
 10
-25.0221
 20
-2.8049
 30
0.0
 10
-25.0221
 20
-2.8049
 30
0.0
 10
-25.0435
 20
-2.849
 30
0.0
 10
-25.0647
 20
-2.8851
 30
0.0
 10
-25.0861
 20
-2.9137
 30
0.0
 10
-25.0861
 20
-2.9137
 30
0.0
 10
-25.0861
 20
-2.9137
 30
0.0
 10
-24.8262
 20
-2.9819
 30
0.0
 10
-24.8262
 20
-2.9819
 30
0.0
 10
-24.8262
 20
-2.9819
 30
0.0
 10
-24.7997
 20
-2.9483
 30
0.0
 10
-24.7751
 20
-2.9064
 30
0.0
 10
-24.7512
 20
-2.8562
 30
0.0
 10
-24.7512
 20
-2.8562
 30
0.0
 10
-24.7279
 20
-2.806
 30
0.0
 10
-24.7091
 20
-2.7491
 30
0.0
 10
-24.6942
 20
-2.6854
 30
0.0
 10
-24.6942
 20
-2.6854
 30
0.0
 10
-24.6794
 20
-2.6213
 30
0.0
 10
-24.6715
 20
-2.5525
 30
0.0
 10
-24.6709
 20
-2.479
 30
0.0
 10
-24.6709
 20
-2.479
 30
0.0
 10
-24.6715
 20
-2.3689
 30
0.0
 10
-24.6935
 20
-2.2684
 30
0.0
 10
-24.7362
 20
-2.1769
 30
0.0
 10
-24.7362
 20
-2.1769
 30
0.0
 10
-24.779
 20
-2.0853
 30
0.0
 10
-24.8391
 20
-2.0061
 30
0.0
 10
-24.9166
 20
-1.9394
 30
0.0
 10
-24.9166
 20
-1.9394
 30
0.0
 10
-24.9942
 20
-1.8721
 30
0.0
 10
-25.0854
 20
-1.8204
 30
0.0
 10
-25.1895
 20
-1.7837
 30
0.0
 10
-25.1895
 20
-1.7837
 30
0.0
 10
-25.2944
 20
-1.747
 30
0.0
 10
-25.4089
 20
-1.7283
 30
0.0
 10
-25.5323
 20
-1.7277
 30
0.0
 10
-25.5323
 20
-1.7277
 30
0.0
 10
-25.6372
 20
-1.7283
 30
0.0
 10
-25.7316
 20
-1.7417
 30
0.0
 10
-25.815
 20
-1.7676
 30
0.0
 10
-25.815
 20
-1.7676
 30
0.0
 10
-25.8985
 20
-1.7934
 30
0.0
 10
-25.9703
 20
-1.8276
 30
0.0
 10
-26.031
 20
-1.871
 30
0.0
 10
-26.031
 20
-1.871
 30
0.0
 10
-26.0917
 20
-1.9145
 30
0.0
 10
-26.1402
 20
-1.9632
 30
0.0
 10
-26.1765
 20
-2.0164
 30
0.0
 10
-26.1765
 20
-2.0164
 30
0.0
 10
-26.2244
 20
-2.0791
 30
0.0
 10
-26.2594
 20
-2.1468
 30
0.0
 10
-26.2806
 20
-2.2208
 30
0.0
 10
-26.2806
 20
-2.2208
 30
0.0
 10
-26.302
 20
-2.2948
 30
0.0
 10
-26.3129
 20
-2.3714
 30
0.0
 10
-26.3124
 20
-2.4511
 30
0.0
 10
-26.3124
 20
-2.4511
 30
0.0
 10
-26.3124
 20
-2.4872
 30
0.0
 10
-26.3116
 20
-2.5183
 30
0.0
 10
-26.3097
 20
-2.5437
 30
0.0
 10
-26.3097
 20
-2.5437
 30
0.0
 10
-26.3078
 20
-2.569
 30
0.0
 10
-26.3045
 20
-2.5928
 30
0.0
 10
-26.3007
 20
-2.6156
 30
0.0
 10
-26.3007
 20
-2.6156
 30
0.0
 10
-26.3007
 20
-2.6156
 30
0.0
 10
-26.9488
 20
-2.538
 30
0.0
 10
-26.9488
 20
-2.538
 30
0.0
 10
-26.9488
 20
-2.538
 30
0.0
 10
-26.9488
 20
-2.538
 30
0.0
 10
-26.9488
 20
-1.7682
 30
0.0
 10
-26.9488
 20
-1.7682
 30
0.0
 10
-26.9488
 20
-1.7682
 30
0.0
 10
-26.9488
 20
-1.7682
 30
0.0
 10
-27.2358
 20
-1.7682
 30
0.0
 10
-27.2358
 20
-1.7682
 30
0.0
  0
SPLINE
  5
71
330
1F
100
AcDbEntity
  8
ROUND
 62
   250
370
    15
100
AcDbSpline
210
0.0
220
0.0
230
1.0
 70
    24
 71
     3
 72
     8
 73
     4
 74
     0
 42
0.0000000001
 43
0.0000000001
 40
0.0
 40
0.0
 40
0.0
 40
0.0
 40
1.0
 40
1.0
 40
1.0
 40
1.0
 10
27.2783
 20
2.4077
 30
0.0
 10
27.2783
 20
2.4077
 30
0.0
 10
27.2783
 20
6.6185
 30
0.0
 10
27.2783
 20
6.6185
 30
0.0
  0
SPLINE
  5
72
330
1F
100
AcDbEntity
  8
ROUND
 62
   250
370
    15
100
AcDbSpline
210
0.0
220
0.0
230
1.0
 70
    24
 71
     3
 72
     8
 73
     4
 74
     0
 42
0.0000000001
 43
0.0000000001
 40
0.0
 40
0.0
 40
0.0
 40
0.0
 40
1.0
 40
1.0
 40
1.0
 40
1.0
 10
2.8893
 20
2.0567
 30
0.0
 10
2.8893
 20
2.0567
 30
0.0
 10
2.8893
 20
6.6905
 30
0.0
 10
2.8893
 20
6.6905
 30
0.0
  0
SPLINE
  5
73
330
1F
100
AcDbEntity
  8
ROUND
 62
   250
100
AcDbSpline
210
0.0
220
0.0
230
1.0
 70
    11
 71
     3
 72
    36
 73
    32
 74
     0
 42
0.0000000001
 43
0.0000000001
 40
0.0
 40
0.0
 40
0.0
 40
0.0
 40
0.1111111111111111
 40
0.1111111111111111
 40
0.1111111111111111
 40
0.1111111111111111
 40
0.2222222222222222
 40
0.2222222222222222
 40
0.2222222222222222
 40
0.2222222222222222
 40
0.3333333333333333
 40
0.3333333333333333
 40
0.3333333333333333
 40
0.3333333333333333
 40
0.4444444444444444
 40
0.4444444444444444
 40
0.4444444444444444
 40
0.4444444444444444
 40
0.5555555555555556
 40
0.5555555555555556
 40
0.5555555555555556
 40
0.5555555555555556
 40
0.6666666666666666
 40
0.6666666666666666
 40
0.6666666666666666
 40
0.6666666666666666
 40
0.7777777777777778
 40
0.7777777777777778
 40
0.7777777777777778
 40
0.7777777777777778
 40
1.0
 40
1.0
 40
1.0
 40
1.0
 10
14.1704
 20
9.2451
 30
0.0
 10
14.1704
 20
9.2451
 30
0.0
 10
14.1704
 20
8.9619
 30
0.0
 10
14.1704
 20
8.9619
 30
0.0
 10
14.1704
 20
8.9619
 30
0.0
 10
14.1704
 20
8.9619
 30
0.0
 10
15.1575
 20
8.9619
 30
0.0
 10
15.1575
 20
8.9619
 30
0.0
 10
15.1575
 20
8.9619
 30
0.0
 10
15.1575
 20
8.9619
 30
0.0
 10
15.1575
 20
8.9542
 30
0.0
 10
15.1575
 20
8.9542
 30
0.0
 10
15.1575
 20
8.9542
 30
0.0
 10
15.1575
 20
8.9542
 30
0.0
 10
14.2822
 20
6.723
 30
0.0
 10
14.2822
 20
6.723
 30
0.0
 10
14.2822
 20
6.723
 30
0.0
 10
14.2822
 20
6.723
 30
0.0
 10
14.5647
 20
6.723
 30
0.0
 10
14.5647
 20
6.723
 30
0.0
 10
14.5647
 20
6.723
 30
0.0
 10
14.5647
 20
6.723
 30
0.0
 10
15.4432
 20
9.0202
 30
0.0
 10
15.4432
 20
9.0202
 30
0.0
 10
15.4432
 20
9.0202
 30
0.0
 10
15.4432
 20
9.0202
 30
0.0
 10
15.4432
 20
9.2451
 30
0.0
 10
15.4432
 20
9.2451
 30
0.0
 10
15.4432
 20
9.2451
 30
0.0
 10
15.4432
 20
9.2451
 30
0.0
 10
14.1704
 20
9.2451
 30
0.0
 10
14.1704
 20
9.2451
 30
0.0
  0
SPLINE
  5
74
330
1F
100
AcDbEntity
  8
ROUND
 62
   250
100
AcDbSpline
210
0.0
220
0.0
230
1.0
 70
    11
 71
     3
 72
   124
 73
   120
 74
     0
 42
0.0000000001
 43
0.0000000001
 40
0.0
 40
0.0
 40
0.0
 40
0.0
 40
0.032258064516129
 40
0.032258064516129
 40
0.032258064516129
 40
0.032258064516129
 40
0.0645161290322581
 40
0.0645161290322581
 40
0.0645161290322581
 40
0.0645161290322581
 40
0.0967741935483871
 40
0.0967741935483871
 40
0.0967741935483871
 40
0.0967741935483871
 40
0.1290322580645161
 40
0.1290322580645161
 40
0.1290322580645161
 40
0.1290322580645161
 40
0.1612903225806452
 40
0.1612903225806452
 40
0.1612903225806452
 40
0.1612903225806452
 40
0.1935483870967742
 40
0.1935483870967742
 40
0.1935483870967742
 40
0.1935483870967742
 40
0.2258064516129032
 40
0.2258064516129032
 40
0.2258064516129032
 40
0.2258064516129032
 40
0.2580645161290323
 40
0.2580645161290323
 40
0.2580645161290323
 40
0.2580645161290323
 40
0.2903225806451613
 40
0.2903225806451613
 40
0.2903225806451613
 40
0.2903225806451613
 40
0.3225806451612903
 40
0.3225806451612903
 40
0.3225806451612903
 40
0.3225806451612903
 40
0.3548387096774194
 40
0.3548387096774194
 40
0.3548387096774194
 40
0.3548387096774194
 40
0.3870967741935484
 40
0.3870967741935484
 40
0.3870967741935484
 40
0.3870967741935484
 40
0.4193548387096774
 40
0.4193548387096774
 40
0.4193548387096774
 40
0.4193548387096774
 40
0.4516129032258064
 40
0.4516129032258064
 40
0.4516129032258064
 40
0.4516129032258064
 40
0.4838709677419355
 40
0.4838709677419355
 40
0.4838709677419355
 40
0.4838709677419355
 40
0.5161290322580645
 40
0.5161290322580645
 40
0.5161290322580645
 40
0.5161290322580645
 40
0.5483870967741935
 40
0.5483870967741935
 40
0.5483870967741935
 40
0.5483870967741935
 40
0.5806451612903226
 40
0.5806451612903226
 40
0.5806451612903226
 40
0.5806451612903226
 40
0.6129032258064516
 40
0.6129032258064516
 40
0.6129032258064516
 40
0.6129032258064516
 40
0.6451612903225806
 40
0.6451612903225806
 40
0.6451612903225806
 40
0.6451612903225806
 40
0.6774193548387096
 40
0.6774193548387096
 40
0.6774193548387096
 40
0.6774193548387096
 40
0.7096774193548387
 40
0.7096774193548387
 40
0.7096774193548387
 40
0.7096774193548387
 40
0.7419354838709677
 40
0.7419354838709677
 40
0.7419354838709677
 40
0.7419354838709677
 40
0.7741935483870968
 40
0.7741935483870968
 40
0.7741935483870968
 40
0.7741935483870968
 40
0.8064516129032258
 40
0.8064516129032258
 40
0.8064516129032258
 40
0.8064516129032258
 40
0.8387096774193549
 40
0.8387096774193549
 40
0.8387096774193549
 40
0.8387096774193549
 40
0.8709677419354839
 40
0.8709677419354839
 40
0.8709677419354839
 40
0.8709677419354839
 40
0.9032258064516129
 40
0.9032258064516129
 40
0.9032258064516129
 40
0.9032258064516129
 40
0.9354838709677419
 40
0.9354838709677419
 40
0.9354838709677419
 40
0.9354838709677419
 40
1.0
 40
1.0
 40
1.0
 40
1.0
 10
16.8773
 20
9.284
 30
0.0
 10
16.8524
 20
9.284
 30
0.0
 10
16.823
 20
9.2828
 30
0.0
 10
16.7898
 20
9.2801
 30
0.0
 10
16.7898
 20
9.2801
 30
0.0
 10
16.7562
 20
9.2776
 30
0.0
 10
16.7189
 20
9.2724
 30
0.0
 10
16.6786
 20
9.2646
 30
0.0
 10
16.6786
 20
9.2646
 30
0.0
 10
16.5508
 20
9.2451
 30
0.0
 10
16.4323
 20
9.2038
 30
0.0
 10
16.3232
 20
9.1411
 30
0.0
 10
16.3232
 20
9.1411
 30
0.0
 10
16.214
 20
9.0783
 30
0.0
 10
16.1172
 20
8.9954
 30
0.0
 10
16.033
 20
8.8921
 30
0.0
 10
16.033
 20
8.8921
 30
0.0
 10
15.9651
 20
8.8093
 30
0.0
 10
15.9057
 20
8.711
 30
0.0
 10
15.8549
 20
8.5971
 30
0.0
 10
15.8549
 20
8.5971
 30
0.0
 10
15.8037
 20
8.484
 30
0.0
 10
15.7638
 20
8.3566
 30
0.0
 10
15.735
 20
8.2157
 30
0.0
 10
15.735
 20
8.2157
 30
0.0
 10
15.7064
 20
8.0747
 30
0.0
 10
15.6919
 20
7.9206
 30
0.0
 10
15.6915
 20
7.7551
 30
0.0
 10
15.6915
 20
7.7551
 30
0.0
 10
15.6919
 20
7.5908
 30
0.0
 10
15.709
 20
7.4427
 30
0.0
 10
15.7422
 20
7.3109
 30
0.0
 10
15.7422
 20
7.3109
 30
0.0
 10
15.7757
 20
7.1784
 30
0.0
 10
15.8239
 20
7.0657
 30
0.0
 10
15.8865
 20
6.9719
 30
0.0
 10
15.8865
 20
6.9719
 30
0.0
 10
15.9486
 20
6.8781
 30
0.0
 10
16.0237
 20
6.8059
 30
0.0
 10
16.1105
 20
6.756
 30
0.0
 10
16.1105
 20
6.756
 30
0.0
 10
16.1974
 20
6.7061
 30
0.0
 10
16.2947
 20
6.681
 30
0.0
 10
16.4023
 20
6.6803
 30
0.0
 10
16.4023
 20
6.6803
 30
0.0
 10
16.5079
 20
6.6816
 30
0.0
 10
16.6026
 20
6.7061
 30
0.0
 10
16.6858
 20
6.754
 30
0.0
 10
16.6858
 20
6.754
 30
0.0
 10
16.7686
 20
6.8026
 30
0.0
 10
16.8395
 20
6.8684
 30
0.0
 10
16.8974
 20
6.952
 30
0.0
 10
16.8974
 20
6.952
 30
0.0
 10
16.9554
 20
7.0354
 30
0.0
 10
16.9999
 20
7.1305
 30
0.0
 10
17.0298
 20
7.2372
 30
0.0
 10
17.0298
 20
7.2372
 30
0.0
 10
17.0604
 20
7.3432
 30
0.0
 10
17.0759
 20
7.4551
 30
0.0
 10
17.0759
 20
7.5727
 30
0.0
 10
17.0759
 20
7.5727
 30
0.0
 10
17.0755
 20
7.6956
 30
0.0
 10
17.0604
 20
7.8069
 30
0.0
 10
17.031
 20
7.9065
 30
0.0
 10
17.031
 20
7.9065
 30
0.0
 10
17.0014
 20
8.006
 30
0.0
 10
16.9595
 20
8.0921
 30
0.0
 10
16.9057
 20
8.1638
 30
0.0
 10
16.9057
 20
8.1638
 30
0.0
 10
16.8514
 20
8.235
 30
0.0
 10
16.7872
 20
8.2906
 30
0.0
 10
16.7132
 20
8.3288
 30
0.0
 10
16.7132
 20
8.3288
 30
0.0
 10
16.6393
 20
8.3676
 30
0.0
 10
16.5569
 20
8.3869
 30
0.0
 10
16.4676
 20
8.3877
 30
0.0
 10
16.4676
 20
8.3877
 30
0.0
 10
16.393
 20
8.3869
 30
0.0
 10
16.3247
 20
8.3735
 30
0.0
 10
16.2627
 20
8.3475
 30
0.0
 10
16.2627
 20
8.3475
 30
0.0
 10
16.2006
 20
8.3209
 30
0.0
 10
16.1452
 20
8.2861
 30
0.0
 10
16.0971
 20
8.2415
 30
0.0
 10
16.0971
 20
8.2415
 30
0.0
 10
16.0495
 20
8.1976
 30
0.0
 10
16.0092
 20
8.1477
 30
0.0
 10
15.977
 20
8.0928
 30
0.0
 10
15.977
 20
8.0928
 30
0.0
 10
15.977
 20
8.0928
 30
0.0
 10
15.9709
 20
8.0928
 30
0.0
 10
15.9709
 20
8.0928
 30
0.0
 10
15.9709
 20
8.0928
 30
0.0
 10
15.9822
 20
8.1981
 30
0.0
 10
16.005
 20
8.2996
 30
0.0
 10
16.0396
 20
8.3973
 30
0.0
 10
16.0396
 20
8.3973
 30
0.0
 10
16.0737
 20
8.4944
 30
0.0
 10
16.1194
 20
8.5835
 30
0.0
 10
16.1773
 20
8.6644
 30
0.0
 10
16.1773
 20
8.6644
 30
0.0
 10
16.2353
 20
8.7445
 30
0.0
 10
16.305
 20
8.8132
 30
0.0
 10
16.3874
 20
8.8688
 30
0.0
 10
16.3874
 20
8.8688
 30
0.0
 10
16.4696
 20
8.9244
 30
0.0
 10
16.5648
 20
8.9632
 30
0.0
 10
16.6724
 20
8.9852
 30
0.0
 10
16.6724
 20
8.9852
 30
0.0
 10
16.7112
 20
8.9929
 30
0.0
 10
16.7485
 20
8.9989
 30
0.0
 10
16.7831
 20
9.0021
 30
0.0
 10
16.7831
 20
9.0021
 30
0.0
 10
16.8178
 20
9.0059
 30
0.0
 10
16.8493
 20
9.0066
 30
0.0
 10
16.8773
 20
9.0046
 30
0.0
 10
16.8773
 20
9.0046
 30
0.0
 10
16.8773
 20
9.0046
 30
0.0
 10
16.8773
 20
9.284
 30
0.0
 10
16.8773
 20
9.284
 30
0.0
  0
SPLINE
  5
75
330
1F
100
AcDbEntity
  8
ROUND
 62
   250
100
AcDbSpline
210
0.0
220
0.0
230
1.0
 70
    11
 71
     3
 72
    64
 73
    60
 74
     0
 42
0.0000000001
 43
0.0000000001
 40
0.0
 40
0.0
 40
0.0
 40
0.0
 40
0.0625
 40
0.0625
 40
0.0625
 40
0.0625
 40
0.125
 40
0.125
 40
0.125
 40
0.125
 40
0.1875
 40
0.1875
 40
0.1875
 40
0.1875
 40
0.25
 40
0.25
 40
0.25
 40
0.25
 40
0.3125
 40
0.3125
 40
0.3125
 40
0.3125
 40
0.375
 40
0.375
 40
0.375
 40
0.375
 40
0.4375
 40
0.4375
 40
0.4375
 40
0.4375
 40
0.5
 40
0.5
 40
0.5
 40
0.5
 40
0.5625
 40
0.5625
 40
0.5625
 40
0.5625
 40
0.625
 40
0.625
 40
0.625
 40
0.625
 40
0.6875
 40
0.6875
 40
0.6875
 40
0.6875
 40
0.75
 40
0.75
 40
0.75
 40
0.75
 40
0.8125
 40
0.8125
 40
0.8125
 40
0.8125
 40
0.875
 40
0.875
 40
0.875
 40
0.875
 40
1.0
 40
1.0
 40
1.0
 40
1.0
 10
16.4086
 20
6.9441
 30
0.0
 10
16.3361
 20
6.9448
 30
0.0
 10
16.2724
 20
6.963
 30
0.0
 10
16.2171
 20
6.9992
 30
0.0
 10
16.2171
 20
6.9992
 30
0.0
 10
16.1623
 20
7.0354
 30
0.0
 10
16.1158
 20
7.0858
 30
0.0
 10
16.0779
 20
7.1511
 30
0.0
 10
16.0779
 20
7.1511
 30
0.0
 10
16.0402
 20
7.2164
 30
0.0
 10
16.0117
 20
7.2933
 30
0.0
 10
15.9921
 20
7.3814
 30
0.0
 10
15.9921
 20
7.3814
 30
0.0
 10
15.9724
 20
7.4692
 30
0.0
 10
15.9625
 20
7.5657
 30
0.0
 10
15.9615
 20
7.6697
 30
0.0
 10
15.9615
 20
7.6697
 30
0.0
 10
15.9615
 20
7.7008
 30
0.0
 10
15.9647
 20
7.728
 30
0.0
 10
15.9699
 20
7.7526
 30
0.0
 10
15.9699
 20
7.7526
 30
0.0
 10
15.975
 20
7.7765
 30
0.0
 10
15.9818
 20
7.7978
 30
0.0
 10
15.9895
 20
7.8172
 30
0.0
 10
15.9895
 20
7.8172
 30
0.0
 10
16.0148
 20
7.8799
 30
0.0
 10
16.0475
 20
7.9343
 30
0.0
 10
16.0882
 20
7.9809
 30
0.0
 10
16.0882
 20
7.9809
 30
0.0
 10
16.1287
 20
8.0268
 30
0.0
 10
16.1742
 20
8.063
 30
0.0
 10
16.2248
 20
8.0889
 30
0.0
 10
16.2248
 20
8.0889
 30
0.0
 10
16.2756
 20
8.1142
 30
0.0
 10
16.3284
 20
8.1276
 30
0.0
 10
16.3836
 20
8.1276
 30
0.0
 10
16.3836
 20
8.1276
 30
0.0
 10
16.468
 20
8.1271
 30
0.0
 10
16.541
 20
8.1038
 30
0.0
 10
16.6036
 20
8.0578
 30
0.0
 10
16.6036
 20
8.0578
 30
0.0
 10
16.6657
 20
8.0119
 30
0.0
 10
16.7138
 20
7.9459
 30
0.0
 10
16.7479
 20
7.8599
 30
0.0
 10
16.7479
 20
7.8599
 30
0.0
 10
16.7821
 20
7.7739
 30
0.0
 10
16.7991
 20
7.6705
 30
0.0
 10
16.7997
 20
7.5494
 30
0.0
 10
16.7997
 20
7.5494
 30
0.0
 10
16.7991
 20
7.4285
 30
0.0
 10
16.7826
 20
7.3225
 30
0.0
 10
16.7499
 20
7.232
 30
0.0
 10
16.7499
 20
7.232
 30
0.0
 10
16.7174
 20
7.1414
 30
0.0
 10
16.6719
 20
7.0716
 30
0.0
 10
16.6135
 20
7.0211
 30
0.0
 10
16.6135
 20
7.0211
 30
0.0
 10
16.5549
 20
6.9707
 30
0.0
 10
16.4866
 20
6.9448
 30
0.0
 10
16.4086
 20
6.9441
 30
0.0
  0
SPLINE
  5
76
330
1F
100
AcDbEntity
  8
ROUND
 62
   250
370
    15
100
AcDbSpline
210
0.0
220
0.0
230
1.0
 70
    24
 71
     3
 72
     8
 73
     4
 74
     0
 42
0.0000000001
 43
0.0000000001
 40
0.0
 40
0.0
 40
0.0
 40
0.0
 40
1.0
 40
1.0
 40
1.0
 40
1.0
 10
26.6948
 20
6.1783
 30
0.0
 10
26.6948
 20
6.1783
 30
0.0
 10
3.7275
 20
6.1783
 30
0.0
 10
3.7275
 20
6.1783
 30
0.0
  0
SPLINE
  5
77
330
1F
100
AcDbEntity
  8
ROUND
 62
   250
370
     9
100
AcDbSpline
210
0.0
220
0.0
230
1.0
 70
    11
 71
     3
 72
    32
 73
    28
 74
     0
 42
0.0000000001
 43
0.0000000001
 40
0.0
 40
0.0
 40
0.0
 40
0.0
 40
0.125
 40
0.125
 40
0.125
 40
0.125
 40
0.25
 40
0.25
 40
0.25
 40
0.25
 40
0.375
 40
0.375
 40
0.375
 40
0.375
 40
0.5
 40
0.5
 40
0.5
 40
0.5
 40
0.625
 40
0.625
 40
0.625
 40
0.625
 40
0.75
 40
0.75
 40
0.75
 40
0.75
 40
1.0
 40
1.0
 40
1.0
 40
1.0
 10
25.8763
 20
5.7326
 30
0.0
 10
25.8763
 20
5.7326
 30
0.0
 10
25.8763
 20
5.7326
 30
0.0
 10
25.8763
 20
5.7326
 30
0.0
 10
25.8763
 20
5.7326
 30
0.0
 10
25.8763
 20
5.7326
 30
0.0
 10
25.8763
 20
5.7326
 30
0.0
 10
25.8763
 20
5.7326
 30
0.0
 10
25.8763
 20
5.7326
 30
0.0
 10
25.8763
 20
5.7326
 30
0.0
 10
27.1491
 20
6.176
 30
0.0
 10
27.1491
 20
6.176
 30
0.0
 10
27.1491
 20
6.176
 30
0.0
 10
27.1491
 20
6.176
 30
0.0
 10
25.8763
 20
6.6194
 30
0.0
 10
25.8763
 20
6.6194
 30
0.0
 10
25.8763
 20
6.6194
 30
0.0
 10
25.8763
 20
6.6194
 30
0.0
 10
25.8763
 20
6.6194
 30
0.0
 10
25.8763
 20
6.6194
 30
0.0
 10
25.8763
 20
6.6194
 30
0.0
 10
25.8763
 20
6.6194
 30
0.0
 10
25.8763
 20
6.6194
 30
0.0
 10
25.8763
 20
6.6194
 30
0.0
 10
25.8763
 20
6.6194
 30
0.0
 10
25.8763
 20
6.6194
 30
0.0
 10
25.8763
 20
5.7326
 30
0.0
 10
25.8763
 20
5.7326
 30
0.0
  0
SPLINE
  5
78
330
1F
100
AcDbEntity
  8
ROUND
 62
   250
370
     9
100
AcDbSpline
210
0.0
220
0.0
230
1.0
 70
    11
 71
     3
 72
    32
 73
    28
 74
     0
 42
0.0000000001
 43
0.0000000001
 40
0.0
 40
0.0
 40
0.0
 40
0.0
 40
0.125
 40
0.125
 40
0.125
 40
0.125
 40
0.25
 40
0.25
 40
0.25
 40
0.25
 40
0.375
 40
0.375
 40
0.375
 40
0.375
 40
0.5
 40
0.5
 40
0.5
 40
0.5
 40
0.625
 40
0.625
 40
0.625
 40
0.625
 40
0.75
 40
0.75
 40
0.75
 40
0.75
 40
1.0
 40
1.0
 40
1.0
 40
1.0
 10
4.3239
 20
5.7501
 30
0.0
 10
4.3239
 20
5.7501
 30
0.0
 10
4.3239
 20
5.7501
 30
0.0
 10
4.3239
 20
5.7501
 30
0.0
 10
4.3239
 20
5.7501
 30
0.0
 10
4.3239
 20
5.7501
 30
0.0
 10
4.3239
 20
5.7501
 30
0.0
 10
4.3239
 20
5.7501
 30
0.0
 10
4.3239
 20
5.7501
 30
0.0
 10
4.3239
 20
5.7501
 30
0.0
 10
3.0511
 20
6.1935
 30
0.0
 10
3.0511
 20
6.1935
 30
0.0
 10
3.0511
 20
6.1935
 30
0.0
 10
3.0511
 20
6.1935
 30
0.0
 10
4.3239
 20
6.6369
 30
0.0
 10
4.3239
 20
6.6369
 30
0.0
 10
4.3239
 20
6.6369
 30
0.0
 10
4.3239
 20
6.6369
 30
0.0
 10
4.3239
 20
6.6369
 30
0.0
 10
4.3239
 20
6.6369
 30
0.0
 10
4.3239
 20
6.6369
 30
0.0
 10
4.3239
 20
6.6369
 30
0.0
 10
4.3239
 20
6.6369
 30
0.0
 10
4.3239
 20
6.6369
 30
0.0
 10
4.3239
 20
6.6369
 30
0.0
 10
4.3239
 20
6.6369
 30
0.0
 10
4.3239
 20
5.7501
 30
0.0
 10
4.3239
 20
5.7501
 30
0.0
  0
SPLINE
  5
79
330
1F
100
AcDbEntity
  8
ROUND
 62
   254
100
AcDbSpline
210
0.0
220
0.0
230
1.0
 70
    11
 71
     3
 72
   104
 73
   100
 74
     0
 42
0.0000000001
 43
0.0000000001
 40
0.0
 40
0.0
 40
0.0
 40
0.0
 40
0.0384615384615385
 40
0.0384615384615385
 40
0.0384615384615385
 40
0.0384615384615385
 40
0.0769230769230769
 40
0.0769230769230769
 40
0.0769230769230769
 40
0.0769230769230769
 40
0.1153846153846154
 40
0.1153846153846154
 40
0.1153846153846154
 40
0.1153846153846154
 40
0.1538461538461539
 40
0.1538461538461539
 40
0.1538461538461539
 40
0.1538461538461539
 40
0.1923076923076923
 40
0.1923076923076923
 40
0.1923076923076923
 40
0.1923076923076923
 40
0.2307692307692308
 40
0.2307692307692308
 40
0.2307692307692308
 40
0.2307692307692308
 40
0.2692307692307692
 40
0.2692307692307692
 40
0.2692307692307692
 40
0.2692307692307692
 40
0.3076923076923077
 40
0.3076923076923077
 40
0.3076923076923077
 40
0.3076923076923077
 40
0.3461538461538461
 40
0.3461538461538461
 40
0.3461538461538461
 40
0.3461538461538461
 40
0.3846153846153846
 40
0.3846153846153846
 40
0.3846153846153846
 40
0.3846153846153846
 40
0.4230769230769231
 40
0.4230769230769231
 40
0.4230769230769231
 40
0.4230769230769231
 40
0.4615384615384616
 40
0.4615384615384616
 40
0.4615384615384616
 40
0.4615384615384616
 40
0.5
 40
0.5
 40
0.5
 40
0.5
 40
0.5384615384615384
 40
0.5384615384615384
 40
0.5384615384615384
 40
0.5384615384615384
 40
0.5769230769230769
 40
0.5769230769230769
 40
0.5769230769230769
 40
0.5769230769230769
 40
0.6153846153846154
 40
0.6153846153846154
 40
0.6153846153846154
 40
0.6153846153846154
 40
0.6538461538461539
 40
0.6538461538461539
 40
0.6538461538461539
 40
0.6538461538461539
 40
0.6923076923076923
 40
0.6923076923076923
 40
0.6923076923076923
 40
0.6923076923076923
 40
0.7307692307692307
 40
0.7307692307692307
 40
0.7307692307692307
 40
0.7307692307692307
 40
0.7692307692307693
 40
0.7692307692307693
 40
0.7692307692307693
 40
0.7692307692307693
 40
0.8076923076923077
 40
0.8076923076923077
 40
0.8076923076923077
 40
0.8076923076923077
 40
0.8461538461538461
 40
0.8461538461538461
 40
0.8461538461538461
 40
0.8461538461538461
 40
0.8846153846153846
 40
0.8846153846153846
 40
0.8846153846153846
 40
0.8846153846153846
 40
0.9230769230769231
 40
0.9230769230769231
 40
0.9230769230769231
 40
0.9230769230769231
 40
1.0
 40
1.0
 40
1.0
 40
1.0
 10
26.7352
 20
1.6955
 30
0.0
 10
26.7352
 20
1.6955
 30
0.0
 10
27.204
 20
1.6955
 30
0.0
 10
27.204
 20
1.6955
 30
0.0
 10
27.204
 20
1.6955
 30
0.0
 10
27.204
 20
1.6955
 30
0.0
 10
27.2094
 20
1.6898
 30
0.0
 10
27.2094
 20
1.6898
 30
0.0
 10
27.2094
 20
1.6898
 30
0.0
 10
27.2094
 20
-1.6976
 30
0.0
 10
27.2357
 20
-5.0854
 30
0.0
 10
27.2094
 20
-8.4726
 30
0.0
 10
27.2094
 20
-8.4726
 30
0.0
 10
27.204
 20
-9.2023
 30
0.0
 10
26.589
 20
-9.7857
 30
0.0
 10
25.8824
 20
-9.8445
 30
0.0
 10
25.8824
 20
-9.8445
 30
0.0
 10
25.8824
 20
-9.8445
 30
0.0
 10
25.2495
 20
-9.8445
 30
0.0
 10
25.2495
 20
-9.8445
 30
0.0
 10
25.2495
 20
-9.8445
 30
0.0
 10
25.2495
 20
-9.8445
 30
0.0
 10
4.8067
 20
-9.8445
 30
0.0
 10
4.8067
 20
-9.8445
 30
0.0
 10
4.8067
 20
-9.8445
 30
0.0
 10
4.5809
 20
-9.8445
 30
0.0
 10
4.2496
 20
-9.8745
 30
0.0
 10
3.9931
 20
-9.8219
 30
0.0
 10
3.9931
 20
-9.8219
 30
0.0
 10
3.4221
 20
-9.7052
 30
0.0
 10
2.9829
 20
-9.2554
 30
0.0
 10
2.8691
 20
-8.687
 30
0.0
 10
2.8691
 20
-8.687
 30
0.0
 10
2.8691
 20
-8.687
 30
0.0
 10
2.8524
 20
-8.5743
 30
0.0
 10
2.8524
 20
-8.5743
 30
0.0
 10
2.8524
 20
-8.5743
 30
0.0
 10
2.8524
 20
-8.5743
 30
0.0
 10
2.8518
 20
-7.9414
 30
0.0
 10
2.8518
 20
-7.9414
 30
0.0
 10
2.8518
 20
-7.9414
 30
0.0
 10
2.8518
 20
-7.9414
 30
0.0
 10
2.8472
 20
-1.9692
 30
0.0
 10
2.8472
 20
-1.9692
 30
0.0
 10
2.8472
 20
-1.9692
 30
0.0
 10
2.8461
 20
-0.7476
 30
0.0
 10
2.8466
 20
0.4739
 30
0.0
 10
2.8466
 20
1.6955
 30
0.0
 10
2.8466
 20
1.6955
 30
0.0
 10
2.8466
 20
1.6955
 30
0.0
 10
3.3153
 20
1.6955
 30
0.0
 10
3.3153
 20
1.6955
 30
0.0
 10
3.3153
 20
1.6955
 30
0.0
 10
3.3153
 20
1.6955
 30
0.0
 10
3.3157
 20
1.0626
 30
0.0
 10
3.3157
 20
1.0626
 30
0.0
 10
3.3157
 20
1.0626
 30
0.0
 10
3.3157
 20
1.0626
 30
0.0
 10
3.3206
 20
-7.8453
 30
0.0
 10
3.3206
 20
-7.8453
 30
0.0
 10
3.3206
 20
-7.8453
 30
0.0
 10
3.3206
 20
-7.8453
 30
0.0
 10
3.3211
 20
-8.4782
 30
0.0
 10
3.3211
 20
-8.4782
 30
0.0
 10
3.3211
 20
-8.4782
 30
0.0
 10
3.3211
 20
-8.4782
 30
0.0
 10
3.338
 20
-8.6194
 30
0.0
 10
3.338
 20
-8.6194
 30
0.0
 10
3.338
 20
-8.6194
 30
0.0
 10
3.4229
 20
-8.9953
 30
0.0
 10
3.7647
 20
-9.3638
 30
0.0
 10
4.1738
 20
-9.3703
 30
0.0
 10
4.1738
 20
-9.3703
 30
0.0
 10
4.1738
 20
-9.3703
 30
0.0
 10
4.8067
 20
-9.3703
 30
0.0
 10
4.8067
 20
-9.3703
 30
0.0
 10
4.8067
 20
-9.3703
 30
0.0
 10
4.8067
 20
-9.3703
 30
0.0
 10
25.2495
 20
-9.3703
 30
0.0
 10
25.2495
 20
-9.3703
 30
0.0
 10
25.2495
 20
-9.3703
 30
0.0
 10
25.6728
 20
-9.3703
 30
0.0
 10
26.0816
 20
-9.4384
 30
0.0
 10
26.4133
 20
-9.1389
 30
0.0
 10
26.4133
 20
-9.1389
 30
0.0
 10
26.4763
 20
-9.0818
 30
0.0
 10
26.5175
 20
-9.0369
 30
0.0
 10
26.5658
 20
-8.9694
 30
0.0
 10
26.5658
 20
-8.9694
 30
0.0
 10
26.8031
 20
-8.637
 30
0.0
 10
26.7352
 20
-8.2331
 30
0.0
 10
26.7352
 20
-7.8453
 30
0.0
 10
26.7352
 20
-7.8453
 30
0.0
 10
26.7352
 20
-7.8453
 30
0.0
 10
26.7352
 20
1.0626
 30
0.0
 10
26.7352
 20
1.0626
 30
0.0
 10
26.7352
 20
1.0626
 30
0.0
 10
26.7352
 20
1.0626
 30
0.0
 10
26.7352
 20
1.6955
 30
0.0
 10
26.7352
 20
1.6955
 30
0.0
  0
SPLINE
  5
7A
330
1F
100
AcDbEntity
  8
ROUND
 62
   250
370
    30
100
AcDbSpline
210
0.0
220
0.0
230
1.0
 70
    24
 71
     3
 72
     8
 73
     4
 74
     0
 42
0.0000000001
 43
0.0000000001
 40
0.0
 40
0.0
 40
0.0
 40
0.0
 40
1.0
 40
1.0
 40
1.0
 40
1.0
 10
2.8439
 20
1.2237
 30
0.0
 10
2.8439
 20
1.2237
 30
0.0
 10
2.8439
 20
0.7489
 30
0.0
 10
2.8439
 20
0.7489
 30
0.0
  0
SPLINE
  5
7B
330
1F
100
AcDbEntity
  8
ROUND
 62
   250
370
    30
100
AcDbSpline
210
0.0
220
0.0
230
1.0
 70
    24
 71
     3
 72
     8
 73
     4
 74
     0
 42
0.0000000001
 43
0.0000000001
 40
0.0
 40
0.0
 40
0.0
 40
0.0
 40
1.0
 40
1.0
 40
1.0
 40
1.0
 10
2.8439
 20
1.6984
 30
0.0
 10
2.8439
 20
1.6984
 30
0.0
 10
2.8439
 20
1.6931
 30
0.0
 10
2.8439
 20
1.6931
 30
0.0
  0
SPLINE
  5
7C
330
1F
100
AcDbEntity
  8
ROUND
 62
   250
370
    30
100
AcDbSpline
210
0.0
220
0.0
230
1.0
 70
    24
 71
     3
 72
     8
 73
     4
 74
     0
 42
0.0000000001
 43
0.0000000001
 40
0.0
 40
0.0
 40
0.0
 40
0.0
 40
1.0
 40
1.0
 40
1.0
 40
1.0
 10
2.8439
 20
1.6984
 30
0.0
 10
2.8439
 20
1.6984
 30
0.0
 10
2.8439
 20
1.6659
 30
0.0
 10
2.8439
 20
1.6659
 30
0.0
  0
SPLINE
  5
7D
330
1F
100
AcDbEntity
  8
ROUND
 62
   250
370
    30
100
AcDbSpline
210
0.0
220
0.0
230
1.0
 70
    24
 71
     3
 72
     8
 73
     4
 74
     0
 42
0.0000000001
 43
0.0000000001
 40
0.0
 40
0.0
 40
0.0
 40
0.0
 40
1.0
 40
1.0
 40
1.0
 40
1.0
 10
3.3185
 20
1.6984
 30
0.0
 10
3.3185
 20
1.6984
 30
0.0
 10
2.8439
 20
1.6984
 30
0.0
 10
2.8439
 20
1.6984
 30
0.0
  0
SPLINE
  5
7E
330
1F
100
AcDbEntity
  8
ROUND
 62
   250
370
    30
100
AcDbSpline
210
0.0
220
0.0
230
1.0
 70
    24
 71
     3
 72
     8
 73
     4
 74
     0
 42
0.0000000001
 43
0.0000000001
 40
0.0
 40
0.0
 40
0.0
 40
0.0
 40
1.0
 40
1.0
 40
1.0
 40
1.0
 10
27.2122
 20
1.6984
 30
0.0
 10
27.2122
 20
1.6984
 30
0.0
 10
26.7375
 20
1.6984
 30
0.0
 10
26.7375
 20
1.6984
 30
0.0
  0
SPLINE
  5
7F
330
1F
100
AcDbEntity
  8
ROUND
 62
   250
370
    30
100
AcDbSpline
210
0.0
220
0.0
230
1.0
 70
    24
 71
     3
 72
     8
 73
     4
 74
     0
 42
0.0000000001
 43
0.0000000001
 40
0.0
 40
0.0
 40
0.0
 40
0.0
 40
1.0
 40
1.0
 40
1.0
 40
1.0
 10
26.7375
 20
1.6982
 30
0.0
 10
26.7375
 20
1.6982
 30
0.0
 10
26.7375
 20
1.5711
 30
0.0
 10
26.7375
 20
1.5711
 30
0.0
  0
SPLINE
  5
80
330
1F
100
AcDbEntity
  8
ROUND
 62
   250
370
    30
100
AcDbSpline
210
0.0
220
0.0
230
1.0
 70
    24
 71
     3
 72
     8
 73
     4
 74
     0
 42
0.0000000001
 43
0.0000000001
 40
0.0
 40
0.0
 40
0.0
 40
0.0
 40
1.0
 40
1.0
 40
1.0
 40
1.0
 10
3.5655
 20
-9.6663
 30
0.0
 10
3.5655
 20
-9.6663
 30
0.0
 10
3.2609
 20
-9.4357
 30
0.0
 10
3.2609
 20
-9.4357
 30
0.0
  0
SPLINE
  5
81
330
1F
100
AcDbEntity
  8
ROUND
 62
   250
370
    30
100
AcDbSpline
210
0.0
220
0.0
230
1.0
 70
     8
 71
     3
 72
     8
 73
     4
 74
     0
 42
0.0000000001
 43
0.0000000001
 40
0.0
 40
0.0
 40
0.0
 40
0.0
 40
1.0
 40
1.0
 40
1.0
 40
1.0
 10
3.2609
 20
-9.4357
 30
0.0
 10
2.7843
 20
-9.0316
 30
0.0
 10
2.8439
 20
-8.3462
 30
0.0
 10
2.8439
 20
-7.796
 30
0.0
  0
SPLINE
  5
82
330
1F
100
AcDbEntity
  8
ROUND
 62
   250
370
    30
100
AcDbSpline
210
0.0
220
0.0
230
1.0
 70
    24
 71
     3
 72
    12
 73
     8
 74
     0
 42
0.0000000001
 43
0.0000000001
 40
0.0
 40
0.0
 40
0.0
 40
0.0
 40
0.3333333333333333
 40
0.3333333333333333
 40
0.3333333333333333
 40
0.3333333333333333
 40
1.0
 40
1.0
 40
1.0
 40
1.0
 10
2.8439
 20
-7.796
 30
0.0
 10
2.8439
 20
-7.796
 30
0.0
 10
2.8439
 20
1.0653
 30
0.0
 10
2.8439
 20
1.0653
 30
0.0
 10
2.8439
 20
1.0653
 30
0.0
 10
2.8439
 20
1.0653
 30
0.0
 10
2.8439
 20
1.6984
 30
0.0
 10
2.8439
 20
1.6984
 30
0.0
  0
SPLINE
  5
83
330
1F
100
AcDbEntity
  8
ROUND
 62
   250
370
    30
100
AcDbSpline
210
0.0
220
0.0
230
1.0
 70
    24
 71
     3
 72
    12
 73
     8
 74
     0
 42
0.0000000001
 43
0.0000000001
 40
0.0
 40
0.0
 40
0.0
 40
0.0
 40
0.3333333333333333
 40
0.3333333333333333
 40
0.3333333333333333
 40
0.3333333333333333
 40
1.0
 40
1.0
 40
1.0
 40
1.0
 10
26.7375
 20
1.6982
 30
0.0
 10
26.7375
 20
1.6982
 30
0.0
 10
26.7375
 20
1.0653
 30
0.0
 10
26.7375
 20
1.0653
 30
0.0
 10
26.7375
 20
1.0653
 30
0.0
 10
26.7375
 20
1.0653
 30
0.0
 10
26.7375
 20
-7.796
 30
0.0
 10
26.7375
 20
-7.796
 30
0.0
  0
SPLINE
  5
84
330
1F
100
AcDbEntity
  8
ROUND
 62
   250
370
    30
100
AcDbSpline
210
0.0
220
0.0
230
1.0
 70
     8
 71
     3
 72
    16
 73
    12
 74
     0
 42
0.0000000001
 43
0.0000000001
 40
0.0
 40
0.0
 40
0.0
 40
0.0
 40
0.25
 40
0.25
 40
0.25
 40
0.25
 40
0.5
 40
0.5
 40
0.5
 40
0.5
 40
1.0
 40
1.0
 40
1.0
 40
1.0
 10
26.7375
 20
-7.796
 30
0.0
 10
26.7375
 20
-8.2933
 30
0.0
 10
26.815
 20
-8.8144
 30
0.0
 10
26.3904
 20
-9.1629
 30
0.0
 10
26.3904
 20
-9.1629
 30
0.0
 10
26.3183
 20
-9.2219
 30
0.0
 10
26.2374
 20
-9.2705
 30
0.0
 10
26.1514
 20
-9.3061
 30
0.0
 10
26.1514
 20
-9.3061
 30
0.0
 10
26.0334
 20
-9.355
 30
0.0
 10
25.9146
 20
-9.3721
 30
0.0
 10
25.7882
 20
-9.3784
 30
0.0
  0
SPLINE
  5
85
330
1F
100
AcDbEntity
  8
ROUND
 62
   250
370
    30
100
AcDbSpline
210
0.0
220
0.0
230
1.0
 70
    24
 71
     3
 72
    12
 73
     8
 74
     0
 42
0.0000000001
 43
0.0000000001
 40
0.0
 40
0.0
 40
0.0
 40
0.0
 40
0.3333333333333333
 40
0.3333333333333333
 40
0.3333333333333333
 40
0.3333333333333333
 40
1.0
 40
1.0
 40
1.0
 40
1.0
 10
25.7882
 20
-9.3784
 30
0.0
 10
25.7882
 20
-9.3784
 30
0.0
 10
25.1552
 20
-9.3784
 30
0.0
 10
25.1552
 20
-9.3784
 30
0.0
 10
25.1552
 20
-9.3784
 30
0.0
 10
25.1552
 20
-9.3784
 30
0.0
 10
4.9009
 20
-9.3784
 30
0.0
 10
4.9009
 20
-9.3784
 30
0.0
  0
SPLINE
  5
86
330
1F
100
AcDbEntity
  8
ROUND
 62
   250
370
    30
100
AcDbSpline
210
0.0
220
0.0
230
1.0
 70
     8
 71
     3
 72
    12
 73
     8
 74
     0
 42
0.0000000001
 43
0.0000000001
 40
0.0
 40
0.0
 40
0.0
 40
0.0
 40
0.3333333333333333
 40
0.3333333333333333
 40
0.3333333333333333
 40
0.3333333333333333
 40
1.0
 40
1.0
 40
1.0
 40
1.0
 10
4.9009
 20
-9.3784
 30
0.0
 10
4.7763
 20
-9.3784
 30
0.0
 10
4.2457
 20
-9.4059
 30
0.0
 10
4.0222
 20
-9.3458
 30
0.0
 10
4.0222
 20
-9.3458
 30
0.0
 10
3.6005
 20
-9.2329
 30
0.0
 10
3.3341
 20
-8.8555
 30
0.0
 10
3.3185
 20
-8.4288
 30
0.0
  0
SPLINE
  5
87
330
1F
100
AcDbEntity
  8
ROUND
 62
   250
370
    30
100
AcDbSpline
210
0.0
220
0.0
230
1.0
 70
    24
 71
     3
 72
    16
 73
    12
 74
     0
 42
0.0000000001
 43
0.0000000001
 40
0.0
 40
0.0
 40
0.0
 40
0.0
 40
0.25
 40
0.25
 40
0.25
 40
0.25
 40
0.5
 40
0.5
 40
0.5
 40
0.5
 40
1.0
 40
1.0
 40
1.0
 40
1.0
 10
3.3185
 20
-8.4288
 30
0.0
 10
3.3185
 20
-8.4288
 30
0.0
 10
3.3185
 20
-7.796
 30
0.0
 10
3.3185
 20
-7.796
 30
0.0
 10
3.3185
 20
-7.796
 30
0.0
 10
3.3185
 20
-7.796
 30
0.0
 10
3.3185
 20
1.0653
 30
0.0
 10
3.3185
 20
1.0653
 30
0.0
 10
3.3185
 20
1.0653
 30
0.0
 10
3.3185
 20
1.0653
 30
0.0
 10
3.3185
 20
1.6984
 30
0.0
 10
3.3185
 20
1.6984
 30
0.0
  0
SPLINE
  5
88
330
1F
100
AcDbEntity
  8
ROUND
 62
   250
370
    30
100
AcDbSpline
210
0.0
220
0.0
230
1.0
 70
     8
 71
     3
 72
    12
 73
     8
 74
     0
 42
0.0000000001
 43
0.0000000001
 40
0.0
 40
0.0
 40
0.0
 40
0.0
 40
0.3333333333333333
 40
0.3333333333333333
 40
0.3333333333333333
 40
0.3333333333333333
 40
1.0
 40
1.0
 40
1.0
 40
1.0
 10
2.8906
 20
-8.7842
 30
0.0
 10
2.8906
 20
-8.7842
 30
0.0
 10
3.0346
 20
-9.1409
 30
0.0
 10
3.0346
 20
-9.1409
 30
0.0
 10
3.0346
 20
-9.1409
 30
0.0
 10
3.0346
 20
-9.1409
 30
0.0
 10
3.2609
 20
-9.4357
 30
0.0
 10
3.2609
 20
-9.4357
 30
0.0
  0
SPLINE
  5
89
330
1F
100
AcDbEntity
  8
ROUND
 62
   250
370
    30
100
AcDbSpline
210
0.0
220
0.0
230
1.0
 70
     8
 71
     3
 72
     8
 73
     4
 74
     0
 42
0.0000000001
 43
0.0000000001
 40
0.0
 40
0.0
 40
0.0
 40
0.0
 40
1.0
 40
1.0
 40
1.0
 40
1.0
 10
3.2609
 20
-9.4357
 30
0.0
 10
3.6655
 20
-9.9125
 30
0.0
 10
4.3506
 20
-9.8531
 30
0.0
 10
4.9009
 20
-9.8531
 30
0.0
  0
SPLINE
  5
8A
330
1F
100
AcDbEntity
  8
ROUND
 62
   250
370
    30
100
AcDbSpline
210
0.0
220
0.0
230
1.0
 70
    24
 71
     3
 72
     8
 73
     4
 74
     0
 42
0.0000000001
 43
0.0000000001
 40
0.0
 40
0.0
 40
0.0
 40
0.0
 40
1.0
 40
1.0
 40
1.0
 40
1.0
 10
4.9009
 20
-9.8531
 30
0.0
 10
4.9009
 20
-9.8531
 30
0.0
 10
25.1552
 20
-9.8531
 30
0.0
 10
25.1552
 20
-9.8531
 30
0.0
  0
SPLINE
  5
8B
330
1F
100
AcDbEntity
  8
ROUND
 62
   250
370
    30
100
AcDbSpline
210
0.0
220
0.0
230
1.0
 70
     8
 71
     3
 72
    12
 73
     8
 74
     0
 42
0.0000000001
 43
0.0000000001
 40
0.0
 40
0.0
 40
0.0
 40
0.0
 40
0.3333333333333333
 40
0.3333333333333333
 40
0.3333333333333333
 40
0.3333333333333333
 40
1.0
 40
1.0
 40
1.0
 40
1.0
 10
25.1552
 20
-9.8531
 30
0.0
 10
25.7135
 20
-9.8531
 30
0.0
 10
26.2377
 20
-9.9022
 30
0.0
 10
26.6915
 20
-9.5298
 30
0.0
 10
26.6915
 20
-9.5298
 30
0.0
 10
26.9816
 20
-9.292
 30
0.0
 10
27.1687
 20
-8.9417
 30
0.0
 10
27.2055
 20
-8.5684
 30
0.0
  0
SPLINE
  5
8C
330
1F
100
AcDbEntity
  8
ROUND
 62
   250
370
    30
100
AcDbSpline
210
0.0
220
0.0
230
1.0
 70
     8
 71
     3
 72
    20
 73
    16
 74
     0
 42
0.0000000001
 43
0.0000000001
 40
0.0
 40
0.0
 40
0.0
 40
0.0
 40
0.2
 40
0.2
 40
0.2
 40
0.2
 40
0.4
 40
0.4
 40
0.4
 40
0.4
 40
0.6
 40
0.6
 40
0.6
 40
0.6
 40
1.0
 40
1.0
 40
1.0
 40
1.0
 10
27.2055
 20
-8.5684
 30
0.0
 10
27.2055
 20
-8.5684
 30
0.0
 10
27.2122
 20
-8.4288
 30
0.0
 10
27.2122
 20
-8.4288
 30
0.0
 10
27.2122
 20
-8.4288
 30
0.0
 10
27.2122
 20
-8.4288
 30
0.0
 10
27.2122
 20
-7.796
 30
0.0
 10
27.2122
 20
-7.796
 30
0.0
 10
27.2122
 20
-7.796
 30
0.0
 10
27.2122
 20
-7.796
 30
0.0
 10
27.2122
 20
1.0653
 30
0.0
 10
27.2122
 20
1.0653
 30
0.0
 10
27.2122
 20
1.0653
 30
0.0
 10
27.2122
 20
1.0653
 30
0.0
 10
27.2122
 20
1.6982
 30
0.0
 10
27.2122
 20
1.6982
 30
0.0
  0
ENDSEC
  0
SECTION
  2
OBJECTS
  0
DICTIONARY
  5
C
330
0
100
AcDbDictionary
281
     1
  3
ACAD_GROUP
350
D
  3
ACAD_LAYOUT
350
1A
  3
ACAD_MATERIAL
350
3B
  3
ACAD_MLEADERSTYLE
350
8F
  3
ACAD_MLINESTYLE
350
17
  3
ACAD_PLOTSETTINGS
350
19
  3
ACAD_PLOTSTYLENAME
350
E
  3
ACAD_VISUALSTYLE
350
2A
  3
AcDbVariableDictionary
350
8D
  0
DICTIONARY
  5
D
102
{ACAD_REACTORS
330
C
102
}
330
C
100
AcDbDictionary
281
     1
  0
DICTIONARY
  5
1A
102
{ACAD_REACTORS
330
C
102
}
330
C
100
AcDbDictionary
281
     1
  3
Layout1
350
1E
  3
Layout2
350
26
  3
Model
350
22
  0
DICTIONARY
  5
3B
102
{ACAD_REACTORS
330
C
102
}
330
C
100
AcDbDictionary
281
     1
  3
ByBlock
350
3D
  3
ByLayer
350
3C
  3
Global
350
3E
  0
DICTIONARY
  5
8F
102
{ACAD_REACTORS
330
C
102
}
330
C
100
AcDbDictionary
281
     1
  0
DICTIONARY
  5
17
102
{ACAD_REACTORS
330
C
102
}
330
C
100
AcDbDictionary
281
     1
  3
Standard
350
18
  0
DICTIONARY
  5
19
102
{ACAD_REACTORS
330
C
102
}
330
C
100
AcDbDictionary
281
     1
  0
ACDBDICTIONARYWDFLT
  5
E
102
{ACAD_REACTORS
330
C
102
}
330
C
100
AcDbDictionary
281
     1
  3
Normal
350
F
100
AcDbDictionaryWithDefault
340
F
  0
DICTIONARY
  5
2A
102
{ACAD_REACTORS
330
C
102
}
330
C
100
AcDbDictionary
281
     1
  3
2dWireframe
350
2F
  3
3D Hidden
350
31
  3
3dWireframe
350
30
  3
Basic
350
32
  3
Brighten
350
36
  3
ColorChange
350
3A
  3
Conceptual
350
34
  3
Dim
350
35
  3
Facepattern
350
39
  3
Flat
350
2B
  3
FlatWithEdges
350
2C
  3
Gouraud
350
2D
  3
GouraudWithEdges
350
2E
  3
Linepattern
350
38
  3
Realistic
350
33
  3
Thicken
350
37
  0
DICTIONARY
  5
8D
102
{ACAD_REACTORS
330
C
102
}
330
C
100
AcDbDictionary
281
     1
  3
DIMASSOC
350
90
  3
HIDETEXT
350
91
  0
LAYOUT
  5
1E
102
{ACAD_REACTORS
330
1A
102
}
330
1A
100
AcDbPlotSettings
  1

  2
none_device
  4

  6

 40
0.0
 41
0.0
 42
0.0
 43
0.0
 44
0.0
 45
0.0
 46
0.0
 47
0.0
 48
0.0
 49
0.0
140
0.0
141
0.0
142
1.0
143
1.0
 70
   688
 72
     0
 73
     0
 74
     5
  7

 75
    16
147
1.0
148
0.0
149
0.0
100
AcDbLayout
  1
Layout1
 70
     1
 71
     1
 10
0.0
 20
0.0
 11
12.0
 21
9.0
 12
0.0
 22
0.0
 32
0.0
 14
1.000000000000000E+20
 24
1.000000000000000E+20
 34
1.000000000000000E+20
 15
-1.000000000000000E+20
 25
-1.000000000000000E+20
 35
-1.000000000000000E+20
146
0.0
 13
0.0
 23
0.0
 33
0.0
 16
1.0
 26
0.0
 36
0.0
 17
0.0
 27
1.0
 37
0.0
 76
     0
330
1B
  0
LAYOUT
  5
26
102
{ACAD_REACTORS
330
1A
102
}
330
1A
100
AcDbPlotSettings
  1

  2
none_device
  4

  6

 40
0.0
 41
0.0
 42
0.0
 43
0.0
 44
0.0
 45
0.0
 46
0.0
 47
0.0
 48
0.0
 49
0.0
140
0.0
141
0.0
142
1.0
143
1.0
 70
   688
 72
     0
 73
     0
 74
     5
  7

 75
    16
147
1.0
148
0.0
149
0.0
100
AcDbLayout
  1
Layout2
 70
     1
 71
     2
 10
0.0
 20
0.0
 11
0.0
 21
0.0
 12
0.0
 22
0.0
 32
0.0
 14
0.0
 24
0.0
 34
0.0
 15
0.0
 25
0.0
 35
0.0
146
0.0
 13
0.0
 23
0.0
 33
0.0
 16
1.0
 26
0.0
 36
0.0
 17
0.0
 27
1.0
 37
0.0
 76
     0
330
23
  0
LAYOUT
  5
22
102
{ACAD_REACTORS
330
1A
102
}
330
1A
100
AcDbPlotSettings
  1

  2
none_device
  4

  6

 40
0.0
 41
0.0
 42
0.0
 43
0.0
 44
0.0
 45
0.0
 46
0.0
 47
0.0
 48
0.0
 49
0.0
140
0.0
141
0.0
142
1.0
143
1.0
 70
  1712
 72
     0
 73
     0
 74
     0
  7

 75
     0
147
1.0
148
0.0
149
0.0
100
AcDbLayout
  1
Model
 70
     1
 71
     0
 10
0.0
 20
0.0
 11
12.0
 21
9.0
 12
0.0
 22
0.0
 32
0.0
 14
-27.2785
 24
-9.9965
 34
0.0
 15
27.3533
 25
9.8555
 35
0.0
146
0.0
 13
0.0
 23
0.0
 33
0.0
 16
1.0
 26
0.0
 36
0.0
 17
0.0
 27
1.0
 37
0.0
 76
     0
330
1F
331
29
  0
MATERIAL
  5
3D
102
{ACAD_REACTORS
330
3B
102
}
102
{ACAD_XDICTIONARY
360
B4
102
}
330
3B
100
AcDbMaterial
  1
ByBlock
  0
MATERIAL
  5
3C
102
{ACAD_REACTORS
330
3B
102
}
102
{ACAD_XDICTIONARY
360
B2
102
}
330
3B
100
AcDbMaterial
  1
ByLayer
  0
MATERIAL
  5
3E
102
{ACAD_REACTORS
330
3B
102
}
102
{ACAD_XDICTIONARY
360
B6
102
}
330
3B
100
AcDbMaterial
  1
Global
  0
MLINESTYLE
  5
18
102
{ACAD_REACTORS
330
17
102
}
330
17
100
AcDbMlineStyle
  2
Standard
 70
     0
  3

 62
   256
 51
90.0
 52
90.0
 71
     2
 49
0.5
 62
   256
  6
BYLAYER
 49
-0.5
 62
   256
  6
BYLAYER
  0
ACDBPLACEHOLDER
  5
F
102
{ACAD_REACTORS
330
E
102
}
330
E
  0
VISUALSTYLE
  5
2F
102
{ACAD_REACTORS
330
2A
102
}
102
{ACAD_XDICTIONARY
360
9A
102
}
330
2A
100
AcDbVisualStyle
  2
2dWireframe
 70
     4
 71
     0
 72
     2
 73
     0
 90
        0
 40
-0.6
 41
-30.0
 62
     5
 63
     7
 74
     1
 91
        4
 64
     7
 65
   257
 75
     1
175
     1
 42
1.0
 92
        0
 66
   257
 43
1.0
 76
     1
 77
     6
 78
     2
 67
     7
 79
     5
170
     0
171
     0
290
     0
174
     0
 93
        1
 44
0.0
173
     0
291
     0
 45
0.0
1001
ACAD
1000
AcDbSavedByObjectVersion
1070
     0
  0
VISUALSTYLE
  5
31
102
{ACAD_REACTORS
330
2A
102
}
102
{ACAD_XDICTIONARY
360
9E
102
}
330
2A
100
AcDbVisualStyle
  2
3D Hidden
 70
     6
 71
     1
 72
     2
 73
     2
 90
        0
 40
-0.6
 41
-30.0
 62
     5
 63
     7
 74
     2
 91
        2
 64
     7
 65
   257
 75
     2
175
     1
 42
40.0
 92
        0
 66
   257
 43
1.0
 76
     1
 77
     6
 78
     2
 67
     7
 79
     3
170
     0
171
     0
290
     0
174
     0
 93
        1
 44
0.0
173
     0
291
     0
 45
0.0
1001
ACAD
1000
AcDbSavedByObjectVersion
1070
     0
  0
VISUALSTYLE
  5
30
102
{ACAD_REACTORS
330
2A
102
}
102
{ACAD_XDICTIONARY
360
9C
102
}
330
2A
100
AcDbVisualStyle
  2
3dWireframe
 70
     5
 71
     0
 72
     2
 73
     0
 90
        0
 40
-0.6
 41
-30.0
 62
     5
 63
     7
 74
     1
 91
        4
 64
     7
 65
   257
 75
     1
175
     1
 42
1.0
 92
        0
 66
   257
 43
1.0
 76
     1
 77
     6
 78
     2
 67
     7
 79
     5
170
     0
171
     0
290
     0
174
     0
 93
        1
 44
0.0
173
     0
291
     0
 45
0.0
1001
ACAD
1000
AcDbSavedByObjectVersion
1070
     0
  0
VISUALSTYLE
  5
32
102
{ACAD_REACTORS
330
2A
102
}
102
{ACAD_XDICTIONARY
360
A0
102
}
330
2A
100
AcDbVisualStyle
  2
Basic
 70
     7
 71
     1
 72
     0
 73
     1
 90
        0
 40
-0.6
 41
-30.0
 62
     5
 63
     7
 74
     0
 91
        4
 64
     7
 65
   257
 75
     1
175
     1
 42
1.0
 92
        8
 66
     7
 43
1.0
 76
     1
 77
     6
 78
     2
 67
     7
 79
     5
170
     0
171
     0
290
     0
174
     0
 93
        1
 44
0.0
173
     0
291
     1
 45
0.0
1001
ACAD
1000
AcDbSavedByObjectVersion
1070
     0
  0
VISUALSTYLE
  5
36
102
{ACAD_REACTORS
330
2A
102
}
102
{ACAD_XDICTIONARY
360
A8
102
}
330
2A
100
AcDbVisualStyle
  2
Brighten
 70
    12
 71
     2
 72
     2
 73
     0
 90
        0
 40
-0.6
 41
-30.0
 62
     5
 63
     7
 74
     1
 91
        4
 64
     7
 65
   257
 75
     1
175
     1
 42
1.0
 92
        8
 66
     7
 43
1.0
 76
     1
 77
     6
 78
     2
 67
     7
 79
     5
170
     0
171
     0
290
     0
174
     0
 93
        1
 44
50.0
173
     0
291
     1
 45
0.0
1001
ACAD
1000
AcDbSavedByObjectVersion
1070
     0
  0
VISUALSTYLE
  5
3A
102
{ACAD_REACTORS
330
2A
102
}
102
{ACAD_XDICTIONARY
360
B0
102
}
330
2A
100
AcDbVisualStyle
  2
ColorChange
 70
    16
 71
     2
 72
     2
 73
     3
 90
        0
 40
-0.6
 41
-30.0
 62
     5
 63
     8
 74
     1
 91
        4
 64
     7
 65
   257
 75
     1
175
     1
 42
1.0
 92
        8
 66
     8
 43
1.0
 76
     1
 77
     6
 78
     2
 67
     7
 79
     5
170
     0
171
     0
290
     0
174
     0
 93
        1
 44
0.0
173
     0
291
     1
 45
0.0
1001
ACAD
1000
AcDbSavedByObjectVersion
1070
     0
  0
VISUALSTYLE
  5
34
102
{ACAD_REACTORS
330
2A
102
}
102
{ACAD_XDICTIONARY
360
A4
102
}
330
2A
100
AcDbVisualStyle
  2
Conceptual
 70
     9
 71
     3
 72
     2
 73
     0
 90
        0
 40
-0.6
 41
-30.0
 62
     5
 63
     7
 74
     2
 91
        2
 64
     7
 65
   257
 75
     1
175
     1
 42
40.0
 92
        8
 66
     7
 43
1.0
 76
     1
 77
     6
 78
     2
 67
     7
 79
     3
170
     0
171
     0
290
     0
174
     0
 93
        1
 44
0.0
173
     0
291
     0
 45
0.0
1001
ACAD
1000
AcDbSavedByObjectVersion
1070
     0
  0
VISUALSTYLE
  5
35
102
{ACAD_REACTORS
330
2A
102
}
102
{ACAD_XDICTIONARY
360
A6
102
}
330
2A
100
AcDbVisualStyle
  2
Dim
 70
    11
 71
     2
 72
     2
 73
     0
 90
        0
 40
-0.6
 41
-30.0
 62
     5
 63
     7
 74
     1
 91
        4
 64
     7
 65
   257
 75
     1
175
     1
 42
1.0
 92
        8
 66
     7
 43
1.0
 76
     1
 77
     6
 78
     2
 67
     7
 79
     5
170
     0
171
     0
290
     0
174
     0
 93
        1
 44
-50.0
173
     0
291
     1
 45
0.0
1001
ACAD
1000
AcDbSavedByObjectVersion
1070
     0
  0
VISUALSTYLE
  5
39
102
{ACAD_REACTORS
330
2A
102
}
102
{ACAD_XDICTIONARY
360
AE
102
}
330
2A
100
AcDbVisualStyle
  2
Facepattern
 70
    15
 71
     2
 72
     2
 73
     0
 90
        0
 40
-0.6
 41
-30.0
 62
     5
 63
     7
 74
     1
 91
        4
 64
     7
 65
   257
 75
     1
175
     1
 42
1.0
 92
        8
 66
     7
 43
1.0
 76
     1
 77
     6
 78
     2
 67
     7
 79
     5
170
     0
171
     0
290
     0
174
     0
 93
        1
 44
0.0
173
     0
291
     1
 45
0.0
1001
ACAD
1000
AcDbSavedByObjectVersion
1070
     0
  0
VISUALSTYLE
  5
2B
102
{ACAD_REACTORS
330
2A
102
}
102
{ACAD_XDICTIONARY
360
92
102
}
330
2A
100
AcDbVisualStyle
  2
Flat
 70
     0
 71
     2
 72
     1
 73
     1
 90
        2
 40
-0.6
 41
30.0
 62
     5
 63
     7
 74
     0
 91
        4
 64
     7
 65
   257
 75
     1
175
     1
 42
1.0
 92
        8
 66
     7
 43
1.0
 76
     1
 77
     6
 78
     2
 67
     7
 79
     5
170
     0
171
     0
290
     0
174
     0
 93
       13
 44
0.0
173
     0
291
     1
 45
0.0
1001
ACAD
1000
AcDbSavedByObjectVersion
1070
     0
  0
VISUALSTYLE
  5
2C
102
{ACAD_REACTORS
330
2A
102
}
102
{ACAD_XDICTIONARY
360
94
102
}
330
2A
100
AcDbVisualStyle
  2
FlatWithEdges
 70
     1
 71
     2
 72
     1
 73
     1
 90
        2
 40
-0.6
 41
30.0
 62
     5
 63
     7
 74
     1
 91
        4
 64
     7
 65
   257
 75
     1
175
     1
 42
1.0
 92
        0
 66
   257
 43
1.0
 76
     1
 77
     6
 78
     2
 67
     7
 79
     5
170
     0
171
     0
290
     0
174
     0
 93
       13
 44
0.0
173
     0
291
     1
 45
0.0
1001
ACAD
1000
AcDbSavedByObjectVersion
1070
     0
  0
VISUALSTYLE
  5
2D
102
{ACAD_REACTORS
330
2A
102
}
102
{ACAD_XDICTIONARY
360
96
102
}
330
2A
100
AcDbVisualStyle
  2
Gouraud
 70
     2
 71
     2
 72
     2
 73
     1
 90
        2
 40
-0.6
 41
30.0
 62
     5
 63
     7
 74
     0
 91
        4
 64
     7
 65
   257
 75
     1
175
     1
 42
1.0
 92
        0
 66
     7
 43
1.0
 76
     1
 77
     6
 78
     2
 67
     7
 79
     5
170
     0
171
     0
290
     0
174
     0
 93
       13
 44
0.0
173
     0
291
     1
 45
0.0
1001
ACAD
1000
AcDbSavedByObjectVersion
1070
     0
  0
VISUALSTYLE
  5
2E
102
{ACAD_REACTORS
330
2A
102
}
102
{ACAD_XDICTIONARY
360
98
102
}
330
2A
100
AcDbVisualStyle
  2
GouraudWithEdges
 70
     3
 71
     2
 72
     2
 73
     1
 90
        2
 40
-0.6
 41
30.0
 62
     5
 63
     7
 74
     1
 91
        4
 64
     7
 65
   257
 75
     1
175
     1
 42
1.0
 92
        0
 66
   257
 43
1.0
 76
     1
 77
     6
 78
     2
 67
     7
 79
     5
170
     0
171
     0
290
     0
174
     0
 93
       13
 44
0.0
173
     0
291
     1
 45
0.0
1001
ACAD
1000
AcDbSavedByObjectVersion
1070
     0
  0
VISUALSTYLE
  5
38
102
{ACAD_REACTORS
330
2A
102
}
102
{ACAD_XDICTIONARY
360
AC
102
}
330
2A
100
AcDbVisualStyle
  2
Linepattern
 70
    14
 71
     2
 72
     2
 73
     0
 90
        0
 40
-0.6
 41
-30.0
 62
     5
 63
     7
 74
     1
 91
        4
 64
     7
 65
   257
 75
     7
175
     7
 42
1.0
 92
        8
 66
     7
 43
1.0
 76
     1
 77
     6
 78
     2
 67
     7
 79
     5
170
     0
171
     0
290
     0
174
     0
 93
        1
 44
0.0
173
     0
291
     1
 45
0.0
1001
ACAD
1000
AcDbSavedByObjectVersion
1070
     0
  0
VISUALSTYLE
  5
33
102
{ACAD_REACTORS
330
2A
102
}
102
{ACAD_XDICTIONARY
360
A2
102
}
330
2A
100
AcDbVisualStyle
  2
Realistic
 70
     8
 71
     2
 72
     2
 73
     0
 90
        0
 40
-0.6
 41
-30.0
 62
     5
 63
     7
 74
     1
 91
        0
 64
     7
 65
   257
 75
     1
175
     1
 42
1.0
 92
        8
 66
     8
 43
1.0
 76
     1
 77
     6
 78
     2
 67
     7
 79
     5
170
     0
171
     0
290
     0
174
     0
 93
       13
 44
0.0
173
     0
291
     0
 45
0.0
1001
ACAD
1000
AcDbSavedByObjectVersion
1070
     0
  0
VISUALSTYLE
  5
37
102
{ACAD_REACTORS
330
2A
102
}
102
{ACAD_XDICTIONARY
360
AA
102
}
330
2A
100
AcDbVisualStyle
  2
Thicken
 70
    13
 71
     2
 72
     2
 73
     0
 90
        0
 40
-0.6
 41
-30.0
 62
     5
 63
     7
 74
     1
 91
        4
 64
     7
 65
   257
 75
     1
175
     1
 42
1.0
 92
       12
 66
     7
 43
1.0
 76
     1
 77
     6
 78
     2
 67
     7
 79
     5
170
     0
171
     0
290
     0
174
     0
 93
        1
 44
0.0
173
     0
291
     1
 45
0.0
1001
ACAD
1000
AcDbSavedByObjectVersion
1070
     0
  0
DICTIONARYVAR
  5
90
102
{ACAD_REACTORS
330
8D
102
}
330
8D
100
DictionaryVariables
280
     0
  1
2
  0
DICTIONARYVAR
  5
91
102
{ACAD_REACTORS
330
8D
102
}
330
8D
100
DictionaryVariables
280
     0
  1
1
  0
DICTIONARY
  5
B4
330
3D
100
AcDbDictionary
280
     1
281
     1
  3
ACAD_XREC_ROUNDTRIP
360
B5
  0
DICTIONARY
  5
B2
330
3C
100
AcDbDictionary
280
     1
281
     1
  3
ACAD_XREC_ROUNDTRIP
360
B3
  0
DICTIONARY
  5
B6
330
3E
100
AcDbDictionary
280
     1
281
     1
  3
ACAD_XREC_ROUNDTRIP
360
B7
  0
DICTIONARY
  5
9A
330
2F
100
AcDbDictionary
280
     1
281
     1
  3
ACAD_XREC_ROUNDTRIP
360
9B
  0
DICTIONARY
  5
9E
330
31
100
AcDbDictionary
280
     1
281
     1
  3
ACAD_XREC_ROUNDTRIP
360
9F
  0
DICTIONARY
  5
9C
330
30
100
AcDbDictionary
280
     1
281
     1
  3
ACAD_XREC_ROUNDTRIP
360
9D
  0
DICTIONARY
  5
A0
330
32
100
AcDbDictionary
280
     1
281
     1
  3
ACAD_XREC_ROUNDTRIP
360
A1
  0
DICTIONARY
  5
A8
330
36
100
AcDbDictionary
280
     1
281
     1
  3
ACAD_XREC_ROUNDTRIP
360
A9
  0
DICTIONARY
  5
B0
330
3A
100
AcDbDictionary
280
     1
281
     1
  3
ACAD_XREC_ROUNDTRIP
360
B1
  0
DICTIONARY
  5
A4
330
34
100
AcDbDictionary
280
     1
281
     1
  3
ACAD_XREC_ROUNDTRIP
360
A5
  0
DICTIONARY
  5
A6
330
35
100
AcDbDictionary
280
     1
281
     1
  3
ACAD_XREC_ROUNDTRIP
360
A7
  0
DICTIONARY
  5
AE
330
39
100
AcDbDictionary
280
     1
281
     1
  3
ACAD_XREC_ROUNDTRIP
360
AF
  0
DICTIONARY
  5
92
330
2B
100
AcDbDictionary
280
     1
281
     1
  3
ACAD_XREC_ROUNDTRIP
360
93
  0
DICTIONARY
  5
94
330
2C
100
AcDbDictionary
280
     1
281
     1
  3
ACAD_XREC_ROUNDTRIP
360
95
  0
DICTIONARY
  5
96
330
2D
100
AcDbDictionary
280
     1
281
     1
  3
ACAD_XREC_ROUNDTRIP
360
97
  0
DICTIONARY
  5
98
330
2E
100
AcDbDictionary
280
     1
281
     1
  3
ACAD_XREC_ROUNDTRIP
360
99
  0
DICTIONARY
  5
AC
330
38
100
AcDbDictionary
280
     1
281
     1
  3
ACAD_XREC_ROUNDTRIP
360
AD
  0
DICTIONARY
  5
A2
330
33
100
AcDbDictionary
280
     1
281
     1
  3
ACAD_XREC_ROUNDTRIP
360
A3
  0
DICTIONARY
  5
AA
330
37
100
AcDbDictionary
280
     1
281
     1
  3
ACAD_XREC_ROUNDTRIP
360
AB
  0
XRECORD
  5
B5
102
{ACAD_REACTORS
330
B4
102
}
330
B4
100
AcDbXrecord
280
     1
102
MATERIAL
148
0.0
149
0.0
149
0.0
 93
        0
 94
      127
282
     0
 72
     1
 77
     1
171
     1
175
     1
179
     1
273
     0
  0
XRECORD
  5
B3
102
{ACAD_REACTORS
330
B2
102
}
330
B2
100
AcDbXrecord
280
     1
102
MATERIAL
148
0.0
149
0.0
149
0.0
 93
        0
 94
      127
282
     0
 72
     1
 77
     1
171
     1
175
     1
179
     1
273
     0
  0
XRECORD
  5
B7
102
{ACAD_REACTORS
330
B6
102
}
330
B6
100
AcDbXrecord
280
     1
102
MATERIAL
148
0.0
149
0.0
149
0.0
 93
        0
 94
      127
282
     0
 72
     1
 77
     1
171
     1
175
     1
179
     1
273
     0
  0
XRECORD
  5
9B
102
{ACAD_REACTORS
330
9A
102
}
330
9A
100
AcDbXrecord
280
     1
102
RTVSPropertyOp0
 70
     1
102
RTVSPropertyOp1
 70
     1
102
RTVSPropertyOp2
 70
     1
102
RTVSPropertyOp3
 70
     1
102
RTVSPropertyOp4
 70
     1
102
RTVSPropertyOp5
 70
     1
102
RTVSPropertyOp6
 70
     1
102
RTVSPropertyOp7
 70
     1
102
RTVSPropertyOp8
 70
     1
102
RTVSPropertyOp9
 70
     1
102
RTVSPropertyOp10
 70
     1
102
RTVSPropertyOp11
 70
     1
102
RTVSPropertyOp12
 70
     1
102
RTVSPropertyOp13
 70
     1
102
RTVSPropertyOp14
 70
     1
102
RTVSPropertyOp15
 70
     1
102
RTVSPropertyOp16
 70
     1
102
RTVSPropertyOp17
 70
     1
102
RTVSPropertyOp18
 70
     1
102
RTVSPropertyOp19
 70
     1
102
RTVSPropertyOp20
 70
     1
102
RTVSPropertyOp21
 70
     1
102
RTVSPropertyOp22
 70
     1
102
RTVSPropertyOp23
 70
     1
102
RTVSPropertyOp24
 70
     1
102
RTVSPropertyOp25
 70
     1
102
RTVSPropertyOp26
 70
     1
102
RTVSPropertyOp27
 70
     1
  0
XRECORD
  5
9F
102
{ACAD_REACTORS
330
9E
102
}
330
9E
100
AcDbXrecord
280
     1
102
RTVSPropertyOp0
 70
     1
102
RTVSPropertyOp1
 70
     1
102
RTVSPropertyOp2
 70
     1
102
RTVSPropertyOp3
 70
     1
102
RTVSPropertyOp4
 70
     1
102
RTVSPropertyOp5
 70
     1
102
RTVSPropertyOp6
 70
     1
102
RTVSPropertyOp7
 70
     1
102
RTVSPropertyOp8
 70
     1
102
RTVSPropertyOp9
 70
     1
102
RTVSPropertyOp10
 70
     1
102
RTVSPropertyOp11
 70
     1
102
RTVSPropertyOp12
 70
     1
102
RTVSPropertyOp13
 70
     1
102
RTVSPropertyOp14
 70
     1
102
RTVSPropertyOp15
 70
     1
102
RTVSPropertyOp16
 70
     1
102
RTVSPropertyOp17
 70
     1
102
RTVSPropertyOp18
 70
     1
102
RTVSPropertyOp19
 70
     1
102
RTVSPropertyOp20
 70
     1
102
RTVSPropertyOp21
 70
     1
102
RTVSPropertyOp22
 70
     1
102
RTVSPropertyOp23
 70
     1
102
RTVSPropertyOp24
 70
     1
102
RTVSPropertyOp25
 70
     1
102
RTVSPropertyOp26
 70
     1
102
RTVSPropertyOp27
 70
     1
  0
XRECORD
  5
9D
102
{ACAD_REACTORS
330
9C
102
}
330
9C
100
AcDbXrecord
280
     1
102
RTVSPropertyOp0
 70
     1
102
RTVSPropertyOp1
 70
     1
102
RTVSPropertyOp2
 70
     1
102
RTVSPropertyOp3
 70
     1
102
RTVSPropertyOp4
 70
     1
102
RTVSPropertyOp5
 70
     1
102
RTVSPropertyOp6
 70
     1
102
RTVSPropertyOp7
 70
     1
102
RTVSPropertyOp8
 70
     1
102
RTVSPropertyOp9
 70
     1
102
RTVSPropertyOp10
 70
     1
102
RTVSPropertyOp11
 70
     1
102
RTVSPropertyOp12
 70
     1
102
RTVSPropertyOp13
 70
     1
102
RTVSPropertyOp14
 70
     1
102
RTVSPropertyOp15
 70
     1
102
RTVSPropertyOp16
 70
     1
102
RTVSPropertyOp17
 70
     1
102
RTVSPropertyOp18
 70
     1
102
RTVSPropertyOp19
 70
     1
102
RTVSPropertyOp20
 70
     1
102
RTVSPropertyOp21
 70
     1
102
RTVSPropertyOp22
 70
     1
102
RTVSPropertyOp23
 70
     1
102
RTVSPropertyOp24
 70
     1
102
RTVSPropertyOp25
 70
     1
102
RTVSPropertyOp26
 70
     1
102
RTVSPropertyOp27
 70
     1
  0
XRECORD
  5
A1
102
{ACAD_REACTORS
330
A0
102
}
330
A0
100
AcDbXrecord
280
     1
102
RTVSPropertyOp0
 70
     1
102
RTVSPropertyOp1
 70
     1
102
RTVSPropertyOp2
 70
     1
102
RTVSPropertyOp3
 70
     1
102
RTVSPropertyOp4
 70
     1
102
RTVSPropertyOp5
 70
     1
102
RTVSPropertyOp6
 70
     1
102
RTVSPropertyOp7
 70
     1
102
RTVSPropertyOp8
 70
     1
102
RTVSPropertyOp9
 70
     1
102
RTVSPropertyOp10
 70
     1
102
RTVSPropertyOp11
 70
     1
102
RTVSPropertyOp12
 70
     1
102
RTVSPropertyOp13
 70
     1
102
RTVSPropertyOp14
 70
     1
102
RTVSPropertyOp15
 70
     1
102
RTVSPropertyOp16
 70
     1
102
RTVSPropertyOp17
 70
     1
102
RTVSPropertyOp18
 70
     1
102
RTVSPropertyOp19
 70
     1
102
RTVSPropertyOp20
 70
     1
102
RTVSPropertyOp21
 70
     1
102
RTVSPropertyOp22
 70
     1
102
RTVSPropertyOp23
 70
     1
102
RTVSPropertyOp24
 70
     1
102
RTVSPropertyOp25
 70
     1
102
RTVSPropertyOp26
 70
     1
102
RTVSPropertyOp27
 70
     1
  0
XRECORD
  5
A9
102
{ACAD_REACTORS
330
A8
102
}
330
A8
100
AcDbXrecord
280
     1
102
RTVSPropertyOp0
 70
     1
102
RTVSPropertyOp1
 70
     1
102
RTVSPropertyOp2
 70
     1
102
RTVSPropertyOp3
 70
     1
102
RTVSPropertyOp4
 70
     1
102
RTVSPropertyOp5
 70
     1
102
RTVSPropertyOp6
 70
     1
102
RTVSPropertyOp7
 70
     1
102
RTVSPropertyOp8
 70
     1
102
RTVSPropertyOp9
 70
     1
102
RTVSPropertyOp10
 70
     1
102
RTVSPropertyOp11
 70
     1
102
RTVSPropertyOp12
 70
     1
102
RTVSPropertyOp13
 70
     1
102
RTVSPropertyOp14
 70
     1
102
RTVSPropertyOp15
 70
     1
102
RTVSPropertyOp16
 70
     1
102
RTVSPropertyOp17
 70
     1
102
RTVSPropertyOp18
 70
     1
102
RTVSPropertyOp19
 70
     1
102
RTVSPropertyOp20
 70
     1
102
RTVSPropertyOp21
 70
     1
102
RTVSPropertyOp22
 70
     1
102
RTVSPropertyOp23
 70
     1
102
RTVSPropertyOp24
 70
     1
102
RTVSPropertyOp25
 70
     1
102
RTVSPropertyOp26
 70
     1
102
RTVSPropertyOp27
 70
     1
  0
XRECORD
  5
B1
102
{ACAD_REACTORS
330
B0
102
}
330
B0
100
AcDbXrecord
280
     1
102
RTVSPropertyOp0
 70
     1
102
RTVSPropertyOp1
 70
     1
102
RTVSPropertyOp2
 70
     1
102
RTVSPropertyOp3
 70
     1
102
RTVSPropertyOp4
 70
     1
102
RTVSPropertyOp5
 70
     1
102
RTVSPropertyOp6
 70
     1
102
RTVSPropertyOp7
 70
     1
102
RTVSPropertyOp8
 70
     1
102
RTVSPropertyOp9
 70
     1
102
RTVSPropertyOp10
 70
     1
102
RTVSPropertyOp11
 70
     1
102
RTVSPropertyOp12
 70
     1
102
RTVSPropertyOp13
 70
     1
102
RTVSPropertyOp14
 70
     1
102
RTVSPropertyOp15
 70
     1
102
RTVSPropertyOp16
 70
     1
102
RTVSPropertyOp17
 70
     1
102
RTVSPropertyOp18
 70
     1
102
RTVSPropertyOp19
 70
     1
102
RTVSPropertyOp20
 70
     1
102
RTVSPropertyOp21
 70
     1
102
RTVSPropertyOp22
 70
     1
102
RTVSPropertyOp23
 70
     1
102
RTVSPropertyOp24
 70
     1
102
RTVSPropertyOp25
 70
     1
102
RTVSPropertyOp26
 70
     1
102
RTVSPropertyOp27
 70
     1
  0
XRECORD
  5
A5
102
{ACAD_REACTORS
330
A4
102
}
330
A4
100
AcDbXrecord
280
     1
102
RTVSPropertyOp0
 70
     1
102
RTVSPropertyOp1
 70
     1
102
RTVSPropertyOp2
 70
     1
102
RTVSPropertyOp3
 70
     1
102
RTVSPropertyOp4
 70
     1
102
RTVSPropertyOp5
 70
     1
102
RTVSPropertyOp6
 70
     1
102
RTVSPropertyOp7
 70
     1
102
RTVSPropertyOp8
 70
     1
102
RTVSPropertyOp9
 70
     1
102
RTVSPropertyOp10
 70
     1
102
RTVSPropertyOp11
 70
     1
102
RTVSPropertyOp12
 70
     1
102
RTVSPropertyOp13
 70
     1
102
RTVSPropertyOp14
 70
     1
102
RTVSPropertyOp15
 70
     1
102
RTVSPropertyOp16
 70
     1
102
RTVSPropertyOp17
 70
     1
102
RTVSPropertyOp18
 70
     1
102
RTVSPropertyOp19
 70
     1
102
RTVSPropertyOp20
 70
     1
102
RTVSPropertyOp21
 70
     1
102
RTVSPropertyOp22
 70
     1
102
RTVSPropertyOp23
 70
     1
102
RTVSPropertyOp24
 70
     1
102
RTVSPropertyOp25
 70
     1
102
RTVSPropertyOp26
 70
     1
102
RTVSPropertyOp27
 70
     1
  0
XRECORD
  5
A7
102
{ACAD_REACTORS
330
A6
102
}
330
A6
100
AcDbXrecord
280
     1
102
RTVSPropertyOp0
 70
     1
102
RTVSPropertyOp1
 70
     1
102
RTVSPropertyOp2
 70
     1
102
RTVSPropertyOp3
 70
     1
102
RTVSPropertyOp4
 70
     1
102
RTVSPropertyOp5
 70
     1
102
RTVSPropertyOp6
 70
     1
102
RTVSPropertyOp7
 70
     1
102
RTVSPropertyOp8
 70
     1
102
RTVSPropertyOp9
 70
     1
102
RTVSPropertyOp10
 70
     1
102
RTVSPropertyOp11
 70
     1
102
RTVSPropertyOp12
 70
     1
102
RTVSPropertyOp13
 70
     1
102
RTVSPropertyOp14
 70
     1
102
RTVSPropertyOp15
 70
     1
102
RTVSPropertyOp16
 70
     1
102
RTVSPropertyOp17
 70
     1
102
RTVSPropertyOp18
 70
     1
102
RTVSPropertyOp19
 70
     1
102
RTVSPropertyOp20
 70
     1
102
RTVSPropertyOp21
 70
     1
102
RTVSPropertyOp22
 70
     1
102
RTVSPropertyOp23
 70
     1
102
RTVSPropertyOp24
 70
     1
102
RTVSPropertyOp25
 70
     1
102
RTVSPropertyOp26
 70
     1
102
RTVSPropertyOp27
 70
     1
  0
XRECORD
  5
AF
102
{ACAD_REACTORS
330
AE
102
}
330
AE
100
AcDbXrecord
280
     1
102
RTVSPropertyOp0
 70
     1
102
RTVSPropertyOp1
 70
     1
102
RTVSPropertyOp2
 70
     1
102
RTVSPropertyOp3
 70
     1
102
RTVSPropertyOp4
 70
     1
102
RTVSPropertyOp5
 70
     1
102
RTVSPropertyOp6
 70
     1
102
RTVSPropertyOp7
 70
     1
102
RTVSPropertyOp8
 70
     1
102
RTVSPropertyOp9
 70
     1
102
RTVSPropertyOp10
 70
     1
102
RTVSPropertyOp11
 70
     1
102
RTVSPropertyOp12
 70
     1
102
RTVSPropertyOp13
 70
     1
102
RTVSPropertyOp14
 70
     1
102
RTVSPropertyOp15
 70
     1
102
RTVSPropertyOp16
 70
     1
102
RTVSPropertyOp17
 70
     1
102
RTVSPropertyOp18
 70
     1
102
RTVSPropertyOp19
 70
     1
102
RTVSPropertyOp20
 70
     1
102
RTVSPropertyOp21
 70
     1
102
RTVSPropertyOp22
 70
     1
102
RTVSPropertyOp23
 70
     1
102
RTVSPropertyOp24
 70
     1
102
RTVSPropertyOp25
 70
     1
102
RTVSPropertyOp26
 70
     1
102
RTVSPropertyOp27
 70
     1
  0
XRECORD
  5
93
102
{ACAD_REACTORS
330
92
102
}
330
92
100
AcDbXrecord
280
     1
102
RTVSPropertyOp0
 70
     1
102
RTVSPropertyOp1
 70
     1
102
RTVSPropertyOp2
 70
     1
102
RTVSPropertyOp3
 70
     1
102
RTVSPropertyOp4
 70
     1
102
RTVSPropertyOp5
 70
     1
102
RTVSPropertyOp6
 70
     1
102
RTVSPropertyOp7
 70
     1
102
RTVSPropertyOp8
 70
     1
102
RTVSPropertyOp9
 70
     1
102
RTVSPropertyOp10
 70
     1
102
RTVSPropertyOp11
 70
     1
102
RTVSPropertyOp12
 70
     1
102
RTVSPropertyOp13
 70
     1
102
RTVSPropertyOp14
 70
     1
102
RTVSPropertyOp15
 70
     1
102
RTVSPropertyOp16
 70
     1
102
RTVSPropertyOp17
 70
     1
102
RTVSPropertyOp18
 70
     1
102
RTVSPropertyOp19
 70
     1
102
RTVSPropertyOp20
 70
     1
102
RTVSPropertyOp21
 70
     1
102
RTVSPropertyOp22
 70
     1
102
RTVSPropertyOp23
 70
     1
102
RTVSPropertyOp24
 70
     1
102
RTVSPropertyOp25
 70
     1
102
RTVSPropertyOp26
 70
     1
102
RTVSPropertyOp27
 70
     1
  0
XRECORD
  5
95
102
{ACAD_REACTORS
330
94
102
}
330
94
100
AcDbXrecord
280
     1
102
RTVSPropertyOp0
 70
     1
102
RTVSPropertyOp1
 70
     1
102
RTVSPropertyOp2
 70
     1
102
RTVSPropertyOp3
 70
     1
102
RTVSPropertyOp4
 70
     1
102
RTVSPropertyOp5
 70
     1
102
RTVSPropertyOp6
 70
     1
102
RTVSPropertyOp7
 70
     1
102
RTVSPropertyOp8
 70
     1
102
RTVSPropertyOp9
 70
     1
102
RTVSPropertyOp10
 70
     1
102
RTVSPropertyOp11
 70
     1
102
RTVSPropertyOp12
 70
     1
102
RTVSPropertyOp13
 70
     1
102
RTVSPropertyOp14
 70
     1
102
RTVSPropertyOp15
 70
     1
102
RTVSPropertyOp16
 70
     1
102
RTVSPropertyOp17
 70
     1
102
RTVSPropertyOp18
 70
     1
102
RTVSPropertyOp19
 70
     1
102
RTVSPropertyOp20
 70
     1
102
RTVSPropertyOp21
 70
     1
102
RTVSPropertyOp22
 70
     1
102
RTVSPropertyOp23
 70
     1
102
RTVSPropertyOp24
 70
     1
102
RTVSPropertyOp25
 70
     1
102
RTVSPropertyOp26
 70
     1
102
RTVSPropertyOp27
 70
     1
  0
XRECORD
  5
97
102
{ACAD_REACTORS
330
96
102
}
330
96
100
AcDbXrecord
280
     1
102
RTVSPropertyOp0
 70
     1
102
RTVSPropertyOp1
 70
     1
102
RTVSPropertyOp2
 70
     1
102
RTVSPropertyOp3
 70
     1
102
RTVSPropertyOp4
 70
     1
102
RTVSPropertyOp5
 70
     1
102
RTVSPropertyOp6
 70
     1
102
RTVSPropertyOp7
 70
     1
102
RTVSPropertyOp8
 70
     1
102
RTVSPropertyOp9
 70
     1
102
RTVSPropertyOp10
 70
     1
102
RTVSPropertyOp11
 70
     1
102
RTVSPropertyOp12
 70
     1
102
RTVSPropertyOp13
 70
     1
102
RTVSPropertyOp14
 70
     1
102
RTVSPropertyOp15
 70
     1
102
RTVSPropertyOp16
 70
     1
102
RTVSPropertyOp17
 70
     1
102
RTVSPropertyOp18
 70
     1
102
RTVSPropertyOp19
 70
     1
102
RTVSPropertyOp20
 70
     1
102
RTVSPropertyOp21
 70
     1
102
RTVSPropertyOp22
 70
     1
102
RTVSPropertyOp23
 70
     1
102
RTVSPropertyOp24
 70
     1
102
RTVSPropertyOp25
 70
     1
102
RTVSPropertyOp26
 70
     1
102
RTVSPropertyOp27
 70
     1
  0
XRECORD
  5
99
102
{ACAD_REACTORS
330
98
102
}
330
98
100
AcDbXrecord
280
     1
102
RTVSPropertyOp0
 70
     1
102
RTVSPropertyOp1
 70
     1
102
RTVSPropertyOp2
 70
     1
102
RTVSPropertyOp3
 70
     1
102
RTVSPropertyOp4
 70
     1
102
RTVSPropertyOp5
 70
     1
102
RTVSPropertyOp6
 70
     1
102
RTVSPropertyOp7
 70
     1
102
RTVSPropertyOp8
 70
     1
102
RTVSPropertyOp9
 70
     1
102
RTVSPropertyOp10
 70
     1
102
RTVSPropertyOp11
 70
     1
102
RTVSPropertyOp12
 70
     1
102
RTVSPropertyOp13
 70
     1
102
RTVSPropertyOp14
 70
     1
102
RTVSPropertyOp15
 70
     1
102
RTVSPropertyOp16
 70
     1
102
RTVSPropertyOp17
 70
     1
102
RTVSPropertyOp18
 70
     1
102
RTVSPropertyOp19
 70
     1
102
RTVSPropertyOp20
 70
     1
102
RTVSPropertyOp21
 70
     1
102
RTVSPropertyOp22
 70
     1
102
RTVSPropertyOp23
 70
     1
102
RTVSPropertyOp24
 70
     1
102
RTVSPropertyOp25
 70
     1
102
RTVSPropertyOp26
 70
     1
102
RTVSPropertyOp27
 70
     1
  0
XRECORD
  5
AD
102
{ACAD_REACTORS
330
AC
102
}
330
AC
100
AcDbXrecord
280
     1
102
RTVSPropertyOp0
 70
     1
102
RTVSPropertyOp1
 70
     1
102
RTVSPropertyOp2
 70
     1
102
RTVSPropertyOp3
 70
     1
102
RTVSPropertyOp4
 70
     1
102
RTVSPropertyOp5
 70
     1
102
RTVSPropertyOp6
 70
     1
102
RTVSPropertyOp7
 70
     1
102
RTVSPropertyOp8
 70
     1
102
RTVSPropertyOp9
 70
     1
102
RTVSPropertyOp10
 70
     1
102
RTVSPropertyOp11
 70
     1
102
RTVSPropertyOp12
 70
     1
102
RTVSPropertyOp13
 70
     1
102
RTVSPropertyOp14
 70
     1
102
RTVSPropertyOp15
 70
     1
102
RTVSPropertyOp16
 70
     1
102
RTVSPropertyOp17
 70
     1
102
RTVSPropertyOp18
 70
     1
102
RTVSPropertyOp19
 70
     1
102
RTVSPropertyOp20
 70
     1
102
RTVSPropertyOp21
 70
     1
102
RTVSPropertyOp22
 70
     1
102
RTVSPropertyOp23
 70
     1
102
RTVSPropertyOp24
 70
     1
102
RTVSPropertyOp25
 70
     1
102
RTVSPropertyOp26
 70
     1
102
RTVSPropertyOp27
 70
     1
  0
XRECORD
  5
A3
102
{ACAD_REACTORS
330
A2
102
}
330
A2
100
AcDbXrecord
280
     1
102
RTVSPropertyOp0
 70
     1
102
RTVSPropertyOp1
 70
     1
102
RTVSPropertyOp2
 70
     1
102
RTVSPropertyOp3
 70
     1
102
RTVSPropertyOp4
 70
     1
102
RTVSPropertyOp5
 70
     1
102
RTVSPropertyOp6
 70
     1
102
RTVSPropertyOp7
 70
     1
102
RTVSPropertyOp8
 70
     1
102
RTVSPropertyOp9
 70
     1
102
RTVSPropertyOp10
 70
     1
102
RTVSPropertyOp11
 70
     1
102
RTVSPropertyOp12
 70
     1
102
RTVSPropertyOp13
 70
     1
102
RTVSPropertyOp14
 70
     1
102
RTVSPropertyOp15
 70
     1
102
RTVSPropertyOp16
 70
     1
102
RTVSPropertyOp17
 70
     1
102
RTVSPropertyOp18
 70
     1
102
RTVSPropertyOp19
 70
     1
102
RTVSPropertyOp20
 70
     1
102
RTVSPropertyOp21
 70
     1
102
RTVSPropertyOp22
 70
     1
102
RTVSPropertyOp23
 70
     1
102
RTVSPropertyOp24
 70
     1
102
RTVSPropertyOp25
 70
     1
102
RTVSPropertyOp26
 70
     1
102
RTVSPropertyOp27
 70
     1
  0
XRECORD
  5
AB
102
{ACAD_REACTORS
330
AA
102
}
330
AA
100
AcDbXrecord
280
     1
102
RTVSPropertyOp0
 70
     1
102
RTVSPropertyOp1
 70
     1
102
RTVSPropertyOp2
 70
     1
102
RTVSPropertyOp3
 70
     1
102
RTVSPropertyOp4
 70
     1
102
RTVSPropertyOp5
 70
     1
102
RTVSPropertyOp6
 70
     1
102
RTVSPropertyOp7
 70
     1
102
RTVSPropertyOp8
 70
     1
102
RTVSPropertyOp9
 70
     1
102
RTVSPropertyOp10
 70
     1
102
RTVSPropertyOp11
 70
     1
102
RTVSPropertyOp12
 70
     1
102
RTVSPropertyOp13
 70
     1
102
RTVSPropertyOp14
 70
     1
102
RTVSPropertyOp15
 70
     1
102
RTVSPropertyOp16
 70
     1
102
RTVSPropertyOp17
 70
     1
102
RTVSPropertyOp18
 70
     1
102
RTVSPropertyOp19
 70
     1
102
RTVSPropertyOp20
 70
     1
102
RTVSPropertyOp21
 70
     1
102
RTVSPropertyOp22
 70
     1
102
RTVSPropertyOp23
 70
     1
102
RTVSPropertyOp24
 70
     1
102
RTVSPropertyOp25
 70
     1
102
RTVSPropertyOp26
 70
     1
102
RTVSPropertyOp27
 70
     1
  0
ENDSEC
  0
EOF
