  0
SECTION
  2
HEADER
  9
$ACADVER
  1
AC1014
  9
$ACADMAINTVER
 70
     9
  9
$DWGCODEPAGE
  3
ANSI_1250
  9
$INSBASE
 10
0.0
 20
0.0
 30
0.0
  9
$EXTMIN
 10
-25.8618
 20
-70.0532
 30
0.0
  9
$EXTMAX
 10
26.0027
 20
70.0532
 30
0.0
  9
$LIMMIN
 10
0.0
 20
0.0
  9
$LIMMAX
 10
12.0
 20
9.0
  9
$ORTHOMODE
 70
     0
  9
$REGENMODE
 70
     1
  9
$FILLMODE
 70
     1
  9
$QTEXTMODE
 70
     0
  9
$MIRRTEXT
 70
     1
  9
$DRAGMODE
 70
     2
  9
$LTSCALE
 40
1.0
  9
$OSMODE
 70
    37
  9
$ATTMODE
 70
     1
  9
$TEXTSIZE
 40
0.2
  9
$TRACEWID
 40
0.05
  9
$TEXTSTYLE
  7
STANDARD
  9
$CLAYER
  8
0
  9
$CELTYPE
  6
BYLAYER
  9
$CECOLOR
 62
   256
  9
$CELTSCALE
 40
1.0
  9
$DELOBJ
 70
     1
  9
$DISPSILH
 70
     0
  9
$DIMSCALE
 40
1.0
  9
$DIMASZ
 40
0.18
  9
$DIMEXO
 40
0.0625
  9
$DIMDLI
 40
0.38
  9
$DIMRND
 40
0.0
  9
$DIMDLE
 40
0.0
  9
$DIMEXE
 40
0.18
  9
$DIMTP
 40
0.0
  9
$DIMTM
 40
0.0
  9
$DIMTXT
 40
0.18
  9
$DIMCEN
 40
0.09
  9
$DIMTSZ
 40
0.0
  9
$DIMTOL
 70
     0
  9
$DIMLIM
 70
     0
  9
$DIMTIH
 70
     1
  9
$DIMTOH
 70
     1
  9
$DIMSE1
 70
     0
  9
$DIMSE2
 70
     0
  9
$DIMTAD
 70
     0
  9
$DIMZIN
 70
     0
  9
$DIMBLK
  1

  9
$DIMASO
 70
     1
  9
$DIMSHO
 70
     1
  9
$DIMPOST
  1

  9
$DIMAPOST
  1

  9
$DIMALT
 70
     0
  9
$DIMALTD
 70
     2
  9
$DIMALTF
 40
25.4
  9
$DIMLFAC
 40
1.0
  9
$DIMTOFL
 70
     0
  9
$DIMTVP
 40
0.0
  9
$DIMTIX
 70
     0
  9
$DIMSOXD
 70
     0
  9
$DIMSAH
 70
     0
  9
$DIMBLK1
  1

  9
$DIMBLK2
  1

  9
$DIMSTYLE
  2
STANDARD
  9
$DIMCLRD
 70
     0
  9
$DIMCLRE
 70
     0
  9
$DIMCLRT
 70
     0
  9
$DIMTFAC
 40
1.0
  9
$DIMGAP
 40
0.09
  9
$DIMJUST
 70
     0
  9
$DIMSD1
 70
     0
  9
$DIMSD2
 70
     0
  9
$DIMTOLJ
 70
     1
  9
$DIMTZIN
 70
     0
  9
$DIMALTZ
 70
     0
  9
$DIMALTTZ
 70
     0
  9
$DIMFIT
 70
     3
  9
$DIMUPT
 70
     0
  9
$DIMUNIT
 70
     2
  9
$DIMDEC
 70
     4
  9
$DIMTDEC
 70
     4
  9
$DIMALTU
 70
     2
  9
$DIMALTTD
 70
     2
  9
$DIMTXSTY
  7
STANDARD
  9
$DIMAUNIT
 70
     0
  9
$LUNITS
 70
     2
  9
$LUPREC
 70
     4
  9
$SKETCHINC
 40
0.1
  9
$FILLETRAD
 40
0.5
  9
$AUNITS
 70
     0
  9
$AUPREC
 70
     0
  9
$MENU
  1
.
  9
$ELEVATION
 40
0.0
  9
$PELEVATION
 40
0.0
  9
$THICKNESS
 40
0.0
  9
$LIMCHECK
 70
     0
  9
$CHAMFERA
 40
0.5
  9
$CHAMFERB
 40
0.5
  9
$CHAMFERC
 40
1.0
  9
$CHAMFERD
 40
0.0
  9
$SKPOLY
 70
     0
  9
$TDCREATE
 40
2456272.405623229
  9
$TDUPDATE
 40
2456272.405623241
  9
$TDINDWG
 40
0.0000000116
  9
$TDUSRTIMER
 40
0.0000000116
  9
$USRTIMER
 70
     1
  9
$ANGBASE
 50
0.0
  9
$ANGDIR
 70
     0
  9
$PDMODE
 70
     0
  9
$PDSIZE
 40
0.0
  9
$PLINEWID
 40
0.0
  9
$COORDS
 70
     1
  9
$SPLFRAME
 70
     0
  9
$SPLINETYPE
 70
     6
  9
$SPLINESEGS
 70
     8
  9
$ATTDIA
 70
     0
  9
$ATTREQ
 70
     1
  9
$HANDLING
 70
     1
  9
$HANDSEED
  5
A1
  9
$SURFTAB1
 70
     6
  9
$SURFTAB2
 70
     6
  9
$SURFTYPE
 70
     6
  9
$SURFU
 70
     6
  9
$SURFV
 70
     6
  9
$UCSNAME
  2

  9
$UCSORG
 10
0.0
 20
0.0
 30
0.0
  9
$UCSXDIR
 10
1.0
 20
0.0
 30
0.0
  9
$UCSYDIR
 10
0.0
 20
1.0
 30
0.0
  9
$PUCSNAME
  2

  9
$PUCSORG
 10
0.0
 20
0.0
 30
0.0
  9
$PUCSXDIR
 10
1.0
 20
0.0
 30
0.0
  9
$PUCSYDIR
 10
0.0
 20
1.0
 30
0.0
  9
$USERI1
 70
     0
  9
$USERI2
 70
     0
  9
$USERI3
 70
     0
  9
$USERI4
 70
     0
  9
$USERI5
 70
     0
  9
$USERR1
 40
0.0
  9
$USERR2
 40
0.0
  9
$USERR3
 40
0.0
  9
$USERR4
 40
0.0
  9
$USERR5
 40
0.0
  9
$WORLDVIEW
 70
     1
  9
$SHADEDGE
 70
     3
  9
$SHADEDIF
 70
    70
  9
$TILEMODE
 70
     1
  9
$MAXACTVP
 70
    64
  9
$PINSBASE
 10
0.0
 20
0.0
 30
0.0
  9
$PLIMCHECK
 70
     0
  9
$PEXTMIN
 10
1.000000000000000E+20
 20
1.000000000000000E+20
 30
1.000000000000000E+20
  9
$PEXTMAX
 10
-1.000000000000000E+20
 20
-1.000000000000000E+20
 30
-1.000000000000000E+20
  9
$PLIMMIN
 10
0.0
 20
0.0
  9
$PLIMMAX
 10
12.0
 20
9.0
  9
$UNITMODE
 70
     0
  9
$VISRETAIN
 70
     1
  9
$PLINEGEN
 70
     0
  9
$PSLTSCALE
 70
     1
  9
$TREEDEPTH
 70
  3020
  9
$PICKSTYLE
 70
     1
  9
$CMLSTYLE
  2
STANDARD
  9
$CMLJUST
 70
     0
  9
$CMLSCALE
 40
1.0
  9
$PROXYGRAPHICS
 70
     1
  9
$MEASUREMENT
 70
     0
  0
ENDSEC
  0
SECTION
  2
CLASSES
  0
CLASS
  1
ACDBDICTIONARYWDFLT
  2
AcDbDictionaryWithDefault
  3
ObjectDBX Classes
 90
        0
280
     0
281
     0
  0
CLASS
  1
VISUALSTYLE
  2
AcDbVisualStyle
  3
ObjectDBX Classes
 90
     4095
280
     0
281
     0
  0
CLASS
  1
MATERIAL
  2
AcDbMaterial
  3
ObjectDBX Classes
 90
     1153
280
     0
281
     0
  0
CLASS
  1
DICTIONARYVAR
  2
AcDbDictionaryVar
  3
ObjectDBX Classes
 90
        0
280
     0
281
     0
  0
CLASS
  1
XRECORD
  2
AcDbXrecord
  3
AutoCAD 2000
 90
        0
280
     0
281
     0
  0
CLASS
  1
LWPOLYLINE
  2
AcDbPolyline
  3
AutoCAD 2000
 90
        0
280
     0
281
     1
  0
CLASS
  1
HATCH
  2
AcDbHatch
  3
AutoCAD 2000
 90
        0
280
     0
281
     1
  0
CLASS
  1
ACDBPLACEHOLDER
  2
AcDbPlaceHolder
  3
ObjectDBX Classes
 90
        0
280
     0
281
     0
  0
CLASS
  1
LAYOUT
  2
AcDbLayout
  3
ObjectDBX Classes
 90
        0
280
     0
281
     0
  0
ENDSEC
  0
SECTION
  2
TABLES
  0
TABLE
  2
VPORT
  5
8
330
0
100
AcDbSymbolTable
 70
     1
  0
VPORT
  5
29
330
8
100
AcDbSymbolTableRecord
100
AcDbViewportTableRecord
  2
*ACTIVE
 70
     0
 10
0.0
 20
0.0
 11
1.0
 21
1.0
 12
10.42990654205607
 22
4.5
 13
0.0
 23
0.0
 14
0.5
 24
0.5
 15
0.5
 25
0.5
 16
0.0
 26
0.0
 36
1.0
 17
0.0
 27
0.0
 37
0.0
 40
9.0
 41
1.972972972850329
 42
50.0
 43
0.0
 44
0.0
 50
0.0
 51
0.0
 71
     0
 72
   100
 73
     1
 74
     3
 75
     0
 76
     0
 77
     0
 78
     0
  0
ENDTAB
  0
TABLE
  2
LTYPE
  5
5
330
0
100
AcDbSymbolTable
 70
     2
  0
LTYPE
  5
14
330
5
100
AcDbSymbolTableRecord
100
AcDbLinetypeTableRecord
  2
BYBLOCK
 70
     0
  3

 72
    65
 73
     0
 40
0.0
  0
LTYPE
  5
15
330
5
100
AcDbSymbolTableRecord
100
AcDbLinetypeTableRecord
  2
BYLAYER
 70
     0
  3

 72
    65
 73
     0
 40
0.0
  0
LTYPE
  5
16
330
5
100
AcDbSymbolTableRecord
100
AcDbLinetypeTableRecord
  2
CONTINUOUS
 70
     0
  3
Solid line
 72
    65
 73
     0
 40
0.0
  0
LTYPE
  5
48
330
5
100
AcDbSymbolTableRecord
100
AcDbLinetypeTableRecord
  2
NEW_LINE1
 70
     0
  3

 72
    65
 73
     4
 40
1.2
 49
0.5
 74
     4
 75
     0
340
0
 46
1.0
 50
0.0
 44
0.0
 45
0.0
 49
-0.3
 74
     4
 75
     0
340
0
 46
1.0
 50
0.0
 44
0.0
 45
0.0
 49
0.1
 74
     4
 75
     0
340
0
 46
1.0
 50
0.0
 44
0.0
 45
0.0
 49
-0.3
 74
     4
 75
     0
340
0
 46
1.0
 50
0.0
 44
0.0
 45
0.0
  0
ENDTAB
  0
TABLE
  2
LAYER
  5
2
330
0
100
AcDbSymbolTable
 70
     2
  0
LAYER
  5
10
330
2
100
AcDbSymbolTableRecord
100
AcDbLayerTableRecord
  2
0
 70
     0
 62
     7
  6
CONTINUOUS
  0
LAYER
  5
40
330
2
100
AcDbSymbolTableRecord
100
AcDbLayerTableRecord
  2
ROUND
 70
     0
 62
     7
  6
CONTINUOUS
  0
ENDTAB
  0
TABLE
  2
STYLE
  5
3
330
0
100
AcDbSymbolTable
 70
     1
  0
STYLE
  5
11
330
3
100
AcDbSymbolTableRecord
100
AcDbTextStyleTableRecord
  2
STANDARD
 70
     0
 40
0.0
 41
1.0
 50
0.0
 71
     0
 42
0.2
  3
txt
  4

  0
ENDTAB
  0
TABLE
  2
VIEW
  5
6
330
0
100
AcDbSymbolTable
 70
     0
  0
ENDTAB
  0
TABLE
  2
UCS
  5
7
330
0
100
AcDbSymbolTable
 70
     0
  0
ENDTAB
  0
TABLE
  2
APPID
  5
9
330
0
100
AcDbSymbolTable
 70
     2
  0
APPID
  5
12
330
9
100
AcDbSymbolTableRecord
100
AcDbRegAppTableRecord
  2
ACAD
 70
     0
  0
APPID
  5
3F
330
9
100
AcDbSymbolTableRecord
100
AcDbRegAppTableRecord
  2
ODA
 70
     0
  0
ENDTAB
  0
TABLE
  2
DIMSTYLE
  5
A
330
0
100
AcDbSymbolTable
 70
     1
  0
DIMSTYLE
105
27
330
A
100
AcDbSymbolTableRecord
100
AcDbDimStyleTableRecord
  2
STANDARD
 70
     0
  3

  4

  5

  6

  7

 40
1.0
 41
0.18
 42
0.0625
 43
0.38
 44
0.18
 45
0.0
 46
0.0
 47
0.0
 48
0.0
140
0.18
141
0.09
142
0.0
143
25.4
144
1.0
145
0.0
146
1.0
147
0.09
 71
     0
 72
     0
 73
     1
 74
     1
 75
     0
 76
     0
 77
     0
 78
     0
170
     0
171
     2
172
     0
173
     0
174
     0
175
     0
176
     0
177
     0
178
     0
270
     2
271
     4
272
     4
273
     2
274
     2
340
11
275
     0
280
     0
281
     0
282
     0
283
     1
284
     0
285
     0
286
     0
287
     3
288
     0
  0
ENDTAB
  0
TABLE
  2
BLOCK_RECORD
  5
1
330
0
100
AcDbSymbolTable
 70
     1
  0
BLOCK_RECORD
  5
1F
330
1
100
AcDbSymbolTableRecord
100
AcDbBlockTableRecord
  2
*MODEL_SPACE
  0
BLOCK_RECORD
  5
1B
330
1
100
AcDbSymbolTableRecord
100
AcDbBlockTableRecord
  2
*PAPER_SPACE
  0
ENDTAB
  0
ENDSEC
  0
SECTION
  2
BLOCKS
  0
BLOCK
  5
20
330
1F
100
AcDbEntity
  8
0
100
AcDbBlockBegin
  2
*MODEL_SPACE
 70
     0
 10
0.0
 20
0.0
 30
0.0
  3
*MODEL_SPACE
  1

  0
ENDBLK
  5
21
330
1F
100
AcDbEntity
  8
0
100
AcDbBlockEnd
  0
BLOCK
  5
1C
330
1B
100
AcDbEntity
 67
     1
  8
0
100
AcDbBlockBegin
  2
*PAPER_SPACE
 70
     0
 10
0.0
 20
0.0
 30
0.0
  3
*PAPER_SPACE
  1

  0
ENDBLK
  5
1D
330
1B
100
AcDbEntity
 67
     1
  8
0
100
AcDbBlockEnd
  0
ENDSEC
  0
SECTION
  2
ENTITIES
  0
SPLINE
  5
41
330
1F
100
AcDbEntity
  8
ROUND
 62
   250
100
AcDbSpline
210
0.0
220
0.0
230
1.0
 70
    24
 71
     3
 72
     8
 73
     4
 74
     0
 42
0.0000000001
 43
0.0000000001
 40
0.0
 40
0.0
 40
0.0
 40
0.0
 40
1.0
 40
1.0
 40
1.0
 40
1.0
 10
-11.5987
 20
-61.1312
 30
0.0
 10
-11.5987
 20
-61.1312
 30
0.0
 10
21.8765
 20
-61.1312
 30
0.0
 10
21.8765
 20
-61.1312
 30
0.0
  0
SPLINE
  5
42
330
1F
100
AcDbEntity
  8
ROUND
 62
   250
100
AcDbSpline
210
0.0
220
0.0
230
1.0
 70
    24
 71
     3
 72
     8
 73
     4
 74
     0
 42
0.0000000001
 43
0.0000000001
 40
0.0
 40
0.0
 40
0.0
 40
0.0
 40
1.0
 40
1.0
 40
1.0
 40
1.0
 10
-12.3957
 20
45.8232
 30
0.0
 10
-12.3957
 20
45.8232
 30
0.0
 10
22.6735
 20
45.8232
 30
0.0
 10
22.6735
 20
45.8232
 30
0.0
  0
SPLINE
  5
43
330
1F
100
AcDbEntity
  8
ROUND
 62
   250
100
AcDbSpline
210
0.0
220
0.0
230
1.0
 70
    24
 71
     3
 72
     8
 73
     4
 74
     0
 42
0.0000000001
 43
0.0000000001
 40
0.0
 40
0.0
 40
0.0
 40
0.0
 40
1.0
 40
1.0
 40
1.0
 40
1.0
 10
-15.5839
 20
51.3452
 30
0.0
 10
-15.5839
 20
51.3452
 30
0.0
 10
25.8616
 20
51.3452
 30
0.0
 10
25.8616
 20
51.3452
 30
0.0
  0
SPLINE
  5
44
330
1F
100
AcDbEntity
  8
ROUND
 62
   250
100
AcDbSpline
210
0.0
220
0.0
230
1.0
 70
    24
 71
     3
 72
     8
 73
     4
 74
     0
 42
0.0000000001
 43
0.0000000001
 40
0.0
 40
0.0
 40
0.0
 40
0.0
 40
1.0
 40
1.0
 40
1.0
 40
1.0
 10
-15.5839
 20
51.3452
 30
0.0
 10
-15.5839
 20
51.3452
 30
0.0
 10
-12.3957
 20
45.8232
 30
0.0
 10
-12.3957
 20
45.8232
 30
0.0
  0
SPLINE
  5
45
330
1F
100
AcDbEntity
  8
ROUND
 62
   250
100
AcDbSpline
210
0.0
220
0.0
230
1.0
 70
    24
 71
     3
 72
     8
 73
     4
 74
     0
 42
0.0000000001
 43
0.0000000001
 40
0.0
 40
0.0
 40
0.0
 40
0.0
 40
1.0
 40
1.0
 40
1.0
 40
1.0
 10
-15.5839
 20
55.4897
 30
0.0
 10
-15.5839
 20
55.4897
 30
0.0
 10
-15.5839
 20
51.3452
 30
0.0
 10
-15.5839
 20
51.3452
 30
0.0
  0
SPLINE
  5
46
330
1F
100
AcDbEntity
  8
ROUND
 62
   250
100
AcDbSpline
210
0.0
220
0.0
230
1.0
 70
    24
 71
     3
 72
     8
 73
     4
 74
     0
 42
0.0000000001
 43
0.0000000001
 40
0.0
 40
0.0
 40
0.0
 40
0.0
 40
1.0
 40
1.0
 40
1.0
 40
1.0
 10
-12.3957
 20
45.8231
 30
0.0
 10
-12.3957
 20
45.8231
 30
0.0
 10
-12.3957
 20
-60.3671
 30
0.0
 10
-12.3957
 20
-60.3671
 30
0.0
  0
SPLINE
  5
47
330
1F
100
AcDbEntity
  8
ROUND
  6
NEW_LINE1
 62
   250
100
AcDbSpline
210
0.0
220
0.0
230
1.0
 70
    24
 71
     3
 72
     8
 73
     4
 74
     0
 42
0.0000000001
 43
0.0000000001
 40
0.0
 40
0.0
 40
0.0
 40
0.0
 40
1.0
 40
1.0
 40
1.0
 40
1.0
 10
5.1389
 20
-62.7238
 30
0.0
 10
5.1389
 20
-62.7238
 30
0.0
 10
5.1389
 20
58.1464
 30
0.0
 10
5.1389
 20
58.1464
 30
0.0
  0
SPLINE
  5
49
330
1F
100
AcDbEntity
  8
ROUND
 62
   250
100
AcDbSpline
210
0.0
220
0.0
230
1.0
 70
    24
 71
     3
 72
     8
 73
     4
 74
     0
 42
0.0000000001
 43
0.0000000001
 40
0.0
 40
0.0
 40
0.0
 40
0.0
 40
1.0
 40
1.0
 40
1.0
 40
1.0
 10
22.6735
 20
45.8231
 30
0.0
 10
22.6735
 20
45.8231
 30
0.0
 10
22.6735
 20
-60.3671
 30
0.0
 10
22.6735
 20
-60.3671
 30
0.0
  0
SPLINE
  5
4A
330
1F
100
AcDbEntity
  8
ROUND
 62
   250
100
AcDbSpline
210
0.0
220
0.0
230
1.0
 70
    24
 71
     3
 72
     8
 73
     4
 74
     0
 42
0.0000000001
 43
0.0000000001
 40
0.0
 40
0.0
 40
0.0
 40
0.0
 40
1.0
 40
1.0
 40
1.0
 40
1.0
 10
25.8616
 20
55.4897
 30
0.0
 10
25.8616
 20
55.4897
 30
0.0
 10
25.8616
 20
51.3452
 30
0.0
 10
25.8616
 20
51.3452
 30
0.0
  0
SPLINE
  5
4B
330
1F
100
AcDbEntity
  8
ROUND
 62
   250
100
AcDbSpline
210
0.0
220
0.0
230
1.0
 70
    24
 71
     3
 72
     8
 73
     4
 74
     0
 42
0.0000000001
 43
0.0000000001
 40
0.0
 40
0.0
 40
0.0
 40
0.0
 40
1.0
 40
1.0
 40
1.0
 40
1.0
 10
25.8616
 20
51.3452
 30
0.0
 10
25.8616
 20
51.3452
 30
0.0
 10
22.6735
 20
45.8232
 30
0.0
 10
22.6735
 20
45.8232
 30
0.0
  0
SPLINE
  5
4C
330
1F
100
AcDbEntity
  8
ROUND
 62
   250
100
AcDbSpline
210
0.0
220
0.0
230
1.0
 70
    24
 71
     3
 72
     8
 73
     4
 74
     0
 42
0.0000000001
 43
0.0000000001
 40
0.0
 40
0.0
 40
0.0
 40
0.0
 40
1.0
 40
1.0
 40
1.0
 40
1.0
 10
-11.7582
 20
-61.1312
 30
0.0
 10
-11.7582
 20
-61.1312
 30
0.0
 10
-22.5458
 20
-61.1312
 30
0.0
 10
-22.5458
 20
-61.1312
 30
0.0
  0
SPLINE
  5
4D
330
1F
100
AcDbEntity
  8
ROUND
 62
   250
100
AcDbSpline
210
0.0
220
0.0
230
1.0
 70
    24
 71
     3
 72
     8
 73
     4
 74
     0
 42
0.0000000001
 43
0.0000000001
 40
0.0
 40
0.0
 40
0.0
 40
0.0
 40
1.0
 40
1.0
 40
1.0
 40
1.0
 10
-14.9463
 20
56.1274
 30
0.0
 10
-14.9463
 20
56.1274
 30
0.0
 10
-22.5458
 20
56.1274
 30
0.0
 10
-22.5458
 20
56.1274
 30
0.0
  0
SPLINE
  5
4E
330
1F
100
AcDbEntity
  8
ROUND
 62
   250
100
AcDbSpline
210
0.0
220
0.0
230
1.0
 70
    24
 71
     3
 72
     8
 73
     4
 74
     0
 42
0.0000000001
 43
0.0000000001
 40
0.0
 40
0.0
 40
0.0
 40
0.0
 40
1.0
 40
1.0
 40
1.0
 40
1.0
 10
-11.7582
 20
-61.1312
 30
0.0
 10
-11.7582
 20
-61.1312
 30
0.0
 10
22.0359
 20
-61.1312
 30
0.0
 10
22.0359
 20
-61.1312
 30
0.0
  0
SPLINE
  5
4F
330
1F
100
AcDbEntity
  8
ROUND
 62
   250
100
AcDbSpline
210
0.0
220
0.0
230
1.0
 70
    24
 71
     3
 72
     8
 73
     4
 74
     0
 42
0.0000000001
 43
0.0000000001
 40
0.0
 40
0.0
 40
0.0
 40
0.0
 40
1.0
 40
1.0
 40
1.0
 40
1.0
 10
-12.3957
 20
-60.4936
 30
0.0
 10
-12.3957
 20
-60.4936
 30
0.0
 10
22.6735
 20
-60.4936
 30
0.0
 10
22.6735
 20
-60.4936
 30
0.0
  0
SPLINE
  5
50
330
1F
100
AcDbEntity
  8
ROUND
 62
   250
100
AcDbSpline
210
0.0
220
0.0
230
1.0
 70
    24
 71
     3
 72
     8
 73
     4
 74
     0
 42
0.0000000001
 43
0.0000000001
 40
0.0
 40
0.0
 40
0.0
 40
0.0
 40
1.0
 40
1.0
 40
1.0
 40
1.0
 10
-15.5839
 20
55.4897
 30
0.0
 10
-15.5839
 20
55.4897
 30
0.0
 10
25.8616
 20
55.4897
 30
0.0
 10
25.8616
 20
55.4897
 30
0.0
  0
SPLINE
  5
51
330
1F
100
AcDbEntity
  8
ROUND
 62
   250
100
AcDbSpline
210
0.0
220
0.0
230
1.0
 70
    24
 71
     3
 72
     8
 73
     4
 74
     0
 42
0.0000000001
 43
0.0000000001
 40
0.0
 40
0.0
 40
0.0
 40
0.0
 40
1.0
 40
1.0
 40
1.0
 40
1.0
 10
-14.9463
 20
56.1274
 30
0.0
 10
-14.9463
 20
56.1274
 30
0.0
 10
25.2241
 20
56.1274
 30
0.0
 10
25.2241
 20
56.1274
 30
0.0
  0
SPLINE
  5
52
330
1F
100
AcDbEntity
  8
ROUND
 62
   250
100
AcDbSpline
210
0.0
220
0.0
230
1.0
 70
    24
 71
     3
 72
     8
 73
     4
 74
     0
 42
0.0000000001
 43
0.0000000001
 40
0.0
 40
0.0
 40
0.0
 40
0.0
 40
1.0
 40
1.0
 40
1.0
 40
1.0
 10
-11.7582
 20
-61.1312
 30
0.0
 10
-11.7582
 20
-61.1312
 30
0.0
 10
-12.3957
 20
-60.4936
 30
0.0
 10
-12.3957
 20
-60.4936
 30
0.0
  0
SPLINE
  5
53
330
1F
100
AcDbEntity
  8
ROUND
 62
   250
100
AcDbSpline
210
0.0
220
0.0
230
1.0
 70
    24
 71
     3
 72
     8
 73
     4
 74
     0
 42
0.0000000001
 43
0.0000000001
 40
0.0
 40
0.0
 40
0.0
 40
0.0
 40
1.0
 40
1.0
 40
1.0
 40
1.0
 10
-14.9463
 20
56.1274
 30
0.0
 10
-14.9463
 20
56.1274
 30
0.0
 10
-15.5839
 20
55.4897
 30
0.0
 10
-15.5839
 20
55.4897
 30
0.0
  0
SPLINE
  5
54
330
1F
100
AcDbEntity
  8
ROUND
 62
   250
100
AcDbSpline
210
0.0
220
0.0
230
1.0
 70
    24
 71
     3
 72
     8
 73
     4
 74
     0
 42
0.0000000001
 43
0.0000000001
 40
0.0
 40
0.0
 40
0.0
 40
0.0
 40
1.0
 40
1.0
 40
1.0
 40
1.0
 10
25.2241
 20
56.1274
 30
0.0
 10
25.2241
 20
56.1274
 30
0.0
 10
25.8616
 20
55.4897
 30
0.0
 10
25.8616
 20
55.4897
 30
0.0
  0
SPLINE
  5
55
330
1F
100
AcDbEntity
  8
ROUND
 62
   250
100
AcDbSpline
210
0.0
220
0.0
230
1.0
 70
    24
 71
     3
 72
     8
 73
     4
 74
     0
 42
0.0000000001
 43
0.0000000001
 40
0.0
 40
0.0
 40
0.0
 40
0.0
 40
1.0
 40
1.0
 40
1.0
 40
1.0
 10
22.0359
 20
-61.1312
 30
0.0
 10
22.0359
 20
-61.1312
 30
0.0
 10
22.6735
 20
-60.4936
 30
0.0
 10
22.6735
 20
-60.4936
 30
0.0
  0
SPLINE
  5
56
330
1F
100
AcDbEntity
  8
ROUND
 62
   250
100
AcDbSpline
210
0.0
220
0.0
230
1.0
 70
    24
 71
     3
 72
     8
 73
     4
 74
     0
 42
0.0000000001
 43
0.0000000001
 40
0.0
 40
0.0
 40
0.0
 40
0.0
 40
1.0
 40
1.0
 40
1.0
 40
1.0
 10
-15.7635
 20
56.7212
 30
0.0
 10
-15.7635
 20
56.7212
 30
0.0
 10
-15.7635
 20
66.5112
 30
0.0
 10
-15.7635
 20
66.5112
 30
0.0
  0
SPLINE
  5
57
330
1F
100
AcDbEntity
  8
ROUND
 62
   250
100
AcDbSpline
210
0.0
220
0.0
230
1.0
 70
    24
 71
     3
 72
     8
 73
     4
 74
     0
 42
0.0000000001
 43
0.0000000001
 40
0.0
 40
0.0
 40
0.0
 40
0.0
 40
1.0
 40
1.0
 40
1.0
 40
1.0
 10
25.6821
 20
56.7212
 30
0.0
 10
25.6821
 20
56.7212
 30
0.0
 10
25.6821
 20
66.9076
 30
0.0
 10
25.6821
 20
66.9076
 30
0.0
  0
SPLINE
  5
58
330
1F
100
AcDbEntity
  8
ROUND
 62
   250
100
AcDbSpline
210
0.0
220
0.0
230
1.0
 70
    24
 71
     3
 72
     8
 73
     4
 74
     0
 42
0.0000000001
 43
0.0000000001
 40
0.0
 40
0.0
 40
0.0
 40
0.0
 40
1.0
 40
1.0
 40
1.0
 40
1.0
 10
-12.4756
 20
-61.8658
 30
0.0
 10
-12.4756
 20
-61.8658
 30
0.0
 10
-12.4756
 20
-70.0532
 30
0.0
 10
-12.4756
 20
-70.0532
 30
0.0
  0
SPLINE
  5
59
330
1F
100
AcDbEntity
  8
ROUND
 62
   250
100
AcDbSpline
210
0.0
220
0.0
230
1.0
 70
    24
 71
     3
 72
     8
 73
     4
 74
     0
 42
0.0000000001
 43
0.0000000001
 40
0.0
 40
0.0
 40
0.0
 40
0.0
 40
1.0
 40
1.0
 40
1.0
 40
1.0
 10
22.5936
 20
-61.8658
 30
0.0
 10
22.5936
 20
-61.8658
 30
0.0
 10
22.5936
 20
-70.0119
 30
0.0
 10
22.5936
 20
-70.0119
 30
0.0
  0
SPLINE
  5
5A
330
1F
100
AcDbEntity
  8
ROUND
 62
   250
100
AcDbSpline
210
0.0
220
0.0
230
1.0
 70
    11
 71
     3
 72
    84
 73
    80
 74
     0
 42
0.0000000001
 43
0.0000000001
 40
0.0
 40
0.0
 40
0.0
 40
0.0
 40
0.0476190476190476
 40
0.0476190476190476
 40
0.0476190476190476
 40
0.0476190476190476
 40
0.0952380952380952
 40
0.0952380952380952
 40
0.0952380952380952
 40
0.0952380952380952
 40
0.1428571428571428
 40
0.1428571428571428
 40
0.1428571428571428
 40
0.1428571428571428
 40
0.1904761904761905
 40
0.1904761904761905
 40
0.1904761904761905
 40
0.1904761904761905
 40
0.2380952380952381
 40
0.2380952380952381
 40
0.2380952380952381
 40
0.2380952380952381
 40
0.2857142857142857
 40
0.2857142857142857
 40
0.2857142857142857
 40
0.2857142857142857
 40
0.3333333333333333
 40
0.3333333333333333
 40
0.3333333333333333
 40
0.3333333333333333
 40
0.3809523809523809
 40
0.3809523809523809
 40
0.3809523809523809
 40
0.3809523809523809
 40
0.4285714285714285
 40
0.4285714285714285
 40
0.4285714285714285
 40
0.4285714285714285
 40
0.4761904761904762
 40
0.4761904761904762
 40
0.4761904761904762
 40
0.4761904761904762
 40
0.5238095238095238
 40
0.5238095238095238
 40
0.5238095238095238
 40
0.5238095238095238
 40
0.5714285714285714
 40
0.5714285714285714
 40
0.5714285714285714
 40
0.5714285714285714
 40
0.6190476190476191
 40
0.6190476190476191
 40
0.6190476190476191
 40
0.6190476190476191
 40
0.6666666666666666
 40
0.6666666666666666
 40
0.6666666666666666
 40
0.6666666666666666
 40
0.7142857142857143
 40
0.7142857142857143
 40
0.7142857142857143
 40
0.7142857142857143
 40
0.7619047619047619
 40
0.7619047619047619
 40
0.7619047619047619
 40
0.7619047619047619
 40
0.8095238095238095
 40
0.8095238095238095
 40
0.8095238095238095
 40
0.8095238095238095
 40
0.8571428571428571
 40
0.8571428571428571
 40
0.8571428571428571
 40
0.8571428571428571
 40
0.9047619047619048
 40
0.9047619047619048
 40
0.9047619047619048
 40
0.9047619047619048
 40
1.0
 40
1.0
 40
1.0
 40
1.0
 10
2.7639
 20
-65.3563
 30
0.0
 10
2.7639
 20
-65.3563
 30
0.0
 10
3.1153
 20
-64.9628
 30
0.0
 10
3.1153
 20
-64.9628
 30
0.0
 10
3.1153
 20
-64.9628
 30
0.0
 10
3.1153
 20
-64.9628
 30
0.0
 10
3.3225
 20
-65.1386
 30
0.0
 10
3.3225
 20
-65.1386
 30
0.0
 10
3.3225
 20
-65.1386
 30
0.0
 10
3.3225
 20
-65.1386
 30
0.0
 10
2.9546
 20
-65.5529
 30
0.0
 10
2.9546
 20
-65.5529
 30
0.0
 10
2.9546
 20
-65.5529
 30
0.0
 10
3.0746
 20
-65.7315
 30
0.0
 10
3.1553
 20
-65.8879
 30
0.0
 10
3.1975
 20
-66.0214
 30
0.0
 10
3.1975
 20
-66.0214
 30
0.0
 10
3.2532
 20
-66.1973
 30
0.0
 10
3.281
 20
-66.3944
 30
0.0
 10
3.281
 20
-66.6116
 30
0.0
 10
3.281
 20
-66.6116
 30
0.0
 10
3.281
 20
-66.9258
 30
0.0
 10
3.2175
 20
-67.2059
 30
0.0
 10
3.0903
 20
-67.4508
 30
0.0
 10
3.0903
 20
-67.4508
 30
0.0
 10
2.9631
 20
-67.6967
 30
0.0
 10
2.7853
 20
-67.8823
 30
0.0
 10
2.556
 20
-68.0081
 30
0.0
 10
2.556
 20
-68.0081
 30
0.0
 10
2.3259
 20
-68.1331
 30
0.0
 10
2.0824
 20
-68.1959
 30
0.0
 10
1.8245
 20
-68.1959
 30
0.0
 10
1.8245
 20
-68.1959
 30
0.0
 10
1.6317
 20
-68.1959
 30
0.0
 10
1.4573
 20
-68.1689
 30
0.0
 10
1.3009
 20
-68.1145
 30
0.0
 10
1.3009
 20
-68.1145
 30
0.0
 10
1.1809
 20
-68.0725
 30
0.0
 10
1.0409
 20
-67.9924
 30
0.0
 10
0.88
 20
-67.8738
 30
0.0
 10
0.88
 20
-67.8738
 30
0.0
 10
0.88
 20
-67.8738
 30
0.0
 10
0.5286
 20
-68.2675
 30
0.0
 10
0.5286
 20
-68.2675
 30
0.0
 10
0.5286
 20
-68.2675
 30
0.0
 10
0.5286
 20
-68.2675
 30
0.0
 10
0.3214
 20
-68.0917
 30
0.0
 10
0.3214
 20
-68.0917
 30
0.0
 10
0.3214
 20
-68.0917
 30
0.0
 10
0.3214
 20
-68.0917
 30
0.0
 10
0.69
 20
-67.6796
 30
0.0
 10
0.69
 20
-67.6796
 30
0.0
 10
0.69
 20
-67.6796
 30
0.0
 10
0.5529
 20
-67.4716
 30
0.0
 10
0.4615
 20
-67.2938
 30
0.0
 10
0.4158
 20
-67.1466
 30
0.0
 10
0.4158
 20
-67.1466
 30
0.0
 10
0.37
 20
-66.9995
 30
0.0
 10
0.3465
 20
-66.8222
 30
0.0
 10
0.3465
 20
-66.6158
 30
0.0
 10
0.3465
 20
-66.6158
 30
0.0
 10
0.3465
 20
-66.3008
 30
0.0
 10
0.4094
 20
-66.02
 30
0.0
 10
0.535
 20
-65.7735
 30
0.0
 10
0.535
 20
-65.7735
 30
0.0
 10
0.6607
 20
-65.527
 30
0.0
 10
0.8364
 20
-65.3407
 30
0.0
 10
1.0636
 20
-65.2136
 30
0.0
 10
1.0636
 20
-65.2136
 30
0.0
 10
1.2901
 20
-65.0871
 30
0.0
 10
1.5424
 20
-65.0234
 30
0.0
 10
1.8201
 20
-65.0234
 30
0.0
 10
1.8201
 20
-65.0234
 30
0.0
 10
2.0074
 20
-65.0234
 30
0.0
 10
2.171
 20
-65.0477
 30
0.0
 10
2.311
 20
-65.0979
 30
0.0
 10
2.311
 20
-65.0979
 30
0.0
 10
2.451
 20
-65.1471
 30
0.0
 10
2.6024
 20
-65.2335
 30
0.0
 10
2.7639
 20
-65.3563
 30
0.0
  0
SPLINE
  5
5B
330
1F
100
AcDbEntity
  8
ROUND
 62
   250
100
AcDbSpline
210
0.0
220
0.0
230
1.0
 70
    11
 71
     3
 72
    32
 73
    28
 74
     0
 42
0.0000000001
 43
0.0000000001
 40
0.0
 40
0.0
 40
0.0
 40
0.0
 40
0.125
 40
0.125
 40
0.125
 40
0.125
 40
0.25
 40
0.25
 40
0.25
 40
0.25
 40
0.375
 40
0.375
 40
0.375
 40
0.375
 40
0.5
 40
0.5
 40
0.5
 40
0.5
 40
0.625
 40
0.625
 40
0.625
 40
0.625
 40
0.75
 40
0.75
 40
0.75
 40
0.75
 40
1.0
 40
1.0
 40
1.0
 40
1.0
 10
2.5131
 20
-65.6385
 30
0.0
 10
2.3816
 20
-65.5357
 30
0.0
 10
2.2666
 20
-65.4649
 30
0.0
 10
2.1688
 20
-65.4271
 30
0.0
 10
2.1688
 20
-65.4271
 30
0.0
 10
2.0703
 20
-65.3899
 30
0.0
 10
1.9545
 20
-65.3706
 30
0.0
 10
1.8223
 20
-65.3706
 30
0.0
 10
1.8223
 20
-65.3706
 30
0.0
 10
1.5165
 20
-65.3706
 30
0.0
 10
1.2644
 20
-65.4742
 30
0.0
 10
1.0644
 20
-65.6814
 30
0.0
 10
1.0644
 20
-65.6814
 30
0.0
 10
0.865
 20
-65.8887
 30
0.0
 10
0.7651
 20
-66.1979
 30
0.0
 10
0.7651
 20
-66.6101
 30
0.0
 10
0.7651
 20
-66.6101
 30
0.0
 10
0.7651
 20
-66.7715
 30
0.0
 10
0.7807
 20
-66.9152
 30
0.0
 10
0.8115
 20
-67.0409
 30
0.0
 10
0.8115
 20
-67.0409
 30
0.0
 10
0.8337
 20
-67.1345
 30
0.0
 10
0.88
 20
-67.2495
 30
0.0
 10
0.9516
 20
-67.3858
 30
0.0
 10
0.9516
 20
-67.3858
 30
0.0
 10
0.9516
 20
-67.3858
 30
0.0
 10
2.5131
 20
-65.6385
 30
0.0
 10
2.5131
 20
-65.6385
 30
0.0
  0
SPLINE
  5
5C
330
1F
100
AcDbEntity
  8
ROUND
 62
   250
100
AcDbSpline
210
0.0
220
0.0
230
1.0
 70
    11
 71
     3
 72
    28
 73
    24
 74
     0
 42
0.0000000001
 43
0.0000000001
 40
0.0
 40
0.0
 40
0.0
 40
0.0
 40
0.1428571428571428
 40
0.1428571428571428
 40
0.1428571428571428
 40
0.1428571428571428
 40
0.2857142857142857
 40
0.2857142857142857
 40
0.2857142857142857
 40
0.2857142857142857
 40
0.4285714285714285
 40
0.4285714285714285
 40
0.4285714285714285
 40
0.4285714285714285
 40
0.5714285714285714
 40
0.5714285714285714
 40
0.5714285714285714
 40
0.5714285714285714
 40
0.7142857142857143
 40
0.7142857142857143
 40
0.7142857142857143
 40
0.7142857142857143
 40
1.0
 40
1.0
 40
1.0
 40
1.0
 10
2.6846
 20
-65.8543
 30
0.0
 10
2.6846
 20
-65.8543
 30
0.0
 10
1.1294
 20
-67.5953
 30
0.0
 10
1.1294
 20
-67.5953
 30
0.0
 10
1.1294
 20
-67.5953
 30
0.0
 10
1.2365
 20
-67.6831
 30
0.0
 10
1.3358
 20
-67.7446
 30
0.0
 10
1.4266
 20
-67.7795
 30
0.0
 10
1.4266
 20
-67.7795
 30
0.0
 10
1.5451
 20
-67.826
 30
0.0
 10
1.6737
 20
-67.8487
 30
0.0
 10
1.8116
 20
-67.8487
 30
0.0
 10
1.8116
 20
-67.8487
 30
0.0
 10
2.116
 20
-67.8487
 30
0.0
 10
2.3667
 20
-67.7417
 30
0.0
 10
2.5652
 20
-67.5266
 30
0.0
 10
2.5652
 20
-67.5266
 30
0.0
 10
2.7631
 20
-67.3116
 30
0.0
 10
2.8624
 20
-67.0101
 30
0.0
 10
2.8624
 20
-66.6222
 30
0.0
 10
2.8624
 20
-66.6222
 30
0.0
 10
2.8624
 20
-66.3323
 30
0.0
 10
2.8032
 20
-66.0758
 30
0.0
 10
2.6846
 20
-65.8543
 30
0.0
  0
SPLINE
  5
5D
330
1F
100
AcDbEntity
  8
ROUND
 62
   250
100
AcDbSpline
210
0.0
220
0.0
230
1.0
 70
    11
 71
     3
 72
    40
 73
    36
 74
     0
 42
0.0000000001
 43
0.0000000001
 40
0.0
 40
0.0
 40
0.0
 40
0.0
 40
0.1
 40
0.1
 40
0.1
 40
0.1
 40
0.2
 40
0.2
 40
0.2
 40
0.2
 40
0.3
 40
0.3
 40
0.3
 40
0.3
 40
0.4
 40
0.4
 40
0.4
 40
0.4
 40
0.5
 40
0.5
 40
0.5
 40
0.5
 40
0.6
 40
0.6
 40
0.6
 40
0.6
 40
0.7
 40
0.7
 40
0.7
 40
0.7
 40
0.8
 40
0.8
 40
0.8
 40
0.8
 40
1.0
 40
1.0
 40
1.0
 40
1.0
 10
5.0784
 20
-68.1438
 30
0.0
 10
5.0784
 20
-68.1438
 30
0.0
 10
4.7019
 20
-68.1438
 30
0.0
 10
4.7019
 20
-68.1438
 30
0.0
 10
4.7019
 20
-68.1438
 30
0.0
 10
4.7019
 20
-68.1438
 30
0.0
 10
4.7019
 20
-65.7436
 30
0.0
 10
4.7019
 20
-65.7436
 30
0.0
 10
4.7019
 20
-65.7436
 30
0.0
 10
4.6111
 20
-65.83
 30
0.0
 10
4.4927
 20
-65.9165
 30
0.0
 10
4.3455
 20
-66.0029
 30
0.0
 10
4.3455
 20
-66.0029
 30
0.0
 10
4.1976
 20
-66.0893
 30
0.0
 10
4.0654
 20
-66.1543
 30
0.0
 10
3.9482
 20
-66.1973
 30
0.0
 10
3.9482
 20
-66.1973
 30
0.0
 10
3.9482
 20
-66.1973
 30
0.0
 10
3.9482
 20
-65.8335
 30
0.0
 10
3.9482
 20
-65.8335
 30
0.0
 10
3.9482
 20
-65.8335
 30
0.0
 10
4.159
 20
-65.7344
 30
0.0
 10
4.3434
 20
-65.6142
 30
0.0
 10
4.5012
 20
-65.4736
 30
0.0
 10
4.5012
 20
-65.4736
 30
0.0
 10
4.6584
 20
-65.332
 30
0.0
 10
4.7704
 20
-65.1957
 30
0.0
 10
4.8362
 20
-65.0628
 30
0.0
 10
4.8362
 20
-65.0628
 30
0.0
 10
4.8362
 20
-65.0628
 30
0.0
 10
5.0784
 20
-65.0628
 30
0.0
 10
5.0784
 20
-65.0628
 30
0.0
 10
5.0784
 20
-65.0628
 30
0.0
 10
5.0784
 20
-65.0628
 30
0.0
 10
5.0784
 20
-68.1438
 30
0.0
 10
5.0784
 20
-68.1438
 30
0.0
  0
SPLINE
  5
5E
330
1F
100
AcDbEntity
  8
ROUND
 62
   250
100
AcDbSpline
210
0.0
220
0.0
230
1.0
 70
    11
 71
     3
 72
    40
 73
    36
 74
     0
 42
0.0000000001
 43
0.0000000001
 40
0.0
 40
0.0
 40
0.0
 40
0.0
 40
0.1
 40
0.1
 40
0.1
 40
0.1
 40
0.2
 40
0.2
 40
0.2
 40
0.2
 40
0.3
 40
0.3
 40
0.3
 40
0.3
 40
0.4
 40
0.4
 40
0.4
 40
0.4
 40
0.5
 40
0.5
 40
0.5
 40
0.5
 40
0.6
 40
0.6
 40
0.6
 40
0.6
 40
0.7
 40
0.7
 40
0.7
 40
0.7
 40
0.8
 40
0.8
 40
0.8
 40
0.8
 40
1.0
 40
1.0
 40
1.0
 40
1.0
 10
7.1444
 20
-68.1438
 30
0.0
 10
7.1444
 20
-68.1438
 30
0.0
 10
6.7679
 20
-68.1438
 30
0.0
 10
6.7679
 20
-68.1438
 30
0.0
 10
6.7679
 20
-68.1438
 30
0.0
 10
6.7679
 20
-68.1438
 30
0.0
 10
6.7679
 20
-65.7436
 30
0.0
 10
6.7679
 20
-65.7436
 30
0.0
 10
6.7679
 20
-65.7436
 30
0.0
 10
6.6771
 20
-65.83
 30
0.0
 10
6.5586
 20
-65.9165
 30
0.0
 10
6.4114
 20
-66.0029
 30
0.0
 10
6.4114
 20
-66.0029
 30
0.0
 10
6.2635
 20
-66.0893
 30
0.0
 10
6.1314
 20
-66.1543
 30
0.0
 10
6.0141
 20
-66.1973
 30
0.0
 10
6.0141
 20
-66.1973
 30
0.0
 10
6.0141
 20
-66.1973
 30
0.0
 10
6.0141
 20
-65.8335
 30
0.0
 10
6.0141
 20
-65.8335
 30
0.0
 10
6.0141
 20
-65.8335
 30
0.0
 10
6.2249
 20
-65.7344
 30
0.0
 10
6.4093
 20
-65.6142
 30
0.0
 10
6.5671
 20
-65.4736
 30
0.0
 10
6.5671
 20
-65.4736
 30
0.0
 10
6.7243
 20
-65.332
 30
0.0
 10
6.8364
 20
-65.1957
 30
0.0
 10
6.9021
 20
-65.0628
 30
0.0
 10
6.9021
 20
-65.0628
 30
0.0
 10
6.9021
 20
-65.0628
 30
0.0
 10
7.1444
 20
-65.0628
 30
0.0
 10
7.1444
 20
-65.0628
 30
0.0
 10
7.1444
 20
-65.0628
 30
0.0
 10
7.1444
 20
-65.0628
 30
0.0
 10
7.1444
 20
-68.1438
 30
0.0
 10
7.1444
 20
-68.1438
 30
0.0
  0
SPLINE
  5
5F
330
1F
100
AcDbEntity
  8
ROUND
 62
   250
100
AcDbSpline
210
0.0
220
0.0
230
1.0
 70
    11
 71
     3
 72
    52
 73
    48
 74
     0
 42
0.0000000001
 43
0.0000000001
 40
0.0
 40
0.0
 40
0.0
 40
0.0
 40
0.0769230769230769
 40
0.0769230769230769
 40
0.0769230769230769
 40
0.0769230769230769
 40
0.1538461538461539
 40
0.1538461538461539
 40
0.1538461538461539
 40
0.1538461538461539
 40
0.2307692307692308
 40
0.2307692307692308
 40
0.2307692307692308
 40
0.2307692307692308
 40
0.3076923076923077
 40
0.3076923076923077
 40
0.3076923076923077
 40
0.3076923076923077
 40
0.3846153846153846
 40
0.3846153846153846
 40
0.3846153846153846
 40
0.3846153846153846
 40
0.4615384615384616
 40
0.4615384615384616
 40
0.4615384615384616
 40
0.4615384615384616
 40
0.5384615384615384
 40
0.5384615384615384
 40
0.5384615384615384
 40
0.5384615384615384
 40
0.6153846153846154
 40
0.6153846153846154
 40
0.6153846153846154
 40
0.6153846153846154
 40
0.6923076923076923
 40
0.6923076923076923
 40
0.6923076923076923
 40
0.6923076923076923
 40
0.7692307692307693
 40
0.7692307692307693
 40
0.7692307692307693
 40
0.7692307692307693
 40
0.8461538461538461
 40
0.8461538461538461
 40
0.8461538461538461
 40
0.8461538461538461
 40
1.0
 40
1.0
 40
1.0
 40
1.0
 10
8.1094
 20
-66.6309
 30
0.0
 10
8.1094
 20
-66.2679
 30
0.0
 10
8.1466
 20
-65.9757
 30
0.0
 10
8.2216
 20
-65.755
 30
0.0
 10
8.2216
 20
-65.755
 30
0.0
 10
8.2959
 20
-65.5336
 30
0.0
 10
8.4074
 20
-65.3629
 30
0.0
 10
8.5545
 20
-65.2427
 30
0.0
 10
8.5545
 20
-65.2427
 30
0.0
 10
8.7017
 20
-65.1228
 30
0.0
 10
8.8867
 20
-65.0628
 30
0.0
 10
9.1095
 20
-65.0628
 30
0.0
 10
9.1095
 20
-65.0628
 30
0.0
 10
9.2746
 20
-65.0628
 30
0.0
 10
9.4188
 20
-65.0963
 30
0.0
 10
9.5431
 20
-65.1629
 30
0.0
 10
9.5431
 20
-65.1629
 30
0.0
 10
9.6675
 20
-65.2285
 30
0.0
 10
9.7697
 20
-65.3243
 30
0.0
 10
9.8511
 20
-65.4493
 30
0.0
 10
9.8511
 20
-65.4493
 30
0.0
 10
9.9317
 20
-65.5743
 30
0.0
 10
9.9954
 20
-65.7265
 30
0.0
 10
10.0411
 20
-65.9057
 30
0.0
 10
10.0411
 20
-65.9057
 30
0.0
 10
10.0875
 20
-66.085
 30
0.0
 10
10.1103
 20
-66.3265
 30
0.0
 10
10.1103
 20
-66.6309
 30
0.0
 10
10.1103
 20
-66.6309
 30
0.0
 10
10.1103
 20
-66.9908
 30
0.0
 10
10.0733
 20
-67.2809
 30
0.0
 10
9.9996
 20
-67.5023
 30
0.0
 10
9.9996
 20
-67.5023
 30
0.0
 10
9.9253
 20
-67.7238
 30
0.0
 10
9.8146
 20
-67.8945
 30
0.0
 10
9.6675
 20
-68.0152
 30
0.0
 10
9.6675
 20
-68.0152
 30
0.0
 10
9.5203
 20
-68.1359
 30
0.0
 10
9.3346
 20
-68.1959
 30
0.0
 10
9.1095
 20
-68.1959
 30
0.0
 10
9.1095
 20
-68.1959
 30
0.0
 10
8.8138
 20
-68.1959
 30
0.0
 10
8.5816
 20
-68.0902
 30
0.0
 10
8.413
 20
-67.8781
 30
0.0
 10
8.413
 20
-67.8781
 30
0.0
 10
8.2108
 20
-67.6231
 30
0.0
 10
8.1094
 20
-67.2066
 30
0.0
 10
8.1094
 20
-66.6309
 30
0.0
  0
SPLINE
  5
60
330
1F
100
AcDbEntity
  8
ROUND
 62
   250
100
AcDbSpline
210
0.0
220
0.0
230
1.0
 70
    11
 71
     3
 72
    36
 73
    32
 74
     0
 42
0.0000000001
 43
0.0000000001
 40
0.0
 40
0.0
 40
0.0
 40
0.0
 40
0.1111111111111111
 40
0.1111111111111111
 40
0.1111111111111111
 40
0.1111111111111111
 40
0.2222222222222222
 40
0.2222222222222222
 40
0.2222222222222222
 40
0.2222222222222222
 40
0.3333333333333333
 40
0.3333333333333333
 40
0.3333333333333333
 40
0.3333333333333333
 40
0.4444444444444444
 40
0.4444444444444444
 40
0.4444444444444444
 40
0.4444444444444444
 40
0.5555555555555556
 40
0.5555555555555556
 40
0.5555555555555556
 40
0.5555555555555556
 40
0.6666666666666666
 40
0.6666666666666666
 40
0.6666666666666666
 40
0.6666666666666666
 40
0.7777777777777778
 40
0.7777777777777778
 40
0.7777777777777778
 40
0.7777777777777778
 40
1.0
 40
1.0
 40
1.0
 40
1.0
 10
8.4967
 20
-66.6309
 30
0.0
 10
8.4967
 20
-67.1345
 30
0.0
 10
8.5559
 20
-67.4695
 30
0.0
 10
8.6738
 20
-67.6366
 30
0.0
 10
8.6738
 20
-67.6366
 30
0.0
 10
8.7916
 20
-67.803
 30
0.0
 10
8.9366
 20
-67.8867
 30
0.0
 10
9.1095
 20
-67.8867
 30
0.0
 10
9.1095
 20
-67.8867
 30
0.0
 10
9.2831
 20
-67.8867
 30
0.0
 10
9.4281
 20
-67.8024
 30
0.0
 10
9.546
 20
-67.6352
 30
0.0
 10
9.546
 20
-67.6352
 30
0.0
 10
9.6638
 20
-67.468
 30
0.0
 10
9.7232
 20
-67.133
 30
0.0
 10
9.7232
 20
-66.6309
 30
0.0
 10
9.7232
 20
-66.6309
 30
0.0
 10
9.7232
 20
-66.1257
 30
0.0
 10
9.6638
 20
-65.7899
 30
0.0
 10
9.546
 20
-65.6242
 30
0.0
 10
9.546
 20
-65.6242
 30
0.0
 10
9.4281
 20
-65.4578
 30
0.0
 10
9.2817
 20
-65.375
 30
0.0
 10
9.106
 20
-65.375
 30
0.0
 10
9.106
 20
-65.375
 30
0.0
 10
8.9324
 20
-65.375
 30
0.0
 10
8.7945
 20
-65.4485
 30
0.0
 10
8.6909
 20
-65.5949
 30
0.0
 10
8.6909
 20
-65.5949
 30
0.0
 10
8.5617
 20
-65.7814
 30
0.0
 10
8.4967
 20
-66.1273
 30
0.0
 10
8.4967
 20
-66.6309
 30
0.0
  0
SPLINE
  5
61
330
1F
100
AcDbEntity
  8
ROUND
 62
   250
100
AcDbSpline
210
0.0
220
0.0
230
1.0
 70
    11
 71
     3
 72
    20
 73
    16
 74
     0
 42
0.0000000001
 43
0.0000000001
 40
0.0
 40
0.0
 40
0.0
 40
0.0
 40
0.2
 40
0.2
 40
0.2
 40
0.2
 40
0.4
 40
0.4
 40
0.4
 40
0.4
 40
0.6
 40
0.6
 40
0.6
 40
0.6
 40
1.0
 40
1.0
 40
1.0
 40
1.0
 10
-12.3605
 20
-69.1893
 30
0.0
 10
-12.3605
 20
-69.1893
 30
0.0
 10
-7.8044
 20
-69.8545
 30
0.0
 10
-7.8044
 20
-69.8545
 30
0.0
 10
-7.8044
 20
-69.8545
 30
0.0
 10
-7.8044
 20
-69.8545
 30
0.0
 10
-7.8044
 20
-68.3861
 30
0.0
 10
-7.8044
 20
-68.3861
 30
0.0
 10
-7.8044
 20
-68.3861
 30
0.0
 10
-7.8044
 20
-68.3861
 30
0.0
 10
-12.3605
 20
-69.1872
 30
0.0
 10
-12.3605
 20
-69.1872
 30
0.0
 10
-12.3605
 20
-69.1872
 30
0.0
 10
-12.3605
 20
-69.1872
 30
0.0
 10
-12.3605
 20
-69.1893
 30
0.0
 10
-12.3605
 20
-69.1893
 30
0.0
  0
SPLINE
  5
62
330
1F
100
AcDbEntity
  8
ROUND
 62
   250
100
AcDbSpline
210
0.0
220
0.0
230
1.0
 70
    11
 71
     3
 72
    20
 73
    16
 74
     0
 42
0.0000000001
 43
0.0000000001
 40
0.0
 40
0.0
 40
0.0
 40
0.0
 40
0.2
 40
0.2
 40
0.2
 40
0.2
 40
0.4
 40
0.4
 40
0.4
 40
0.4
 40
0.6
 40
0.6
 40
0.6
 40
0.6
 40
1.0
 40
1.0
 40
1.0
 40
1.0
 10
22.6146
 20
-69.1363
 30
0.0
 10
22.6146
 20
-69.1363
 30
0.0
 10
18.0587
 20
-68.4713
 30
0.0
 10
18.0587
 20
-68.4713
 30
0.0
 10
18.0587
 20
-68.4713
 30
0.0
 10
18.0587
 20
-68.4713
 30
0.0
 10
18.0587
 20
-69.9396
 30
0.0
 10
18.0587
 20
-69.9396
 30
0.0
 10
18.0587
 20
-69.9396
 30
0.0
 10
18.0587
 20
-69.9396
 30
0.0
 10
22.6146
 20
-69.1385
 30
0.0
 10
22.6146
 20
-69.1385
 30
0.0
 10
22.6146
 20
-69.1385
 30
0.0
 10
22.6146
 20
-69.1385
 30
0.0
 10
22.6146
 20
-69.1363
 30
0.0
 10
22.6146
 20
-69.1363
 30
0.0
  0
SPLINE
  5
63
330
1F
100
AcDbEntity
  8
ROUND
 62
   250
100
AcDbSpline
210
0.0
220
0.0
230
1.0
 70
    24
 71
     3
 72
     8
 73
     4
 74
     0
 42
0.0000000001
 43
0.0000000001
 40
0.0
 40
0.0
 40
0.0
 40
0.0
 40
1.0
 40
1.0
 40
1.0
 40
1.0
 10
20.2496
 20
-69.1543
 30
0.0
 10
20.2496
 20
-69.1543
 30
0.0
 10
-11.4789
 20
-69.1543
 30
0.0
 10
-11.4789
 20
-69.1543
 30
0.0
  0
SPLINE
  5
64
330
1F
100
AcDbEntity
  8
ROUND
 62
   250
100
AcDbSpline
210
0.0
220
0.0
230
1.0
 70
    11
 71
     3
 72
    48
 73
    44
 74
     0
 42
0.0000000001
 43
0.0000000001
 40
0.0
 40
0.0
 40
0.0
 40
0.0
 40
0.0833333333333333
 40
0.0833333333333333
 40
0.0833333333333333
 40
0.0833333333333333
 40
0.1666666666666667
 40
0.1666666666666667
 40
0.1666666666666667
 40
0.1666666666666667
 40
0.25
 40
0.25
 40
0.25
 40
0.25
 40
0.3333333333333333
 40
0.3333333333333333
 40
0.3333333333333333
 40
0.3333333333333333
 40
0.4166666666666667
 40
0.4166666666666667
 40
0.4166666666666667
 40
0.4166666666666667
 40
0.5
 40
0.5
 40
0.5
 40
0.5
 40
0.5833333333333334
 40
0.5833333333333334
 40
0.5833333333333334
 40
0.5833333333333334
 40
0.6666666666666666
 40
0.6666666666666666
 40
0.6666666666666666
 40
0.6666666666666666
 40
0.75
 40
0.75
 40
0.75
 40
0.75
 40
0.8333333333333334
 40
0.8333333333333334
 40
0.8333333333333334
 40
0.8333333333333334
 40
1.0
 40
1.0
 40
1.0
 40
1.0
 10
-22.7807
 20
-8.0962
 30
0.0
 10
-22.7807
 20
-8.0962
 30
0.0
 10
-23.515
 20
-8.0962
 30
0.0
 10
-23.515
 20
-8.0962
 30
0.0
 10
-23.515
 20
-8.0962
 30
0.0
 10
-23.515
 20
-8.0962
 30
0.0
 10
-23.515
 20
-9.4271
 30
0.0
 10
-23.515
 20
-9.4271
 30
0.0
 10
-23.515
 20
-9.4271
 30
0.0
 10
-23.515
 20
-9.4271
 30
0.0
 10
-23.8609
 20
-9.4271
 30
0.0
 10
-23.8609
 20
-9.4271
 30
0.0
 10
-23.8609
 20
-9.4271
 30
0.0
 10
-23.8609
 20
-9.4271
 30
0.0
 10
-25.8489
 20
-8.0268
 30
0.0
 10
-25.8489
 20
-8.0268
 30
0.0
 10
-25.8489
 20
-8.0268
 30
0.0
 10
-25.8489
 20
-8.0268
 30
0.0
 10
-25.8489
 20
-7.7189
 30
0.0
 10
-25.8489
 20
-7.7189
 30
0.0
 10
-25.8489
 20
-7.7189
 30
0.0
 10
-25.8489
 20
-7.7189
 30
0.0
 10
-23.8609
 20
-7.7189
 30
0.0
 10
-23.8609
 20
-7.7189
 30
0.0
 10
-23.8609
 20
-7.7189
 30
0.0
 10
-23.8609
 20
-7.7189
 30
0.0
 10
-23.8609
 20
-7.3046
 30
0.0
 10
-23.8609
 20
-7.3046
 30
0.0
 10
-23.8609
 20
-7.3046
 30
0.0
 10
-23.8609
 20
-7.3046
 30
0.0
 10
-23.515
 20
-7.3046
 30
0.0
 10
-23.515
 20
-7.3046
 30
0.0
 10
-23.515
 20
-7.3046
 30
0.0
 10
-23.515
 20
-7.3046
 30
0.0
 10
-23.515
 20
-7.7189
 30
0.0
 10
-23.515
 20
-7.7189
 30
0.0
 10
-23.515
 20
-7.7189
 30
0.0
 10
-23.515
 20
-7.7189
 30
0.0
 10
-22.7807
 20
-7.7189
 30
0.0
 10
-22.7807
 20
-7.7189
 30
0.0
 10
-22.7807
 20
-7.7189
 30
0.0
 10
-22.7807
 20
-7.7189
 30
0.0
 10
-22.7807
 20
-8.0962
 30
0.0
 10
-22.7807
 20
-8.0962
 30
0.0
  0
SPLINE
  5
65
330
1F
100
AcDbEntity
  8
ROUND
 62
   250
100
AcDbSpline
210
0.0
220
0.0
230
1.0
 70
    11
 71
     3
 72
    16
 73
    12
 74
     0
 42
0.0000000001
 43
0.0000000001
 40
0.0
 40
0.0
 40
0.0
 40
0.0
 40
0.25
 40
0.25
 40
0.25
 40
0.25
 40
0.5
 40
0.5
 40
0.5
 40
0.5
 40
1.0
 40
1.0
 40
1.0
 40
1.0
 10
-23.8609
 20
-8.0962
 30
0.0
 10
-23.8609
 20
-8.0962
 30
0.0
 10
-25.2438
 20
-8.0962
 30
0.0
 10
-25.2438
 20
-8.0962
 30
0.0
 10
-25.2438
 20
-8.0962
 30
0.0
 10
-25.2438
 20
-8.0962
 30
0.0
 10
-23.8609
 20
-9.0562
 30
0.0
 10
-23.8609
 20
-9.0562
 30
0.0
 10
-23.8609
 20
-9.0562
 30
0.0
 10
-23.8609
 20
-9.0562
 30
0.0
 10
-23.8609
 20
-8.0962
 30
0.0
 10
-23.8609
 20
-8.0962
 30
0.0
  0
SPLINE
  5
66
330
1F
100
AcDbEntity
  8
ROUND
 62
   250
100
AcDbSpline
210
0.0
220
0.0
230
1.0
 70
    11
 71
     3
 72
    52
 73
    48
 74
     0
 42
0.0000000001
 43
0.0000000001
 40
0.0
 40
0.0
 40
0.0
 40
0.0
 40
0.0769230769230769
 40
0.0769230769230769
 40
0.0769230769230769
 40
0.0769230769230769
 40
0.1538461538461539
 40
0.1538461538461539
 40
0.1538461538461539
 40
0.1538461538461539
 40
0.2307692307692308
 40
0.2307692307692308
 40
0.2307692307692308
 40
0.2307692307692308
 40
0.3076923076923077
 40
0.3076923076923077
 40
0.3076923076923077
 40
0.3076923076923077
 40
0.3846153846153846
 40
0.3846153846153846
 40
0.3846153846153846
 40
0.3846153846153846
 40
0.4615384615384616
 40
0.4615384615384616
 40
0.4615384615384616
 40
0.4615384615384616
 40
0.5384615384615384
 40
0.5384615384615384
 40
0.5384615384615384
 40
0.5384615384615384
 40
0.6153846153846154
 40
0.6153846153846154
 40
0.6153846153846154
 40
0.6153846153846154
 40
0.6923076923076923
 40
0.6923076923076923
 40
0.6923076923076923
 40
0.6923076923076923
 40
0.7692307692307693
 40
0.7692307692307693
 40
0.7692307692307693
 40
0.7692307692307693
 40
0.8461538461538461
 40
0.8461538461538461
 40
0.8461538461538461
 40
0.8461538461538461
 40
1.0
 40
1.0
 40
1.0
 40
1.0
 10
-24.2937
 20
-6.9196
 30
0.0
 10
-24.6567
 20
-6.9196
 30
0.0
 10
-24.9489
 20
-6.8824
 30
0.0
 10
-25.1696
 20
-6.8074
 30
0.0
 10
-25.1696
 20
-6.8074
 30
0.0
 10
-25.391
 20
-6.7331
 30
0.0
 10
-25.5617
 20
-6.6216
 30
0.0
 10
-25.6818
 20
-6.4745
 30
0.0
 10
-25.6818
 20
-6.4745
 30
0.0
 10
-25.8018
 20
-6.3273
 30
0.0
 10
-25.8618
 20
-6.1423
 30
0.0
 10
-25.8618
 20
-5.9195
 30
0.0
 10
-25.8618
 20
-5.9195
 30
0.0
 10
-25.8618
 20
-5.7544
 30
0.0
 10
-25.8282
 20
-5.6102
 30
0.0
 10
-25.7617
 20
-5.4859
 30
0.0
 10
-25.7617
 20
-5.4859
 30
0.0
 10
-25.6961
 20
-5.3615
 30
0.0
 10
-25.6003
 20
-5.2593
 30
0.0
 10
-25.4753
 20
-5.1779
 30
0.0
 10
-25.4753
 20
-5.1779
 30
0.0
 10
-25.3503
 20
-5.0973
 30
0.0
 10
-25.1981
 20
-5.0336
 30
0.0
 10
-25.0189
 20
-4.9879
 30
0.0
 10
-25.0189
 20
-4.9879
 30
0.0
 10
-24.8395
 20
-4.9415
 30
0.0
 10
-24.5981
 20
-4.9187
 30
0.0
 10
-24.2937
 20
-4.9187
 30
0.0
 10
-24.2937
 20
-4.9187
 30
0.0
 10
-23.9338
 20
-4.9187
 30
0.0
 10
-23.6437
 20
-4.9557
 30
0.0
 10
-23.4222
 20
-5.0294
 30
0.0
 10
-23.4222
 20
-5.0294
 30
0.0
 10
-23.2008
 20
-5.1037
 30
0.0
 10
-23.0301
 20
-5.2144
 30
0.0
 10
-22.9094
 20
-5.3615
 30
0.0
 10
-22.9094
 20
-5.3615
 30
0.0
 10
-22.7886
 20
-5.5087
 30
0.0
 10
-22.7286
 20
-5.6944
 30
0.0
 10
-22.7286
 20
-5.9195
 30
0.0
 10
-22.7286
 20
-5.9195
 30
0.0
 10
-22.7286
 20
-6.2152
 30
0.0
 10
-22.8343
 20
-6.4474
 30
0.0
 10
-23.0465
 20
-6.616
 30
0.0
 10
-23.0465
 20
-6.616
 30
0.0
 10
-23.3015
 20
-6.8182
 30
0.0
 10
-23.7179
 20
-6.9196
 30
0.0
 10
-24.2937
 20
-6.9196
 30
0.0
  0
SPLINE
  5
67
330
1F
100
AcDbEntity
  8
ROUND
 62
   250
100
AcDbSpline
210
0.0
220
0.0
230
1.0
 70
    11
 71
     3
 72
    36
 73
    32
 74
     0
 42
0.0000000001
 43
0.0000000001
 40
0.0
 40
0.0
 40
0.0
 40
0.0
 40
0.1111111111111111
 40
0.1111111111111111
 40
0.1111111111111111
 40
0.1111111111111111
 40
0.2222222222222222
 40
0.2222222222222222
 40
0.2222222222222222
 40
0.2222222222222222
 40
0.3333333333333333
 40
0.3333333333333333
 40
0.3333333333333333
 40
0.3333333333333333
 40
0.4444444444444444
 40
0.4444444444444444
 40
0.4444444444444444
 40
0.4444444444444444
 40
0.5555555555555556
 40
0.5555555555555556
 40
0.5555555555555556
 40
0.5555555555555556
 40
0.6666666666666666
 40
0.6666666666666666
 40
0.6666666666666666
 40
0.6666666666666666
 40
0.7777777777777778
 40
0.7777777777777778
 40
0.7777777777777778
 40
0.7777777777777778
 40
1.0
 40
1.0
 40
1.0
 40
1.0
 10
-24.2937
 20
-6.5323
 30
0.0
 10
-23.7901
 20
-6.5323
 30
0.0
 10
-23.4551
 20
-6.4731
 30
0.0
 10
-23.288
 20
-6.3552
 30
0.0
 10
-23.288
 20
-6.3552
 30
0.0
 10
-23.1215
 20
-6.2374
 30
0.0
 10
-23.0379
 20
-6.0924
 30
0.0
 10
-23.0379
 20
-5.9195
 30
0.0
 10
-23.0379
 20
-5.9195
 30
0.0
 10
-23.0379
 20
-5.7459
 30
0.0
 10
-23.1221
 20
-5.6009
 30
0.0
 10
-23.2894
 20
-5.483
 30
0.0
 10
-23.2894
 20
-5.483
 30
0.0
 10
-23.4566
 20
-5.3652
 30
0.0
 10
-23.7916
 20
-5.3058
 30
0.0
 10
-24.2937
 20
-5.3058
 30
0.0
 10
-24.2937
 20
-5.3058
 30
0.0
 10
-24.7988
 20
-5.3058
 30
0.0
 10
-25.1346
 20
-5.3652
 30
0.0
 10
-25.3003
 20
-5.483
 30
0.0
 10
-25.3003
 20
-5.483
 30
0.0
 10
-25.4668
 20
-5.6009
 30
0.0
 10
-25.5495
 20
-5.7473
 30
0.0
 10
-25.5495
 20
-5.923
 30
0.0
 10
-25.5495
 20
-5.923
 30
0.0
 10
-25.5495
 20
-6.0966
 30
0.0
 10
-25.476
 20
-6.2345
 30
0.0
 10
-25.3296
 20
-6.3381
 30
0.0
 10
-25.3296
 20
-6.3381
 30
0.0
 10
-25.1431
 20
-6.4673
 30
0.0
 10
-24.7973
 20
-6.5323
 30
0.0
 10
-24.2937
 20
-6.5323
 30
0.0
  0
SPLINE
  5
68
330
1F
100
AcDbEntity
  8
ROUND
 62
   250
100
AcDbSpline
210
0.0
220
0.0
230
1.0
 70
    11
 71
     3
 72
    52
 73
    48
 74
     0
 42
0.0000000001
 43
0.0000000001
 40
0.0
 40
0.0
 40
0.0
 40
0.0
 40
0.0769230769230769
 40
0.0769230769230769
 40
0.0769230769230769
 40
0.0769230769230769
 40
0.1538461538461539
 40
0.1538461538461539
 40
0.1538461538461539
 40
0.1538461538461539
 40
0.2307692307692308
 40
0.2307692307692308
 40
0.2307692307692308
 40
0.2307692307692308
 40
0.3076923076923077
 40
0.3076923076923077
 40
0.3076923076923077
 40
0.3076923076923077
 40
0.3846153846153846
 40
0.3846153846153846
 40
0.3846153846153846
 40
0.3846153846153846
 40
0.4615384615384616
 40
0.4615384615384616
 40
0.4615384615384616
 40
0.4615384615384616
 40
0.5384615384615384
 40
0.5384615384615384
 40
0.5384615384615384
 40
0.5384615384615384
 40
0.6153846153846154
 40
0.6153846153846154
 40
0.6153846153846154
 40
0.6153846153846154
 40
0.6923076923076923
 40
0.6923076923076923
 40
0.6923076923076923
 40
0.6923076923076923
 40
0.7692307692307693
 40
0.7692307692307693
 40
0.7692307692307693
 40
0.7692307692307693
 40
0.8461538461538461
 40
0.8461538461538461
 40
0.8461538461538461
 40
0.8461538461538461
 40
1.0
 40
1.0
 40
1.0
 40
1.0
 10
-24.2937
 20
-4.5358
 30
0.0
 10
-24.6567
 20
-4.5358
 30
0.0
 10
-24.9489
 20
-4.4986
 30
0.0
 10
-25.1696
 20
-4.4236
 30
0.0
 10
-25.1696
 20
-4.4236
 30
0.0
 10
-25.391
 20
-4.3493
 30
0.0
 10
-25.5617
 20
-4.2378
 30
0.0
 10
-25.6818
 20
-4.0907
 30
0.0
 10
-25.6818
 20
-4.0907
 30
0.0
 10
-25.8018
 20
-3.9435
 30
0.0
 10
-25.8618
 20
-3.7585
 30
0.0
 10
-25.8618
 20
-3.5357
 30
0.0
 10
-25.8618
 20
-3.5357
 30
0.0
 10
-25.8618
 20
-3.3706
 30
0.0
 10
-25.8282
 20
-3.2263
 30
0.0
 10
-25.7617
 20
-3.1021
 30
0.0
 10
-25.7617
 20
-3.1021
 30
0.0
 10
-25.6961
 20
-2.9777
 30
0.0
 10
-25.6003
 20
-2.8755
 30
0.0
 10
-25.4753
 20
-2.7941
 30
0.0
 10
-25.4753
 20
-2.7941
 30
0.0
 10
-25.3503
 20
-2.7135
 30
0.0
 10
-25.1981
 20
-2.6498
 30
0.0
 10
-25.0189
 20
-2.6041
 30
0.0
 10
-25.0189
 20
-2.6041
 30
0.0
 10
-24.8395
 20
-2.5576
 30
0.0
 10
-24.5981
 20
-2.5349
 30
0.0
 10
-24.2937
 20
-2.5349
 30
0.0
 10
-24.2937
 20
-2.5349
 30
0.0
 10
-23.9338
 20
-2.5349
 30
0.0
 10
-23.6437
 20
-2.5719
 30
0.0
 10
-23.4222
 20
-2.6456
 30
0.0
 10
-23.4222
 20
-2.6456
 30
0.0
 10
-23.2008
 20
-2.7198
 30
0.0
 10
-23.0301
 20
-2.8306
 30
0.0
 10
-22.9094
 20
-2.9777
 30
0.0
 10
-22.9094
 20
-2.9777
 30
0.0
 10
-22.7886
 20
-3.1249
 30
0.0
 10
-22.7286
 20
-3.3106
 30
0.0
 10
-22.7286
 20
-3.5357
 30
0.0
 10
-22.7286
 20
-3.5357
 30
0.0
 10
-22.7286
 20
-3.8314
 30
0.0
 10
-22.8343
 20
-4.0636
 30
0.0
 10
-23.0465
 20
-4.2322
 30
0.0
 10
-23.0465
 20
-4.2322
 30
0.0
 10
-23.3015
 20
-4.4343
 30
0.0
 10
-23.7179
 20
-4.5358
 30
0.0
 10
-24.2937
 20
-4.5358
 30
0.0
  0
SPLINE
  5
69
330
1F
100
AcDbEntity
  8
ROUND
 62
   250
100
AcDbSpline
210
0.0
220
0.0
230
1.0
 70
    11
 71
     3
 72
    36
 73
    32
 74
     0
 42
0.0000000001
 43
0.0000000001
 40
0.0
 40
0.0
 40
0.0
 40
0.0
 40
0.1111111111111111
 40
0.1111111111111111
 40
0.1111111111111111
 40
0.1111111111111111
 40
0.2222222222222222
 40
0.2222222222222222
 40
0.2222222222222222
 40
0.2222222222222222
 40
0.3333333333333333
 40
0.3333333333333333
 40
0.3333333333333333
 40
0.3333333333333333
 40
0.4444444444444444
 40
0.4444444444444444
 40
0.4444444444444444
 40
0.4444444444444444
 40
0.5555555555555556
 40
0.5555555555555556
 40
0.5555555555555556
 40
0.5555555555555556
 40
0.6666666666666666
 40
0.6666666666666666
 40
0.6666666666666666
 40
0.6666666666666666
 40
0.7777777777777778
 40
0.7777777777777778
 40
0.7777777777777778
 40
0.7777777777777778
 40
1.0
 40
1.0
 40
1.0
 40
1.0
 10
-24.2937
 20
-4.1485
 30
0.0
 10
-23.7901
 20
-4.1485
 30
0.0
 10
-23.4551
 20
-4.0893
 30
0.0
 10
-23.288
 20
-3.9714
 30
0.0
 10
-23.288
 20
-3.9714
 30
0.0
 10
-23.1215
 20
-3.8536
 30
0.0
 10
-23.0379
 20
-3.7085
 30
0.0
 10
-23.0379
 20
-3.5357
 30
0.0
 10
-23.0379
 20
-3.5357
 30
0.0
 10
-23.0379
 20
-3.3621
 30
0.0
 10
-23.1221
 20
-3.2171
 30
0.0
 10
-23.2894
 20
-3.0992
 30
0.0
 10
-23.2894
 20
-3.0992
 30
0.0
 10
-23.4566
 20
-2.9814
 30
0.0
 10
-23.7916
 20
-2.922
 30
0.0
 10
-24.2937
 20
-2.922
 30
0.0
 10
-24.2937
 20
-2.922
 30
0.0
 10
-24.7988
 20
-2.922
 30
0.0
 10
-25.1346
 20
-2.9814
 30
0.0
 10
-25.3003
 20
-3.0992
 30
0.0
 10
-25.3003
 20
-3.0992
 30
0.0
 10
-25.4668
 20
-3.2171
 30
0.0
 10
-25.5495
 20
-3.3635
 30
0.0
 10
-25.5495
 20
-3.5392
 30
0.0
 10
-25.5495
 20
-3.5392
 30
0.0
 10
-25.5495
 20
-3.7128
 30
0.0
 10
-25.476
 20
-3.8507
 30
0.0
 10
-25.3296
 20
-3.9543
 30
0.0
 10
-25.3296
 20
-3.9543
 30
0.0
 10
-25.1431
 20
-4.0835
 30
0.0
 10
-24.7973
 20
-4.1485
 30
0.0
 10
-24.2937
 20
-4.1485
 30
0.0
  0
SPLINE
  5
6A
330
1F
100
AcDbEntity
  8
ROUND
 62
   250
100
AcDbSpline
210
0.0
220
0.0
230
1.0
 70
    11
 71
     3
 72
    20
 73
    16
 74
     0
 42
0.0000000001
 43
0.0000000001
 40
0.0
 40
0.0
 40
0.0
 40
0.0
 40
0.2
 40
0.2
 40
0.2
 40
0.2
 40
0.4
 40
0.4
 40
0.4
 40
0.4
 40
0.6
 40
0.6
 40
0.6
 40
0.6
 40
1.0
 40
1.0
 40
1.0
 40
1.0
 10
-21.9216
 20
-60.9572
 30
0.0
 10
-21.9216
 20
-60.9572
 30
0.0
 10
-21.2565
 20
-56.4012
 30
0.0
 10
-21.2565
 20
-56.4012
 30
0.0
 10
-21.2565
 20
-56.4012
 30
0.0
 10
-21.2565
 20
-56.4012
 30
0.0
 10
-22.7247
 20
-56.4012
 30
0.0
 10
-22.7247
 20
-56.4012
 30
0.0
 10
-22.7247
 20
-56.4012
 30
0.0
 10
-22.7247
 20
-56.4012
 30
0.0
 10
-21.9237
 20
-60.9572
 30
0.0
 10
-21.9237
 20
-60.9572
 30
0.0
 10
-21.9237
 20
-60.9572
 30
0.0
 10
-21.9237
 20
-60.9572
 30
0.0
 10
-21.9216
 20
-60.9572
 30
0.0
 10
-21.9216
 20
-60.9572
 30
0.0
  0
SPLINE
  5
6B
330
1F
100
AcDbEntity
  8
ROUND
 62
   250
100
AcDbSpline
210
0.0
220
0.0
230
1.0
 70
    11
 71
     3
 72
    20
 73
    16
 74
     0
 42
0.0000000001
 43
0.0000000001
 40
0.0
 40
0.0
 40
0.0
 40
0.0
 40
0.2
 40
0.2
 40
0.2
 40
0.2
 40
0.4
 40
0.4
 40
0.4
 40
0.4
 40
0.6
 40
0.6
 40
0.6
 40
0.6
 40
1.0
 40
1.0
 40
1.0
 40
1.0
 10
-21.9845
 20
56.0431
 30
0.0
 10
-21.9845
 20
56.0431
 30
0.0
 10
-22.6497
 20
51.4869
 30
0.0
 10
-22.6497
 20
51.4869
 30
0.0
 10
-22.6497
 20
51.4869
 30
0.0
 10
-22.6497
 20
51.4869
 30
0.0
 10
-21.1813
 20
51.4869
 30
0.0
 10
-21.1813
 20
51.4869
 30
0.0
 10
-21.1813
 20
51.4869
 30
0.0
 10
-21.1813
 20
51.4869
 30
0.0
 10
-21.9825
 20
56.0431
 30
0.0
 10
-21.9825
 20
56.0431
 30
0.0
 10
-21.9825
 20
56.0431
 30
0.0
 10
-21.9825
 20
56.0431
 30
0.0
 10
-21.9845
 20
56.0431
 30
0.0
 10
-21.9845
 20
56.0431
 30
0.0
  0
SPLINE
  5
6C
330
1F
100
AcDbEntity
  8
ROUND
 62
   250
100
AcDbSpline
210
0.0
220
0.0
230
1.0
 70
    24
 71
     3
 72
     8
 73
     4
 74
     0
 42
0.0000000001
 43
0.0000000001
 40
0.0
 40
0.0
 40
0.0
 40
0.0
 40
1.0
 40
1.0
 40
1.0
 40
1.0
 10
-21.9674
 20
55.327
 30
0.0
 10
-21.9674
 20
55.327
 30
0.0
 10
-21.9674
 20
-58.1674
 30
0.0
 10
-21.9674
 20
-58.1674
 30
0.0
  0
SPLINE
  5
6D
330
1F
100
AcDbEntity
  8
ROUND
 62
   250
100
AcDbSpline
210
0.0
220
0.0
230
1.0
 70
    11
 71
     3
 72
    84
 73
    80
 74
     0
 42
0.0000000001
 43
0.0000000001
 40
0.0
 40
0.0
 40
0.0
 40
0.0
 40
0.0476190476190476
 40
0.0476190476190476
 40
0.0476190476190476
 40
0.0476190476190476
 40
0.0952380952380952
 40
0.0952380952380952
 40
0.0952380952380952
 40
0.0952380952380952
 40
0.1428571428571428
 40
0.1428571428571428
 40
0.1428571428571428
 40
0.1428571428571428
 40
0.1904761904761905
 40
0.1904761904761905
 40
0.1904761904761905
 40
0.1904761904761905
 40
0.2380952380952381
 40
0.2380952380952381
 40
0.2380952380952381
 40
0.2380952380952381
 40
0.2857142857142857
 40
0.2857142857142857
 40
0.2857142857142857
 40
0.2857142857142857
 40
0.3333333333333333
 40
0.3333333333333333
 40
0.3333333333333333
 40
0.3333333333333333
 40
0.3809523809523809
 40
0.3809523809523809
 40
0.3809523809523809
 40
0.3809523809523809
 40
0.4285714285714285
 40
0.4285714285714285
 40
0.4285714285714285
 40
0.4285714285714285
 40
0.4761904761904762
 40
0.4761904761904762
 40
0.4761904761904762
 40
0.4761904761904762
 40
0.5238095238095238
 40
0.5238095238095238
 40
0.5238095238095238
 40
0.5238095238095238
 40
0.5714285714285714
 40
0.5714285714285714
 40
0.5714285714285714
 40
0.5714285714285714
 40
0.6190476190476191
 40
0.6190476190476191
 40
0.6190476190476191
 40
0.6190476190476191
 40
0.6666666666666666
 40
0.6666666666666666
 40
0.6666666666666666
 40
0.6666666666666666
 40
0.7142857142857143
 40
0.7142857142857143
 40
0.7142857142857143
 40
0.7142857142857143
 40
0.7619047619047619
 40
0.7619047619047619
 40
0.7619047619047619
 40
0.7619047619047619
 40
0.8095238095238095
 40
0.8095238095238095
 40
0.8095238095238095
 40
0.8095238095238095
 40
0.8571428571428571
 40
0.8571428571428571
 40
0.8571428571428571
 40
0.8571428571428571
 40
0.9047619047619048
 40
0.9047619047619048
 40
0.9047619047619048
 40
0.9047619047619048
 40
1.0
 40
1.0
 40
1.0
 40
1.0
 10
2.7639
 20
69.6597
 30
0.0
 10
2.7639
 20
69.6597
 30
0.0
 10
3.1153
 20
70.0532
 30
0.0
 10
3.1153
 20
70.0532
 30
0.0
 10
3.1153
 20
70.0532
 30
0.0
 10
3.1153
 20
70.0532
 30
0.0
 10
3.3225
 20
69.8775
 30
0.0
 10
3.3225
 20
69.8775
 30
0.0
 10
3.3225
 20
69.8775
 30
0.0
 10
3.3225
 20
69.8775
 30
0.0
 10
2.9546
 20
69.4632
 30
0.0
 10
2.9546
 20
69.4632
 30
0.0
 10
2.9546
 20
69.4632
 30
0.0
 10
3.0746
 20
69.2846
 30
0.0
 10
3.1553
 20
69.1281
 30
0.0
 10
3.1975
 20
68.9946
 30
0.0
 10
3.1975
 20
68.9946
 30
0.0
 10
3.2532
 20
68.8188
 30
0.0
 10
3.281
 20
68.6216
 30
0.0
 10
3.281
 20
68.4045
 30
0.0
 10
3.281
 20
68.4045
 30
0.0
 10
3.281
 20
68.0902
 30
0.0
 10
3.2175
 20
67.8102
 30
0.0
 10
3.0903
 20
67.5652
 30
0.0
 10
3.0903
 20
67.5652
 30
0.0
 10
2.9631
 20
67.3193
 30
0.0
 10
2.7853
 20
67.1337
 30
0.0
 10
2.556
 20
67.008
 30
0.0
 10
2.556
 20
67.008
 30
0.0
 10
2.3259
 20
66.883
 30
0.0
 10
2.0824
 20
66.8201
 30
0.0
 10
1.8245
 20
66.8201
 30
0.0
 10
1.8245
 20
66.8201
 30
0.0
 10
1.6317
 20
66.8201
 30
0.0
 10
1.4573
 20
66.8471
 30
0.0
 10
1.3009
 20
66.9015
 30
0.0
 10
1.3009
 20
66.9015
 30
0.0
 10
1.1809
 20
66.9436
 30
0.0
 10
1.0409
 20
67.0236
 30
0.0
 10
0.88
 20
67.1422
 30
0.0
 10
0.88
 20
67.1422
 30
0.0
 10
0.88
 20
67.1422
 30
0.0
 10
0.5286
 20
66.7486
 30
0.0
 10
0.5286
 20
66.7486
 30
0.0
 10
0.5286
 20
66.7486
 30
0.0
 10
0.5286
 20
66.7486
 30
0.0
 10
0.3214
 20
66.9243
 30
0.0
 10
0.3214
 20
66.9243
 30
0.0
 10
0.3214
 20
66.9243
 30
0.0
 10
0.3214
 20
66.9243
 30
0.0
 10
0.69
 20
67.3365
 30
0.0
 10
0.69
 20
67.3365
 30
0.0
 10
0.69
 20
67.3365
 30
0.0
 10
0.5529
 20
67.5444
 30
0.0
 10
0.4615
 20
67.7222
 30
0.0
 10
0.4158
 20
67.8694
 30
0.0
 10
0.4158
 20
67.8694
 30
0.0
 10
0.37
 20
68.0166
 30
0.0
 10
0.3465
 20
68.1938
 30
0.0
 10
0.3465
 20
68.4002
 30
0.0
 10
0.3465
 20
68.4002
 30
0.0
 10
0.3465
 20
68.7152
 30
0.0
 10
0.4094
 20
68.996
 30
0.0
 10
0.535
 20
69.2425
 30
0.0
 10
0.535
 20
69.2425
 30
0.0
 10
0.6607
 20
69.489
 30
0.0
 10
0.8364
 20
69.6753
 30
0.0
 10
1.0636
 20
69.8025
 30
0.0
 10
1.0636
 20
69.8025
 30
0.0
 10
1.2901
 20
69.929
 30
0.0
 10
1.5424
 20
69.9926
 30
0.0
 10
1.8201
 20
69.9926
 30
0.0
 10
1.8201
 20
69.9926
 30
0.0
 10
2.0074
 20
69.9926
 30
0.0
 10
2.171
 20
69.9683
 30
0.0
 10
2.311
 20
69.9182
 30
0.0
 10
2.311
 20
69.9182
 30
0.0
 10
2.451
 20
69.869
 30
0.0
 10
2.6024
 20
69.7826
 30
0.0
 10
2.7639
 20
69.6597
 30
0.0
  0
SPLINE
  5
6E
330
1F
100
AcDbEntity
  8
ROUND
 62
   250
100
AcDbSpline
210
0.0
220
0.0
230
1.0
 70
    11
 71
     3
 72
    32
 73
    28
 74
     0
 42
0.0000000001
 43
0.0000000001
 40
0.0
 40
0.0
 40
0.0
 40
0.0
 40
0.125
 40
0.125
 40
0.125
 40
0.125
 40
0.25
 40
0.25
 40
0.25
 40
0.25
 40
0.375
 40
0.375
 40
0.375
 40
0.375
 40
0.5
 40
0.5
 40
0.5
 40
0.5
 40
0.625
 40
0.625
 40
0.625
 40
0.625
 40
0.75
 40
0.75
 40
0.75
 40
0.75
 40
1.0
 40
1.0
 40
1.0
 40
1.0
 10
2.5131
 20
69.3775
 30
0.0
 10
2.3816
 20
69.4803
 30
0.0
 10
2.2666
 20
69.5511
 30
0.0
 10
2.1688
 20
69.5889
 30
0.0
 10
2.1688
 20
69.5889
 30
0.0
 10
2.0703
 20
69.6261
 30
0.0
 10
1.9545
 20
69.6454
 30
0.0
 10
1.8223
 20
69.6454
 30
0.0
 10
1.8223
 20
69.6454
 30
0.0
 10
1.5165
 20
69.6454
 30
0.0
 10
1.2644
 20
69.5418
 30
0.0
 10
1.0644
 20
69.3347
 30
0.0
 10
1.0644
 20
69.3347
 30
0.0
 10
0.865
 20
69.1274
 30
0.0
 10
0.7651
 20
68.8182
 30
0.0
 10
0.7651
 20
68.406
 30
0.0
 10
0.7651
 20
68.406
 30
0.0
 10
0.7651
 20
68.2445
 30
0.0
 10
0.7807
 20
68.1009
 30
0.0
 10
0.8115
 20
67.9751
 30
0.0
 10
0.8115
 20
67.9751
 30
0.0
 10
0.8337
 20
67.8815
 30
0.0
 10
0.88
 20
67.7666
 30
0.0
 10
0.9516
 20
67.6302
 30
0.0
 10
0.9516
 20
67.6302
 30
0.0
 10
0.9516
 20
67.6302
 30
0.0
 10
2.5131
 20
69.3775
 30
0.0
 10
2.5131
 20
69.3775
 30
0.0
  0
SPLINE
  5
6F
330
1F
100
AcDbEntity
  8
ROUND
 62
   250
100
AcDbSpline
210
0.0
220
0.0
230
1.0
 70
    11
 71
     3
 72
    28
 73
    24
 74
     0
 42
0.0000000001
 43
0.0000000001
 40
0.0
 40
0.0
 40
0.0
 40
0.0
 40
0.1428571428571428
 40
0.1428571428571428
 40
0.1428571428571428
 40
0.1428571428571428
 40
0.2857142857142857
 40
0.2857142857142857
 40
0.2857142857142857
 40
0.2857142857142857
 40
0.4285714285714285
 40
0.4285714285714285
 40
0.4285714285714285
 40
0.4285714285714285
 40
0.5714285714285714
 40
0.5714285714285714
 40
0.5714285714285714
 40
0.5714285714285714
 40
0.7142857142857143
 40
0.7142857142857143
 40
0.7142857142857143
 40
0.7142857142857143
 40
1.0
 40
1.0
 40
1.0
 40
1.0
 10
2.6846
 20
69.1617
 30
0.0
 10
2.6846
 20
69.1617
 30
0.0
 10
1.1294
 20
67.4208
 30
0.0
 10
1.1294
 20
67.4208
 30
0.0
 10
1.1294
 20
67.4208
 30
0.0
 10
1.2365
 20
67.333
 30
0.0
 10
1.3358
 20
67.2715
 30
0.0
 10
1.4266
 20
67.2365
 30
0.0
 10
1.4266
 20
67.2365
 30
0.0
 10
1.5451
 20
67.1901
 30
0.0
 10
1.6737
 20
67.1673
 30
0.0
 10
1.8116
 20
67.1673
 30
0.0
 10
1.8116
 20
67.1673
 30
0.0
 10
2.116
 20
67.1673
 30
0.0
 10
2.3667
 20
67.2744
 30
0.0
 10
2.5652
 20
67.4894
 30
0.0
 10
2.5652
 20
67.4894
 30
0.0
 10
2.7631
 20
67.7045
 30
0.0
 10
2.8624
 20
68.0059
 30
0.0
 10
2.8624
 20
68.3938
 30
0.0
 10
2.8624
 20
68.3938
 30
0.0
 10
2.8624
 20
68.6837
 30
0.0
 10
2.8032
 20
68.9403
 30
0.0
 10
2.6846
 20
69.1617
 30
0.0
  0
SPLINE
  5
70
330
1F
100
AcDbEntity
  8
ROUND
 62
   250
100
AcDbSpline
210
0.0
220
0.0
230
1.0
 70
    11
 71
     3
 72
    40
 73
    36
 74
     0
 42
0.0000000001
 43
0.0000000001
 40
0.0
 40
0.0
 40
0.0
 40
0.0
 40
0.1
 40
0.1
 40
0.1
 40
0.1
 40
0.2
 40
0.2
 40
0.2
 40
0.2
 40
0.3
 40
0.3
 40
0.3
 40
0.3
 40
0.4
 40
0.4
 40
0.4
 40
0.4
 40
0.5
 40
0.5
 40
0.5
 40
0.5
 40
0.6
 40
0.6
 40
0.6
 40
0.6
 40
0.7
 40
0.7
 40
0.7
 40
0.7
 40
0.8
 40
0.8
 40
0.8
 40
0.8
 40
1.0
 40
1.0
 40
1.0
 40
1.0
 10
5.0784
 20
66.8722
 30
0.0
 10
5.0784
 20
66.8722
 30
0.0
 10
4.7019
 20
66.8722
 30
0.0
 10
4.7019
 20
66.8722
 30
0.0
 10
4.7019
 20
66.8722
 30
0.0
 10
4.7019
 20
66.8722
 30
0.0
 10
4.7019
 20
69.2724
 30
0.0
 10
4.7019
 20
69.2724
 30
0.0
 10
4.7019
 20
69.2724
 30
0.0
 10
4.6111
 20
69.186
 30
0.0
 10
4.4927
 20
69.0996
 30
0.0
 10
4.3455
 20
69.0132
 30
0.0
 10
4.3455
 20
69.0132
 30
0.0
 10
4.1976
 20
68.9267
 30
0.0
 10
4.0654
 20
68.8617
 30
0.0
 10
3.9482
 20
68.8188
 30
0.0
 10
3.9482
 20
68.8188
 30
0.0
 10
3.9482
 20
68.8188
 30
0.0
 10
3.9482
 20
69.1825
 30
0.0
 10
3.9482
 20
69.1825
 30
0.0
 10
3.9482
 20
69.1825
 30
0.0
 10
4.159
 20
69.2817
 30
0.0
 10
4.3434
 20
69.4018
 30
0.0
 10
4.5012
 20
69.5424
 30
0.0
 10
4.5012
 20
69.5424
 30
0.0
 10
4.6584
 20
69.684
 30
0.0
 10
4.7704
 20
69.8204
 30
0.0
 10
4.8362
 20
69.9533
 30
0.0
 10
4.8362
 20
69.9533
 30
0.0
 10
4.8362
 20
69.9533
 30
0.0
 10
5.0784
 20
69.9533
 30
0.0
 10
5.0784
 20
69.9533
 30
0.0
 10
5.0784
 20
69.9533
 30
0.0
 10
5.0784
 20
69.9533
 30
0.0
 10
5.0784
 20
66.8722
 30
0.0
 10
5.0784
 20
66.8722
 30
0.0
  0
SPLINE
  5
71
330
1F
100
AcDbEntity
  8
ROUND
 62
   250
100
AcDbSpline
210
0.0
220
0.0
230
1.0
 70
    11
 71
     3
 72
   124
 73
   120
 74
     0
 42
0.0000000001
 43
0.0000000001
 40
0.0
 40
0.0
 40
0.0
 40
0.0
 40
0.032258064516129
 40
0.032258064516129
 40
0.032258064516129
 40
0.032258064516129
 40
0.0645161290322581
 40
0.0645161290322581
 40
0.0645161290322581
 40
0.0645161290322581
 40
0.0967741935483871
 40
0.0967741935483871
 40
0.0967741935483871
 40
0.0967741935483871
 40
0.1290322580645161
 40
0.1290322580645161
 40
0.1290322580645161
 40
0.1290322580645161
 40
0.1612903225806452
 40
0.1612903225806452
 40
0.1612903225806452
 40
0.1612903225806452
 40
0.1935483870967742
 40
0.1935483870967742
 40
0.1935483870967742
 40
0.1935483870967742
 40
0.2258064516129032
 40
0.2258064516129032
 40
0.2258064516129032
 40
0.2258064516129032
 40
0.2580645161290323
 40
0.2580645161290323
 40
0.2580645161290323
 40
0.2580645161290323
 40
0.2903225806451613
 40
0.2903225806451613
 40
0.2903225806451613
 40
0.2903225806451613
 40
0.3225806451612903
 40
0.3225806451612903
 40
0.3225806451612903
 40
0.3225806451612903
 40
0.3548387096774194
 40
0.3548387096774194
 40
0.3548387096774194
 40
0.3548387096774194
 40
0.3870967741935484
 40
0.3870967741935484
 40
0.3870967741935484
 40
0.3870967741935484
 40
0.4193548387096774
 40
0.4193548387096774
 40
0.4193548387096774
 40
0.4193548387096774
 40
0.4516129032258064
 40
0.4516129032258064
 40
0.4516129032258064
 40
0.4516129032258064
 40
0.4838709677419355
 40
0.4838709677419355
 40
0.4838709677419355
 40
0.4838709677419355
 40
0.5161290322580645
 40
0.5161290322580645
 40
0.5161290322580645
 40
0.5161290322580645
 40
0.5483870967741935
 40
0.5483870967741935
 40
0.5483870967741935
 40
0.5483870967741935
 40
0.5806451612903226
 40
0.5806451612903226
 40
0.5806451612903226
 40
0.5806451612903226
 40
0.6129032258064516
 40
0.6129032258064516
 40
0.6129032258064516
 40
0.6129032258064516
 40
0.6451612903225806
 40
0.6451612903225806
 40
0.6451612903225806
 40
0.6451612903225806
 40
0.6774193548387096
 40
0.6774193548387096
 40
0.6774193548387096
 40
0.6774193548387096
 40
0.7096774193548387
 40
0.7096774193548387
 40
0.7096774193548387
 40
0.7096774193548387
 40
0.7419354838709677
 40
0.7419354838709677
 40
0.7419354838709677
 40
0.7419354838709677
 40
0.7741935483870968
 40
0.7741935483870968
 40
0.7741935483870968
 40
0.7741935483870968
 40
0.8064516129032258
 40
0.8064516129032258
 40
0.8064516129032258
 40
0.8064516129032258
 40
0.8387096774193549
 40
0.8387096774193549
 40
0.8387096774193549
 40
0.8387096774193549
 40
0.8709677419354839
 40
0.8709677419354839
 40
0.8709677419354839
 40
0.8709677419354839
 40
0.9032258064516129
 40
0.9032258064516129
 40
0.9032258064516129
 40
0.9032258064516129
 40
0.9354838709677419
 40
0.9354838709677419
 40
0.9354838709677419
 40
0.9354838709677419
 40
1.0
 40
1.0
 40
1.0
 40
1.0
 10
6.0456
 20
67.6823
 30
0.0
 10
6.0456
 20
67.6823
 30
0.0
 10
6.4221
 20
67.7323
 30
0.0
 10
6.4221
 20
67.7323
 30
0.0
 10
6.4221
 20
67.7323
 30
0.0
 10
6.4657
 20
67.5187
 30
0.0
 10
6.5393
 20
67.3652
 30
0.0
 10
6.6429
 20
67.2709
 30
0.0
 10
6.6429
 20
67.2709
 30
0.0
 10
6.7471
 20
67.1765
 30
0.0
 10
6.8736
 20
67.1293
 30
0.0
 10
7.0229
 20
67.1293
 30
0.0
 10
7.0229
 20
67.1293
 30
0.0
 10
7.2
 20
67.1293
 30
0.0
 10
7.35
 20
67.1908
 30
0.0
 10
7.4723
 20
67.3137
 30
0.0
 10
7.4723
 20
67.3137
 30
0.0
 10
7.5936
 20
67.4366
 30
0.0
 10
7.6551
 20
67.5887
 30
0.0
 10
7.6551
 20
67.7702
 30
0.0
 10
7.6551
 20
67.7702
 30
0.0
 10
7.6551
 20
67.9431
 30
0.0
 10
7.5986
 20
68.086
 30
0.0
 10
7.4858
 20
68.1981
 30
0.0
 10
7.4858
 20
68.1981
 30
0.0
 10
7.3722
 20
68.3101
 30
0.0
 10
7.2287
 20
68.3666
 30
0.0
 10
7.0543
 20
68.3666
 30
0.0
 10
7.0543
 20
68.3666
 30
0.0
 10
6.9829
 20
68.3666
 30
0.0
 10
6.8942
 20
68.3524
 30
0.0
 10
6.7885
 20
68.3246
 30
0.0
 10
6.7885
 20
68.3246
 30
0.0
 10
6.7885
 20
68.3246
 30
0.0
 10
6.8308
 20
68.6552
 30
0.0
 10
6.8308
 20
68.6552
 30
0.0
 10
6.8308
 20
68.6552
 30
0.0
 10
6.8557
 20
68.6525
 30
0.0
 10
6.8757
 20
68.6509
 30
0.0
 10
6.8914
 20
68.6509
 30
0.0
 10
6.8914
 20
68.6509
 30
0.0
 10
7.0514
 20
68.6509
 30
0.0
 10
7.1957
 20
68.6932
 30
0.0
 10
7.3244
 20
68.7767
 30
0.0
 10
7.3244
 20
68.7767
 30
0.0
 10
7.453
 20
68.8602
 30
0.0
 10
7.5172
 20
68.9896
 30
0.0
 10
7.5172
 20
69.1638
 30
0.0
 10
7.5172
 20
69.1638
 30
0.0
 10
7.5172
 20
69.3017
 30
0.0
 10
7.47
 20
69.4167
 30
0.0
 10
7.3764
 20
69.5068
 30
0.0
 10
7.3764
 20
69.5068
 30
0.0
 10
7.2829
 20
69.5974
 30
0.0
 10
7.1621
 20
69.6433
 30
0.0
 10
7.0142
 20
69.6433
 30
0.0
 10
7.0142
 20
69.6433
 30
0.0
 10
6.8678
 20
69.6433
 30
0.0
 10
6.7457
 20
69.5968
 30
0.0
 10
6.6485
 20
69.5054
 30
0.0
 10
6.6485
 20
69.5054
 30
0.0
 10
6.5507
 20
69.4132
 30
0.0
 10
6.4878
 20
69.2745
 30
0.0
 10
6.4599
 20
69.0903
 30
0.0
 10
6.4599
 20
69.0903
 30
0.0
 10
6.4599
 20
69.0903
 30
0.0
 10
6.0835
 20
69.1574
 30
0.0
 10
6.0835
 20
69.1574
 30
0.0
 10
6.0835
 20
69.1574
 30
0.0
 10
6.1293
 20
69.4103
 30
0.0
 10
6.2342
 20
69.6061
 30
0.0
 10
6.3972
 20
69.7446
 30
0.0
 10
6.3972
 20
69.7446
 30
0.0
 10
6.5607
 20
69.8832
 30
0.0
 10
6.7636
 20
69.9533
 30
0.0
 10
7.0065
 20
69.9533
 30
0.0
 10
7.0065
 20
69.9533
 30
0.0
 10
7.1735
 20
69.9533
 30
0.0
 10
7.3278
 20
69.9168
 30
0.0
 10
7.4686
 20
69.8454
 30
0.0
 10
7.4686
 20
69.8454
 30
0.0
 10
7.6094
 20
69.7733
 30
0.0
 10
7.7172
 20
69.6753
 30
0.0
 10
7.7923
 20
69.5511
 30
0.0
 10
7.7923
 20
69.5511
 30
0.0
 10
7.8665
 20
69.4267
 30
0.0
 10
7.9044
 20
69.2953
 30
0.0
 10
7.9044
 20
69.1553
 30
0.0
 10
7.9044
 20
69.1553
 30
0.0
 10
7.9044
 20
69.0232
 30
0.0
 10
7.8687
 20
68.9024
 30
0.0
 10
7.7973
 20
68.7931
 30
0.0
 10
7.7973
 20
68.7931
 30
0.0
 10
7.7258
 20
68.6845
 30
0.0
 10
7.6208
 20
68.5981
 30
0.0
 10
7.4815
 20
68.5338
 30
0.0
 10
7.4815
 20
68.5338
 30
0.0
 10
7.6629
 20
68.4924
 30
0.0
 10
7.8037
 20
68.4052
 30
0.0
 10
7.9044
 20
68.2731
 30
0.0
 10
7.9044
 20
68.2731
 30
0.0
 10
8.0044
 20
68.1416
 30
0.0
 10
8.0544
 20
67.9766
 30
0.0
 10
8.0544
 20
67.7787
 30
0.0
 10
8.0544
 20
67.7787
 30
0.0
 10
8.0544
 20
67.5108
 30
0.0
 10
7.9572
 20
67.2836
 30
0.0
 10
7.7616
 20
67.0973
 30
0.0
 10
7.7616
 20
67.0973
 30
0.0
 10
7.5664
 20
66.9108
 30
0.0
 10
7.3193
 20
66.818
 30
0.0
 10
7.0208
 20
66.818
 30
0.0
 10
7.0208
 20
66.818
 30
0.0
 10
6.7515
 20
66.818
 30
0.0
 10
6.5278
 20
66.8979
 30
0.0
 10
6.3499
 20
67.0587
 30
0.0
 10
6.3499
 20
67.0587
 30
0.0
 10
6.1721
 20
67.2186
 30
0.0
 10
6.0706
 20
67.4265
 30
0.0
 10
6.0456
 20
67.6823
 30
0.0
  0
SPLINE
  5
72
330
1F
100
AcDbEntity
  8
ROUND
 62
   250
100
AcDbSpline
210
0.0
220
0.0
230
1.0
 70
    11
 71
     3
 72
    92
 73
    88
 74
     0
 42
0.0000000001
 43
0.0000000001
 40
0.0
 40
0.0
 40
0.0
 40
0.0
 40
0.0434782608695652
 40
0.0434782608695652
 40
0.0434782608695652
 40
0.0434782608695652
 40
0.0869565217391304
 40
0.0869565217391304
 40
0.0869565217391304
 40
0.0869565217391304
 40
0.1304347826086956
 40
0.1304347826086956
 40
0.1304347826086956
 40
0.1304347826086956
 40
0.1739130434782609
 40
0.1739130434782609
 40
0.1739130434782609
 40
0.1739130434782609
 40
0.2173913043478261
 40
0.2173913043478261
 40
0.2173913043478261
 40
0.2173913043478261
 40
0.2608695652173913
 40
0.2608695652173913
 40
0.2608695652173913
 40
0.2608695652173913
 40
0.3043478260869565
 40
0.3043478260869565
 40
0.3043478260869565
 40
0.3043478260869565
 40
0.3478260869565217
 40
0.3478260869565217
 40
0.3478260869565217
 40
0.3478260869565217
 40
0.391304347826087
 40
0.391304347826087
 40
0.391304347826087
 40
0.391304347826087
 40
0.4347826086956522
 40
0.4347826086956522
 40
0.4347826086956522
 40
0.4347826086956522
 40
0.4782608695652174
 40
0.4782608695652174
 40
0.4782608695652174
 40
0.4782608695652174
 40
0.5217391304347826
 40
0.5217391304347826
 40
0.5217391304347826
 40
0.5217391304347826
 40
0.5652173913043478
 40
0.5652173913043478
 40
0.5652173913043478
 40
0.5652173913043478
 40
0.6086956521739131
 40
0.6086956521739131
 40
0.6086956521739131
 40
0.6086956521739131
 40
0.6521739130434783
 40
0.6521739130434783
 40
0.6521739130434783
 40
0.6521739130434783
 40
0.6956521739130435
 40
0.6956521739130435
 40
0.6956521739130435
 40
0.6956521739130435
 40
0.7391304347826086
 40
0.7391304347826086
 40
0.7391304347826086
 40
0.7391304347826086
 40
0.782608695652174
 40
0.782608695652174
 40
0.782608695652174
 40
0.782608695652174
 40
0.8260869565217391
 40
0.8260869565217391
 40
0.8260869565217391
 40
0.8260869565217391
 40
0.8695652173913043
 40
0.8695652173913043
 40
0.8695652173913043
 40
0.8695652173913043
 40
0.9130434782608695
 40
0.9130434782608695
 40
0.9130434782608695
 40
0.9130434782608695
 40
1.0
 40
1.0
 40
1.0
 40
1.0
 10
8.4273
 20
67.6759
 30
0.0
 10
8.4273
 20
67.6759
 30
0.0
 10
8.823
 20
67.7095
 30
0.0
 10
8.823
 20
67.7095
 30
0.0
 10
8.823
 20
67.7095
 30
0.0
 10
8.8524
 20
67.5166
 30
0.0
 10
8.9202
 20
67.3723
 30
0.0
 10
9.0267
 20
67.2751
 30
0.0
 10
9.0267
 20
67.2751
 30
0.0
 10
9.1338
 20
67.1779
 30
0.0
 10
9.2624
 20
67.1293
 30
0.0
 10
9.4131
 20
67.1293
 30
0.0
 10
9.4131
 20
67.1293
 30
0.0
 10
9.5946
 20
67.1293
 30
0.0
 10
9.7481
 20
67.198
 30
0.0
 10
9.8731
 20
67.3343
 30
0.0
 10
9.8731
 20
67.3343
 30
0.0
 10
9.9989
 20
67.4715
 30
0.0
 10
10.0617
 20
67.653
 30
0.0
 10
10.0617
 20
67.8787
 30
0.0
 10
10.0617
 20
67.8787
 30
0.0
 10
10.0617
 20
68.0937
 30
0.0
 10
10.0017
 20
68.2631
 30
0.0
 10
9.881
 20
68.3873
 30
0.0
 10
9.881
 20
68.3873
 30
0.0
 10
9.7603
 20
68.5117
 30
0.0
 10
9.6025
 20
68.5738
 30
0.0
 10
9.4067
 20
68.5738
 30
0.0
 10
9.4067
 20
68.5738
 30
0.0
 10
9.2852
 20
68.5738
 30
0.0
 10
9.176
 20
68.546
 30
0.0
 10
9.078
 20
68.491
 30
0.0
 10
9.078
 20
68.491
 30
0.0
 10
8.9802
 20
68.4359
 30
0.0
 10
8.9038
 20
68.3645
 30
0.0
 10
8.8481
 20
68.2766
 30
0.0
 10
8.8481
 20
68.2766
 30
0.0
 10
8.8481
 20
68.2766
 30
0.0
 10
8.4944
 20
68.3223
 30
0.0
 10
8.4944
 20
68.3223
 30
0.0
 10
8.4944
 20
68.3223
 30
0.0
 10
8.4944
 20
68.3223
 30
0.0
 10
8.7916
 20
69.8983
 30
0.0
 10
8.7916
 20
69.8983
 30
0.0
 10
8.7916
 20
69.8983
 30
0.0
 10
8.7916
 20
69.8983
 30
0.0
 10
10.3175
 20
69.8983
 30
0.0
 10
10.3175
 20
69.8983
 30
0.0
 10
10.3175
 20
69.8983
 30
0.0
 10
10.3175
 20
69.8983
 30
0.0
 10
10.3175
 20
69.5382
 30
0.0
 10
10.3175
 20
69.5382
 30
0.0
 10
10.3175
 20
69.5382
 30
0.0
 10
10.3175
 20
69.5382
 30
0.0
 10
9.0931
 20
69.5382
 30
0.0
 10
9.0931
 20
69.5382
 30
0.0
 10
9.0931
 20
69.5382
 30
0.0
 10
9.0931
 20
69.5382
 30
0.0
 10
8.9274
 20
68.7138
 30
0.0
 10
8.9274
 20
68.7138
 30
0.0
 10
8.9274
 20
68.7138
 30
0.0
 10
9.1116
 20
68.8425
 30
0.0
 10
9.3052
 20
68.9067
 30
0.0
 10
9.5074
 20
68.9067
 30
0.0
 10
9.5074
 20
68.9067
 30
0.0
 10
9.7753
 20
68.9067
 30
0.0
 10
10.001
 20
68.8139
 30
0.0
 10
10.1854
 20
68.6282
 30
0.0
 10
10.1854
 20
68.6282
 30
0.0
 10
10.3696
 20
68.4424
 30
0.0
 10
10.4618
 20
68.2038
 30
0.0
 10
10.4618
 20
67.9124
 30
0.0
 10
10.4618
 20
67.9124
 30
0.0
 10
10.4618
 20
67.6345
 30
0.0
 10
10.3804
 20
67.3943
 30
0.0
 10
10.2189
 20
67.1922
 30
0.0
 10
10.2189
 20
67.1922
 30
0.0
 10
10.0218
 20
66.9443
 30
0.0
 10
9.7531
 20
66.8201
 30
0.0
 10
9.4131
 20
66.8201
 30
0.0
 10
9.4131
 20
66.8201
 30
0.0
 10
9.1338
 20
66.8201
 30
0.0
 10
8.906
 20
66.8979
 30
0.0
 10
8.7295
 20
67.0543
 30
0.0
 10
8.7295
 20
67.0543
 30
0.0
 10
8.553
 20
67.2109
 30
0.0
 10
8.4523
 20
67.418
 30
0.0
 10
8.4273
 20
67.6759
 30
0.0
  0
SPLINE
  5
73
330
1F
100
AcDbEntity
  8
ROUND
 62
   250
100
AcDbSpline
210
0.0
220
0.0
230
1.0
 70
    11
 71
     3
 72
    20
 73
    16
 74
     0
 42
0.0000000001
 43
0.0000000001
 40
0.0
 40
0.0
 40
0.0
 40
0.0
 40
0.2
 40
0.2
 40
0.2
 40
0.2
 40
0.4
 40
0.4
 40
0.4
 40
0.4
 40
0.6
 40
0.6
 40
0.6
 40
0.6
 40
1.0
 40
1.0
 40
1.0
 40
1.0
 10
-15.4806
 20
65.8267
 30
0.0
 10
-15.4806
 20
65.8267
 30
0.0
 10
-10.9245
 20
65.1615
 30
0.0
 10
-10.9245
 20
65.1615
 30
0.0
 10
-10.9245
 20
65.1615
 30
0.0
 10
-10.9245
 20
65.1615
 30
0.0
 10
-10.9245
 20
66.63
 30
0.0
 10
-10.9245
 20
66.63
 30
0.0
 10
-10.9245
 20
66.63
 30
0.0
 10
-10.9245
 20
66.63
 30
0.0
 10
-15.4806
 20
65.8288
 30
0.0
 10
-15.4806
 20
65.8288
 30
0.0
 10
-15.4806
 20
65.8288
 30
0.0
 10
-15.4806
 20
65.8288
 30
0.0
 10
-15.4806
 20
65.8267
 30
0.0
 10
-15.4806
 20
65.8267
 30
0.0
  0
SPLINE
  5
74
330
1F
100
AcDbEntity
  8
ROUND
 62
   250
100
AcDbSpline
210
0.0
220
0.0
230
1.0
 70
    11
 71
     3
 72
    20
 73
    16
 74
     0
 42
0.0000000001
 43
0.0000000001
 40
0.0
 40
0.0
 40
0.0
 40
0.0
 40
0.2
 40
0.2
 40
0.2
 40
0.2
 40
0.4
 40
0.4
 40
0.4
 40
0.4
 40
0.6
 40
0.6
 40
0.6
 40
0.6
 40
1.0
 40
1.0
 40
1.0
 40
1.0
 10
25.5895
 20
65.9155
 30
0.0
 10
25.5895
 20
65.9155
 30
0.0
 10
21.0336
 20
66.5806
 30
0.0
 10
21.0336
 20
66.5806
 30
0.0
 10
21.0336
 20
66.5806
 30
0.0
 10
21.0336
 20
66.5806
 30
0.0
 10
21.0336
 20
65.1123
 30
0.0
 10
21.0336
 20
65.1123
 30
0.0
 10
21.0336
 20
65.1123
 30
0.0
 10
21.0336
 20
65.1123
 30
0.0
 10
25.5895
 20
65.9134
 30
0.0
 10
25.5895
 20
65.9134
 30
0.0
 10
25.5895
 20
65.9134
 30
0.0
 10
25.5895
 20
65.9134
 30
0.0
 10
25.5895
 20
65.9155
 30
0.0
 10
25.5895
 20
65.9155
 30
0.0
  0
SPLINE
  5
75
330
1F
100
AcDbEntity
  8
ROUND
 62
   250
100
AcDbSpline
210
0.0
220
0.0
230
1.0
 70
    24
 71
     3
 72
     8
 73
     4
 74
     0
 42
0.0000000001
 43
0.0000000001
 40
0.0
 40
0.0
 40
0.0
 40
0.0
 40
1.0
 40
1.0
 40
1.0
 40
1.0
 10
24.9774
 20
65.8618
 30
0.0
 10
24.9774
 20
65.8618
 30
0.0
 10
-15.1276
 20
65.8618
 30
0.0
 10
-15.1276
 20
65.8618
 30
0.0
  0
ENDSEC
  0
SECTION
  2
OBJECTS
  0
DICTIONARY
  5
C
330
0
100
AcDbDictionary
  3
ACAD_GROUP
350
D
  3
ACAD_LAYOUT
350
1A
  3
ACAD_MATERIAL
350
3B
  3
ACAD_MLEADERSTYLE
350
98
  3
ACAD_MLINESTYLE
350
17
  3
ACAD_PLOTSETTINGS
350
19
  3
ACAD_VISUALSTYLE
350
2A
  3
ACDBHEADERROUNDTRIPXREC
350
76
  3
ACDBVARIABLEDICTIONARY
350
96
  0
DICTIONARY
  5
D
102
{ACAD_REACTORS
330
C
102
}
330
C
100
AcDbDictionary
  0
DICTIONARY
  5
1A
102
{ACAD_REACTORS
330
C
102
}
330
C
100
AcDbDictionary
  0
DICTIONARY
  5
3B
102
{ACAD_REACTORS
330
C
102
}
330
C
100
AcDbDictionary
  3
BYBLOCK
350
3D
  3
BYLAYER
350
3C
  3
GLOBAL
350
3E
  0
DICTIONARY
  5
98
102
{ACAD_REACTORS
330
C
102
}
330
C
100
AcDbDictionary
  0
DICTIONARY
  5
17
102
{ACAD_REACTORS
330
C
102
}
330
C
100
AcDbDictionary
  3
STANDARD
350
18
  0
DICTIONARY
  5
19
102
{ACAD_REACTORS
330
C
102
}
330
C
100
AcDbDictionary
  0
DICTIONARY
  5
2A
102
{ACAD_REACTORS
330
C
102
}
330
C
100
AcDbDictionary
  3
2DWIREFRAME
350
2F
  3
3D_HIDDEN
350
31
  3
3DWIREFRAME
350
30
  3
BASIC
350
32
  3
BRIGHTEN
350
36
  3
COLORCHANGE
350
3A
  3
CONCEPTUAL
350
34
  3
DIM
350
35
  3
FACEPATTERN
350
39
  3
FLAT
350
2B
  3
FLATWITHEDGES
350
2C
  3
GOURAUD
350
2D
  3
GOURAUDWITHEDGES
350
2E
  3
LINEPATTERN
350
38
  3
REALISTIC
350
33
  3
THICKEN
350
37
  0
DICTIONARY
  5
76
102
{ACAD_REACTORS
330
C
102
}
330
C
100
AcDbDictionary
  3
CEPSNTYPE
350
7F
  3
DIMSTYLEDATA
350
95
  3
FINGERPRINTGUID
350
80
  3
HYPERLINKBASE
350
79
  3
INSUNITS
350
7E
  3
LAYOUTDICT
350
7B
  3
LWETCUNION
350
7D
  3
PLOTSETDICT
350
7C
  3
PSVPSCALE
350
82
  3
PUCSBASE
350
85
  3
PUCSORGBACK
350
8B
  3
PUCSORGBOTTOM
350
87
  3
PUCSORGFRONT
350
8A
  3
PUCSORGLEFT
350
88
  3
PUCSORGRIGHT
350
89
  3
PUCSORGTOP
350
86
  3
PUCSORTHOREF
350
83
  3
PUCSORTHOVIEW
350
84
  3
STYLESHEET
350
7A
  3
TSTACKALIGN
350
77
  3
TSTACKSIZE
350
78
  3
UCSBASE
350
8E
  3
UCSORGBACK
350
94
  3
UCSORGBOTTOM
350
90
  3
UCSORGFRONT
350
93
  3
UCSORGLEFT
350
91
  3
UCSORGRIGHT
350
92
  3
UCSORGTOP
350
8F
  3
UCSORTHOREF
350
8C
  3
UCSORTHOVIEW
350
8D
  3
VERSIONGUID
350
81
  0
DICTIONARY
  5
96
102
{ACAD_REACTORS
330
C
102
}
330
C
100
AcDbDictionary
  3
DIMASSOC
350
99
  3
HIDETEXT
350
9A
  0
MATERIAL
  5
3D
102
{ACAD_REACTORS
330
3B
102
}
102
{ACAD_XDICTIONARY
360
9D
102
}
330
3B
100
AcDbMaterial
  1
ByBlock
  0
MATERIAL
  5
3C
102
{ACAD_REACTORS
330
3B
102
}
102
{ACAD_XDICTIONARY
360
9B
102
}
330
3B
100
AcDbMaterial
  1
ByLayer
  0
MATERIAL
  5
3E
102
{ACAD_REACTORS
330
3B
102
}
102
{ACAD_XDICTIONARY
360
9F
102
}
330
3B
100
AcDbMaterial
  1
Global
  0
MLINESTYLE
  5
18
102
{ACAD_REACTORS
330
17
102
}
330
17
100
AcDbMlineStyle
  2
Standard
 70
     0
  3

 62
   256
 51
90.0
 52
90.0
 71
     2
 49
0.5
 62
   256
  6
BYLAYER
 49
-0.5
 62
   256
  6
BYLAYER
  0
ACAD_PROXY_OBJECT
  5
2F
102
{ACAD_REACTORS
330
2A
102
}
330
2A
100
AcDbProxyObject
 90
      499
 91
      501
 93
      436
310
42CC9915DA5C99599C985B595049028333333333333E3BF0000000000000FB0107901411070040501600405405064090741402480A0340
1001
ACAD
1000
AcDbSavedByObjectVersion
1070
     0
  0
ACAD_PROXY_OBJECT
  5
31
102
{ACAD_REACTORS
330
2A
102
}
330
2A
100
AcDbProxyObject
 90
      499
 91
      501
 93
      500
310
424CD108121A5919195B90640502408333333333333E3BF0000000000000FB01079024090700405020000000000001110200405405064090740C02480A0340
1001
ACAD
1000
AcDbSavedByObjectVersion
1070
     0
  0
ACAD_PROXY_OBJECT
  5
30
102
{ACAD_REACTORS
330
2A
102
}
330
2A
100
AcDbProxyObject
 90
      499
 91
      501
 93
      436
310
42CCD915DA5C99599C985B595059028333333333333E3BF0000000000000FB0107901411070040501600405405064090741402480A0340
1001
ACAD
1000
AcDbSavedByObjectVersion
1070
     0
  0
ACAD_PROXY_OBJECT
  5
32
102
{ACAD_REACTORS
330
2A
102
}
330
2A
100
AcDbProxyObject
 90
      499
 91
      501
 93
      388
310
4150985CDA58D07406404333333333333E3BF0000000000000FB0107A41107004050150841D405064090741402480A0350
1001
ACAD
1000
AcDbSavedByObjectVersion
1070
     0
  0
ACAD_PROXY_OBJECT
  5
36
102
{ACAD_REACTORS
330
2A
102
}
330
2A
100
AcDbProxyObject
 90
      499
 91
      501
 93
      428
310
42109C9A59DA1D195B90C409028333333333333E3BF0000000000000FB010790141107004050150841D405064090741402480A029950
1001
ACAD
1000
AcDbSavedByObjectVersion
1070
     0
  0
ACAD_PROXY_OBJECT
  5
3A
102
{ACAD_REACTORS
330
2A
102
}
330
2A
100
AcDbProxyObject
 90
      499
 91
      501
 93
      452
310
42D0DBDB1BDC90DA185B99D95104090240C333333333333E3BF0000000000000FB0108901411070040501508421405064090741402480A0350
1001
ACAD
1000
AcDbSavedByObjectVersion
1070
     0
  0
ACAD_PROXY_OBJECT
  5
34
102
{ACAD_REACTORS
330
2A
102
}
330
2A
100
AcDbProxyObject
 90
      499
 91
      501
 93
      500
310
4290DBDB98D95C1D1D585B10940D028333333333333E3BF0000000000000FB0107902409070040501000000000000111010841D405064090740C02480A0340
1001
ACAD
1000
AcDbSavedByObjectVersion
1070
     0
  0
ACAD_PROXY_OBJECT
  5
35
102
{ACAD_REACTORS
330
2A
102
}
330
2A
100
AcDbProxyObject
 90
      499
 91
      501
 93
      412
310
40D11A5B50B409028333333333333E3BF0000000000000FB010790141107004050150841D405064090741402480A02677FFFFFD0
1001
ACAD
1000
AcDbSavedByObjectVersion
1070
     0
  0
ACAD_PROXY_OBJECT
  5
39
102
{ACAD_REACTORS
330
2A
102
}
330
2A
100
AcDbProxyObject
 90
      499
 91
      501
 93
      444
310
42D19858D95C185D1D195C9B90F409028333333333333E3BF0000000000000FB010790141107004050150841D405064090741402480A0350
1001
ACAD
1000
AcDbSavedByObjectVersion
1070
     0
  0
ACAD_PROXY_OBJECT
  5
2B
102
{ACAD_REACTORS
330
2A
102
}
330
2A
100
AcDbProxyObject
 90
      499
 91
      501
 93
      388
310
41119B185D240901404333333333333E3BF0000000000000F9010740A41107004050150841D405064090741402480A1B50
1001
ACAD
1000
AcDbSavedByObjectVersion
1070
     0
  0
ACAD_PROXY_OBJECT
  5
2C
102
{ACAD_REACTORS
330
2A
102
}
330
2A
100
AcDbProxyObject
 90
      499
 91
      501
 93
      476
310
43519B185D15DA5D1A115919D95CD0140901404333333333333E3BF0000000000000F9010740901411070040501600405405064090741402480A1B50
1001
ACAD
1000
AcDbSavedByObjectVersion
1070
     0
  0
ACAD_PROXY_OBJECT
  5
2D
102
{ACAD_REACTORS
330
2A
102
}
330
2A
100
AcDbProxyObject
 90
      499
 91
      501
 93
      412
310
41D1DBDD5C985D5910240902404333333333333E3BF0000000000000F9010740A411070040501641D405064090741402480A1B50
1001
ACAD
1000
AcDbSavedByObjectVersion
1070
     0
  0
ACAD_PROXY_OBJECT
  5
2E
102
{ACAD_REACTORS
330
2A
102
}
330
2A
100
AcDbProxyObject
 90
      499
 91
      501
 93
      500
310
4411DBDD5C985D5915DA5D1A115919D95CD0340902404333333333333E3BF0000000000000F9010740901411070040501600405405064090741402480A1B50
1001
ACAD
1000
AcDbSavedByObjectVersion
1070
     0
  0
ACAD_PROXY_OBJECT
  5
38
102
{ACAD_REACTORS
330
2A
102
}
330
2A
100
AcDbProxyObject
 90
      499
 91
      501
 93
      444
310
42D31A5B995C185D1D195C9B90E409028333333333333E3BF0000000000000FB010790141107004050750841D405064090741402483A0350
1001
ACAD
1000
AcDbSavedByObjectVersion
1070
     0
  0
ACAD_PROXY_OBJECT
  5
33
102
{ACAD_REACTORS
330
2A
102
}
330
2A
100
AcDbProxyObject
 90
      499
 91
      501
 93
      420
310
425499585B1A5CDD1A58D08409028333333333333E3BF0000000000000FB01079019070040501508421405064090741402480A1B40
1001
ACAD
1000
AcDbSavedByObjectVersion
1070
     0
  0
ACAD_PROXY_OBJECT
  5
37
102
{ACAD_REACTORS
330
2A
102
}
330
2A
100
AcDbProxyObject
 90
      499
 91
      501
 93
      412
310
41D51A1A58DAD95B90D409028333333333333E3BF0000000000000FB010790141107004050150C41D405064090741402480A0350
1001
ACAD
1000
AcDbSavedByObjectVersion
1070
     0
  0
XRECORD
  5
7F
102
{ACAD_REACTORS
330
76
102
}
330
76
100
AcDbXrecord
 90
        0
  0
XRECORD
  5
95
102
{ACAD_REACTORS
330
76
102
}
330
76
100
AcDbXrecord
1000
DSTYLE
1002
{
1070
   340
340
11
1002
}
  0
XRECORD
  5
80
102
{ACAD_REACTORS
330
76
102
}
330
76
100
AcDbXrecord
  1
{4A088A22-D53D-45CD-93E3-48B3B9E7BBC0}
  0
XRECORD
  5
79
102
{ACAD_REACTORS
330
76
102
}
330
76
100
AcDbXrecord
  1

  0
XRECORD
  5
7E
102
{ACAD_REACTORS
330
76
102
}
330
76
100
AcDbXrecord
 90
        4
  0
XRECORD
  5
7B
102
{ACAD_REACTORS
330
76
102
}
330
76
100
AcDbXrecord
340
1A
  0
XRECORD
  5
7D
102
{ACAD_REACTORS
330
76
102
}
330
76
100
AcDbXrecord
 90
    10781
  0
XRECORD
  5
7C
102
{ACAD_REACTORS
330
76
102
}
330
76
100
AcDbXrecord
340
19
  0
XRECORD
  5
82
102
{ACAD_REACTORS
330
76
102
}
330
76
100
AcDbXrecord
 40
0.0
  0
XRECORD
  5
85
102
{ACAD_REACTORS
330
76
102
}
330
76
100
AcDbXrecord
340
0
  0
XRECORD
  5
8B
102
{ACAD_REACTORS
330
76
102
}
330
76
100
AcDbXrecord
 10
0.0
 20
0.0
 30
0.0
  0
XRECORD
  5
87
102
{ACAD_REACTORS
330
76
102
}
330
76
100
AcDbXrecord
 10
0.0
 20
0.0
 30
0.0
  0
XRECORD
  5
8A
102
{ACAD_REACTORS
330
76
102
}
330
76
100
AcDbXrecord
 10
0.0
 20
0.0
 30
0.0
  0
XRECORD
  5
88
102
{ACAD_REACTORS
330
76
102
}
330
76
100
AcDbXrecord
 10
0.0
 20
0.0
 30
0.0
  0
XRECORD
  5
89
102
{ACAD_REACTORS
330
76
102
}
330
76
100
AcDbXrecord
 10
0.0
 20
0.0
 30
0.0
  0
XRECORD
  5
86
102
{ACAD_REACTORS
330
76
102
}
330
76
100
AcDbXrecord
 10
0.0
 20
0.0
 30
0.0
  0
XRECORD
  5
83
102
{ACAD_REACTORS
330
76
102
}
330
76
100
AcDbXrecord
340
0
  0
XRECORD
  5
84
102
{ACAD_REACTORS
330
76
102
}
330
76
100
AcDbXrecord
 70
     0
  0
XRECORD
  5
7A
102
{ACAD_REACTORS
330
76
102
}
330
76
100
AcDbXrecord
  1

  0
XRECORD
  5
77
102
{ACAD_REACTORS
330
76
102
}
330
76
100
AcDbXrecord
 90
        1
  0
XRECORD
  5
78
102
{ACAD_REACTORS
330
76
102
}
330
76
100
AcDbXrecord
 90
       70
  0
XRECORD
  5
8E
102
{ACAD_REACTORS
330
76
102
}
330
76
100
AcDbXrecord
340
0
  0
XRECORD
  5
94
102
{ACAD_REACTORS
330
76
102
}
330
76
100
AcDbXrecord
 10
0.0
 20
0.0
 30
0.0
  0
XRECORD
  5
90
102
{ACAD_REACTORS
330
76
102
}
330
76
100
AcDbXrecord
 10
0.0
 20
0.0
 30
0.0
  0
XRECORD
  5
93
102
{ACAD_REACTORS
330
76
102
}
330
76
100
AcDbXrecord
 10
0.0
 20
0.0
 30
0.0
  0
XRECORD
  5
91
102
{ACAD_REACTORS
330
76
102
}
330
76
100
AcDbXrecord
 10
0.0
 20
0.0
 30
0.0
  0
XRECORD
  5
92
102
{ACAD_REACTORS
330
76
102
}
330
76
100
AcDbXrecord
 10
0.0
 20
0.0
 30
0.0
  0
XRECORD
  5
8F
102
{ACAD_REACTORS
330
76
102
}
330
76
100
AcDbXrecord
 10
0.0
 20
0.0
 30
0.0
  0
XRECORD
  5
8C
102
{ACAD_REACTORS
330
76
102
}
330
76
100
AcDbXrecord
340
0
  0
XRECORD
  5
8D
102
{ACAD_REACTORS
330
76
102
}
330
76
100
AcDbXrecord
 70
     0
  0
XRECORD
  5
81
102
{ACAD_REACTORS
330
76
102
}
330
76
100
AcDbXrecord
  1
{FAEB1C32-E019-11D5-929B-00C0DF256EC4}
  0
DICTIONARYVAR
  5
99
102
{ACAD_REACTORS
330
96
102
}
330
96
100
DictionaryVariables
280
     0
  1
2
  0
DICTIONARYVAR
  5
9A
102
{ACAD_REACTORS
330
96
102
}
330
96
100
DictionaryVariables
280
     0
  1
1
  0
DICTIONARY
  5
9D
330
3D
100
AcDbDictionary
280
     1
  3
ACAD_XREC_ROUNDTRIP
360
9E
  0
DICTIONARY
  5
9B
330
3C
100
AcDbDictionary
280
     1
  3
ACAD_XREC_ROUNDTRIP
360
9C
  0
DICTIONARY
  5
9F
330
3E
100
AcDbDictionary
280
     1
  3
ACAD_XREC_ROUNDTRIP
360
A0
  0
XRECORD
  5
9E
102
{ACAD_REACTORS
330
9D
102
}
330
9D
100
AcDbXrecord
102
MATERIAL
148
0.0
149
0.0
149
0.0
 93
        0
 94
      127
282
     0
 72
     1
 77
     1
171
     1
175
     1
179
     1
273
     0
  0
XRECORD
  5
9C
102
{ACAD_REACTORS
330
9B
102
}
330
9B
100
AcDbXrecord
102
MATERIAL
148
0.0
149
0.0
149
0.0
 93
        0
 94
      127
282
     0
 72
     1
 77
     1
171
     1
175
     1
179
     1
273
     0
  0
XRECORD
  5
A0
102
{ACAD_REACTORS
330
9F
102
}
330
9F
100
AcDbXrecord
102
MATERIAL
148
0.0
149
0.0
149
0.0
 93
        0
 94
      127
282
     0
 72
     1
 77
     1
171
     1
175
     1
179
     1
273
     0
  0
ENDSEC
  0
EOF
