  0
SECTION
  2
HEADER
  9
$ACADVER
  1
AC1014
  9
$ACADMAINTVER
 70
     9
  9
$DWGCODEPAGE
  3
ANSI_1250
  9
$INSBASE
 10
0.0
 20
0.0
 30
0.0
  9
$EXTMIN
 10
-23.4326
 20
-36.8012
 30
0.0
  9
$EXTMAX
 10
23.5212
 20
36.8014
 30
0.0
  9
$LIMMIN
 10
0.0
 20
0.0
  9
$LIMMAX
 10
12.0
 20
9.0
  9
$ORTHOMODE
 70
     0
  9
$REGENMODE
 70
     1
  9
$FILLMODE
 70
     1
  9
$QTEXTMODE
 70
     0
  9
$MIRRTEXT
 70
     1
  9
$DRAGMODE
 70
     2
  9
$LTSCALE
 40
1.0
  9
$OSMODE
 70
    37
  9
$ATTMODE
 70
     1
  9
$TEXTSIZE
 40
0.2
  9
$TRACEWID
 40
0.05
  9
$TEXTSTYLE
  7
STANDARD
  9
$CLAYER
  8
0
  9
$CELTYPE
  6
BYLAYER
  9
$CECOLOR
 62
   256
  9
$CELTSCALE
 40
1.0
  9
$DELOBJ
 70
     1
  9
$DISPSILH
 70
     0
  9
$DIMSCALE
 40
1.0
  9
$DIMASZ
 40
0.18
  9
$DIMEXO
 40
0.0625
  9
$DIMDLI
 40
0.38
  9
$DIMRND
 40
0.0
  9
$DIMDLE
 40
0.0
  9
$DIMEXE
 40
0.18
  9
$DIMTP
 40
0.0
  9
$DIMTM
 40
0.0
  9
$DIMTXT
 40
0.18
  9
$DIMCEN
 40
0.09
  9
$DIMTSZ
 40
0.0
  9
$DIMTOL
 70
     0
  9
$DIMLIM
 70
     0
  9
$DIMTIH
 70
     1
  9
$DIMTOH
 70
     1
  9
$DIMSE1
 70
     0
  9
$DIMSE2
 70
     0
  9
$DIMTAD
 70
     0
  9
$DIMZIN
 70
     0
  9
$DIMBLK
  1

  9
$DIMASO
 70
     1
  9
$DIMSHO
 70
     1
  9
$DIMPOST
  1

  9
$DIMAPOST
  1

  9
$DIMALT
 70
     0
  9
$DIMALTD
 70
     2
  9
$DIMALTF
 40
25.4
  9
$DIMLFAC
 40
1.0
  9
$DIMTOFL
 70
     0
  9
$DIMTVP
 40
0.0
  9
$DIMTIX
 70
     0
  9
$DIMSOXD
 70
     0
  9
$DIMSAH
 70
     0
  9
$DIMBLK1
  1

  9
$DIMBLK2
  1

  9
$DIMSTYLE
  2
STANDARD
  9
$DIMCLRD
 70
     0
  9
$DIMCLRE
 70
     0
  9
$DIMCLRT
 70
     0
  9
$DIMTFAC
 40
1.0
  9
$DIMGAP
 40
0.09
  9
$DIMJUST
 70
     0
  9
$DIMSD1
 70
     0
  9
$DIMSD2
 70
     0
  9
$DIMTOLJ
 70
     1
  9
$DIMTZIN
 70
     0
  9
$DIMALTZ
 70
     0
  9
$DIMALTTZ
 70
     0
  9
$DIMFIT
 70
     3
  9
$DIMUPT
 70
     0
  9
$DIMUNIT
 70
     2
  9
$DIMDEC
 70
     4
  9
$DIMTDEC
 70
     4
  9
$DIMALTU
 70
     2
  9
$DIMALTTD
 70
     2
  9
$DIMTXSTY
  7
STANDARD
  9
$DIMAUNIT
 70
     0
  9
$LUNITS
 70
     2
  9
$LUPREC
 70
     4
  9
$SKETCHINC
 40
0.1
  9
$FILLETRAD
 40
0.5
  9
$AUNITS
 70
     0
  9
$AUPREC
 70
     0
  9
$MENU
  1
.
  9
$ELEVATION
 40
0.0
  9
$PELEVATION
 40
0.0
  9
$THICKNESS
 40
0.0
  9
$LIMCHECK
 70
     0
  9
$CHAMFERA
 40
0.5
  9
$CHAMFERB
 40
0.5
  9
$CHAMFERC
 40
1.0
  9
$CHAMFERD
 40
0.0
  9
$SKPOLY
 70
     0
  9
$TDCREATE
 40
2456266.382048634
  9
$TDUPDATE
 40
2456266.382048646
  9
$TDINDWG
 40
0.0000000116
  9
$TDUSRTIMER
 40
0.0000000116
  9
$USRTIMER
 70
     1
  9
$ANGBASE
 50
0.0
  9
$ANGDIR
 70
     0
  9
$PDMODE
 70
     0
  9
$PDSIZE
 40
0.0
  9
$PLINEWID
 40
0.0
  9
$COORDS
 70
     1
  9
$SPLFRAME
 70
     0
  9
$SPLINETYPE
 70
     6
  9
$SPLINESEGS
 70
     8
  9
$ATTDIA
 70
     0
  9
$ATTREQ
 70
     1
  9
$HANDLING
 70
     1
  9
$HANDSEED
  5
E0
  9
$SURFTAB1
 70
     6
  9
$SURFTAB2
 70
     6
  9
$SURFTYPE
 70
     6
  9
$SURFU
 70
     6
  9
$SURFV
 70
     6
  9
$UCSNAME
  2

  9
$UCSORG
 10
0.0
 20
0.0
 30
0.0
  9
$UCSXDIR
 10
1.0
 20
0.0
 30
0.0
  9
$UCSYDIR
 10
0.0
 20
1.0
 30
0.0
  9
$PUCSNAME
  2

  9
$PUCSORG
 10
0.0
 20
0.0
 30
0.0
  9
$PUCSXDIR
 10
1.0
 20
0.0
 30
0.0
  9
$PUCSYDIR
 10
0.0
 20
1.0
 30
0.0
  9
$USERI1
 70
     0
  9
$USERI2
 70
     0
  9
$USERI3
 70
     0
  9
$USERI4
 70
     0
  9
$USERI5
 70
     0
  9
$USERR1
 40
0.0
  9
$USERR2
 40
0.0
  9
$USERR3
 40
0.0
  9
$USERR4
 40
0.0
  9
$USERR5
 40
0.0
  9
$WORLDVIEW
 70
     1
  9
$SHADEDGE
 70
     3
  9
$SHADEDIF
 70
    70
  9
$TILEMODE
 70
     1
  9
$MAXACTVP
 70
    64
  9
$PINSBASE
 10
0.0
 20
0.0
 30
0.0
  9
$PLIMCHECK
 70
     0
  9
$PEXTMIN
 10
1.000000000000000E+20
 20
1.000000000000000E+20
 30
1.000000000000000E+20
  9
$PEXTMAX
 10
-1.000000000000000E+20
 20
-1.000000000000000E+20
 30
-1.000000000000000E+20
  9
$PLIMMIN
 10
0.0
 20
0.0
  9
$PLIMMAX
 10
12.0
 20
9.0
  9
$UNITMODE
 70
     0
  9
$VISRETAIN
 70
     1
  9
$PLINEGEN
 70
     0
  9
$PSLTSCALE
 70
     1
  9
$TREEDEPTH
 70
  3020
  9
$PICKSTYLE
 70
     1
  9
$CMLSTYLE
  2
STANDARD
  9
$CMLJUST
 70
     0
  9
$CMLSCALE
 40
1.0
  9
$PROXYGRAPHICS
 70
     1
  9
$MEASUREMENT
 70
     0
  0
ENDSEC
  0
SECTION
  2
CLASSES
  0
CLASS
  1
ACDBDICTIONARYWDFLT
  2
AcDbDictionaryWithDefault
  3
ObjectDBX Classes
 90
        0
280
     0
281
     0
  0
CLASS
  1
VISUALSTYLE
  2
AcDbVisualStyle
  3
ObjectDBX Classes
 90
     4095
280
     0
281
     0
  0
CLASS
  1
MATERIAL
  2
AcDbMaterial
  3
ObjectDBX Classes
 90
     1153
280
     0
281
     0
  0
CLASS
  1
DICTIONARYVAR
  2
AcDbDictionaryVar
  3
ObjectDBX Classes
 90
        0
280
     0
281
     0
  0
CLASS
  1
XRECORD
  2
AcDbXrecord
  3
AutoCAD 2000
 90
        0
280
     0
281
     0
  0
CLASS
  1
LWPOLYLINE
  2
AcDbPolyline
  3
AutoCAD 2000
 90
        0
280
     0
281
     1
  0
CLASS
  1
HATCH
  2
AcDbHatch
  3
AutoCAD 2000
 90
        0
280
     0
281
     1
  0
CLASS
  1
ACDBPLACEHOLDER
  2
AcDbPlaceHolder
  3
ObjectDBX Classes
 90
        0
280
     0
281
     0
  0
CLASS
  1
LAYOUT
  2
AcDbLayout
  3
ObjectDBX Classes
 90
        0
280
     0
281
     0
  0
ENDSEC
  0
SECTION
  2
TABLES
  0
TABLE
  2
VPORT
  5
8
330
0
100
AcDbSymbolTable
 70
     1
  0
VPORT
  5
29
330
8
100
AcDbSymbolTableRecord
100
AcDbViewportTableRecord
  2
*ACTIVE
 70
     0
 10
0.0
 20
0.0
 11
1.0
 21
1.0
 12
10.42990654205607
 22
4.5
 13
0.0
 23
0.0
 14
0.5
 24
0.5
 15
0.5
 25
0.5
 16
0.0
 26
0.0
 36
1.0
 17
0.0
 27
0.0
 37
0.0
 40
9.0
 41
1.972972972850329
 42
50.0
 43
0.0
 44
0.0
 50
0.0
 51
0.0
 71
     0
 72
   100
 73
     1
 74
     3
 75
     0
 76
     0
 77
     0
 78
     0
  0
ENDTAB
  0
TABLE
  2
LTYPE
  5
5
330
0
100
AcDbSymbolTable
 70
     3
  0
LTYPE
  5
14
330
5
100
AcDbSymbolTableRecord
100
AcDbLinetypeTableRecord
  2
BYBLOCK
 70
     0
  3

 72
    65
 73
     0
 40
0.0
  0
LTYPE
  5
15
330
5
100
AcDbSymbolTableRecord
100
AcDbLinetypeTableRecord
  2
BYLAYER
 70
     0
  3

 72
    65
 73
     0
 40
0.0
  0
LTYPE
  5
16
330
5
100
AcDbSymbolTableRecord
100
AcDbLinetypeTableRecord
  2
CONTINUOUS
 70
     0
  3
Solid line
 72
    65
 73
     0
 40
0.0
  0
LTYPE
  5
49
330
5
100
AcDbSymbolTableRecord
100
AcDbLinetypeTableRecord
  2
NEW_LINE1
 70
     0
  3

 72
    65
 73
     4
 40
1.2
 49
0.5
 74
     4
 75
     0
340
0
 46
1.0
 50
0.0
 44
0.0
 45
0.0
 49
-0.3
 74
     4
 75
     0
340
0
 46
1.0
 50
0.0
 44
0.0
 45
0.0
 49
0.1
 74
     4
 75
     0
340
0
 46
1.0
 50
0.0
 44
0.0
 45
0.0
 49
-0.3
 74
     4
 75
     0
340
0
 46
1.0
 50
0.0
 44
0.0
 45
0.0
  0
LTYPE
  5
4B
330
5
100
AcDbSymbolTableRecord
100
AcDbLinetypeTableRecord
  2
NEW_LINE2
 70
     0
  3

 72
    65
 73
     4
 40
1.2
 49
0.5
 74
     4
 75
     0
340
0
 46
1.0
 50
0.0
 44
0.0
 45
0.0
 49
-0.3
 74
     4
 75
     0
340
0
 46
1.0
 50
0.0
 44
0.0
 45
0.0
 49
0.1
 74
     4
 75
     0
340
0
 46
1.0
 50
0.0
 44
0.0
 45
0.0
 49
-0.3
 74
     4
 75
     0
340
0
 46
1.0
 50
0.0
 44
0.0
 45
0.0
  0
ENDTAB
  0
TABLE
  2
LAYER
  5
2
330
0
100
AcDbSymbolTable
 70
     2
  0
LAYER
  5
10
330
2
100
AcDbSymbolTableRecord
100
AcDbLayerTableRecord
  2
0
 70
     0
 62
     7
  6
CONTINUOUS
  0
LAYER
  5
40
330
2
100
AcDbSymbolTableRecord
100
AcDbLayerTableRecord
  2
DEFAULT_1
 70
     0
 62
     7
  6
CONTINUOUS
  0
ENDTAB
  0
TABLE
  2
STYLE
  5
3
330
0
100
AcDbSymbolTable
 70
     1
  0
STYLE
  5
11
330
3
100
AcDbSymbolTableRecord
100
AcDbTextStyleTableRecord
  2
STANDARD
 70
     0
 40
0.0
 41
1.0
 50
0.0
 71
     0
 42
0.2
  3
txt
  4

  0
ENDTAB
  0
TABLE
  2
VIEW
  5
6
330
0
100
AcDbSymbolTable
 70
     0
  0
ENDTAB
  0
TABLE
  2
UCS
  5
7
330
0
100
AcDbSymbolTable
 70
     0
  0
ENDTAB
  0
TABLE
  2
APPID
  5
9
330
0
100
AcDbSymbolTable
 70
     2
  0
APPID
  5
12
330
9
100
AcDbSymbolTableRecord
100
AcDbRegAppTableRecord
  2
ACAD
 70
     0
  0
APPID
  5
3F
330
9
100
AcDbSymbolTableRecord
100
AcDbRegAppTableRecord
  2
ODA
 70
     0
  0
ENDTAB
  0
TABLE
  2
DIMSTYLE
  5
A
330
0
100
AcDbSymbolTable
 70
     1
  0
DIMSTYLE
105
27
330
A
100
AcDbSymbolTableRecord
100
AcDbDimStyleTableRecord
  2
STANDARD
 70
     0
  3

  4

  5

  6

  7

 40
1.0
 41
0.18
 42
0.0625
 43
0.38
 44
0.18
 45
0.0
 46
0.0
 47
0.0
 48
0.0
140
0.18
141
0.09
142
0.0
143
25.4
144
1.0
145
0.0
146
1.0
147
0.09
 71
     0
 72
     0
 73
     1
 74
     1
 75
     0
 76
     0
 77
     0
 78
     0
170
     0
171
     2
172
     0
173
     0
174
     0
175
     0
176
     0
177
     0
178
     0
270
     2
271
     4
272
     4
273
     2
274
     2
340
11
275
     0
280
     0
281
     0
282
     0
283
     1
284
     0
285
     0
286
     0
287
     3
288
     0
  0
ENDTAB
  0
TABLE
  2
BLOCK_RECORD
  5
1
330
0
100
AcDbSymbolTable
 70
     1
  0
BLOCK_RECORD
  5
1F
330
1
100
AcDbSymbolTableRecord
100
AcDbBlockTableRecord
  2
*MODEL_SPACE
  0
BLOCK_RECORD
  5
1B
330
1
100
AcDbSymbolTableRecord
100
AcDbBlockTableRecord
  2
*PAPER_SPACE
  0
ENDTAB
  0
ENDSEC
  0
SECTION
  2
BLOCKS
  0
BLOCK
  5
20
330
1F
100
AcDbEntity
  8
0
100
AcDbBlockBegin
  2
*MODEL_SPACE
 70
     0
 10
0.0
 20
0.0
 30
0.0
  3
*MODEL_SPACE
  1

  0
ENDBLK
  5
21
330
1F
100
AcDbEntity
  8
0
100
AcDbBlockEnd
  0
BLOCK
  5
1C
330
1B
100
AcDbEntity
 67
     1
  8
0
100
AcDbBlockBegin
  2
*PAPER_SPACE
 70
     0
 10
0.0
 20
0.0
 30
0.0
  3
*PAPER_SPACE
  1

  0
ENDBLK
  5
1D
330
1B
100
AcDbEntity
 67
     1
  8
0
100
AcDbBlockEnd
  0
ENDSEC
  0
SECTION
  2
ENTITIES
  0
SPLINE
  5
41
330
1F
100
AcDbEntity
  8
DEFAULT_1
 62
   250
100
AcDbSpline
210
0.0
220
0.0
230
1.0
 70
    24
 71
     3
 72
     8
 73
     4
 74
     0
 42
0.0000000001
 43
0.0000000001
 40
0.0
 40
0.0
 40
0.0
 40
0.0
 40
1.0
 40
1.0
 40
1.0
 40
1.0
 10
-3.3085
 20
-7.7699
 30
0.0
 10
-3.3085
 20
-7.7699
 30
0.0
 10
-20.8402
 20
-7.7699
 30
0.0
 10
-20.8402
 20
-7.7699
 30
0.0
  0
SPLINE
  5
42
330
1F
100
AcDbEntity
  8
DEFAULT_1
 62
   250
100
AcDbSpline
210
0.0
220
0.0
230
1.0
 70
    24
 71
     3
 72
     8
 73
     4
 74
     0
 42
0.0000000001
 43
0.0000000001
 40
0.0
 40
0.0
 40
0.0
 40
0.0
 40
1.0
 40
1.0
 40
1.0
 40
1.0
 10
-20.5607
 20
-7.0375
 30
0.0
 10
-20.5607
 20
-7.0375
 30
0.0
 10
-20.5607
 20
28.7226
 30
0.0
 10
-20.5607
 20
28.7226
 30
0.0
  0
SPLINE
  5
43
330
1F
100
AcDbEntity
  8
DEFAULT_1
 62
   250
100
AcDbSpline
210
0.0
220
0.0
230
1.0
 70
    24
 71
     3
 72
     8
 73
     4
 74
     0
 42
0.0000000001
 43
0.0000000001
 40
0.0
 40
0.0
 40
0.0
 40
0.0
 40
1.0
 40
1.0
 40
1.0
 40
1.0
 10
-9.9563
 20
30.9277
 30
0.0
 10
-9.9563
 20
30.9277
 30
0.0
 10
-20.8405
 20
30.9277
 30
0.0
 10
-20.8405
 20
30.9277
 30
0.0
  0
SPLINE
  5
44
330
1F
100
AcDbEntity
  8
DEFAULT_1
 62
   250
100
AcDbSpline
210
0.0
220
0.0
230
1.0
 70
    24
 71
     3
 72
     8
 73
     4
 74
     0
 42
0.0000000001
 43
0.0000000001
 40
0.0
 40
0.0
 40
0.0
 40
0.0
 40
1.0
 40
1.0
 40
1.0
 40
1.0
 10
6.4898
 20
10.471
 30
0.0
 10
6.4898
 20
10.471
 30
0.0
 10
-12.1295
 20
10.471
 30
0.0
 10
-12.1295
 20
10.471
 30
0.0
  0
SPLINE
  5
45
330
1F
100
AcDbEntity
  8
DEFAULT_1
 62
   250
100
AcDbSpline
210
0.0
220
0.0
230
1.0
 70
    24
 71
     3
 72
     8
 73
     4
 74
     0
 42
0.0000000001
 43
0.0000000001
 40
0.0
 40
0.0
 40
0.0
 40
0.0
 40
1.0
 40
1.0
 40
1.0
 40
1.0
 10
-8.5537
 20
34.7371
 30
0.0
 10
-8.5537
 20
34.7371
 30
0.0
 10
-8.5537
 20
31.1728
 30
0.0
 10
-8.5537
 20
31.1728
 30
0.0
  0
SPLINE
  5
46
330
1F
100
AcDbEntity
  8
DEFAULT_1
 62
   250
100
AcDbSpline
210
0.0
220
0.0
230
1.0
 70
    24
 71
     3
 72
     8
 73
     4
 74
     0
 42
0.0000000001
 43
0.0000000001
 40
0.0
 40
0.0
 40
0.0
 40
0.0
 40
1.0
 40
1.0
 40
1.0
 40
1.0
 10
3.131
 20
34.829
 30
0.0
 10
3.131
 20
34.829
 30
0.0
 10
3.131
 20
31.1728
 30
0.0
 10
3.131
 20
31.1728
 30
0.0
  0
SPLINE
  5
47
330
1F
100
AcDbEntity
  8
DEFAULT_1
 62
   250
100
AcDbSpline
210
0.0
220
0.0
230
1.0
 70
    24
 71
     3
 72
     8
 73
     4
 74
     0
 42
0.0000000001
 43
0.0000000001
 40
0.0
 40
0.0
 40
0.0
 40
0.0
 40
1.0
 40
1.0
 40
1.0
 40
1.0
 10
7.5633
 20
34.0173
 30
0.0
 10
7.5633
 20
34.0173
 30
0.0
 10
-13.325
 20
34.0173
 30
0.0
 10
-13.325
 20
34.0173
 30
0.0
  0
SPLINE
  5
48
330
1F
100
AcDbEntity
  8
DEFAULT_1
  6
NEW_LINE1
 62
   250
100
AcDbSpline
210
0.0
220
0.0
230
1.0
 70
    24
 71
     3
 72
     8
 73
     4
 74
     0
 42
0.0000000001
 43
0.0000000001
 40
0.0
 40
0.0
 40
0.0
 40
0.0
 40
1.0
 40
1.0
 40
1.0
 40
1.0
 10
-2.7114
 20
-36.8012
 30
0.0
 10
-2.7114
 20
-36.8012
 30
0.0
 10
-2.7114
 20
32.1327
 30
0.0
 10
-2.7114
 20
32.1327
 30
0.0
  0
SPLINE
  5
4A
330
1F
100
AcDbEntity
  8
DEFAULT_1
  6
NEW_LINE2
 62
   250
100
AcDbSpline
210
0.0
220
0.0
230
1.0
 70
    24
 71
     3
 72
     8
 73
     4
 74
     0
 42
0.0000000001
 43
0.0000000001
 40
0.0
 40
0.0
 40
0.0
 40
0.0
 40
1.0
 40
1.0
 40
1.0
 40
1.0
 10
13.8904
 20
-7.7699
 30
0.0
 10
13.8904
 20
-7.7699
 30
0.0
 10
-3.4036
 20
-7.7699
 30
0.0
 10
-3.4036
 20
-7.7699
 30
0.0
  0
SPLINE
  5
4C
330
1F
100
AcDbEntity
  8
DEFAULT_1
 62
   250
100
AcDbSpline
210
0.0
220
0.0
230
1.0
 70
    24
 71
     3
 72
     8
 73
     4
 74
     0
 42
0.0000000001
 43
0.0000000001
 40
0.0
 40
0.0
 40
0.0
 40
0.0
 40
1.0
 40
1.0
 40
1.0
 40
1.0
 10
13.0851
 20
-14.0138
 30
0.0
 10
13.0851
 20
-14.0138
 30
0.0
 10
23.4326
 20
-14.0138
 30
0.0
 10
23.4326
 20
-14.0138
 30
0.0
  0
SPLINE
  5
4D
330
1F
100
AcDbEntity
  8
DEFAULT_1
 62
   250
100
AcDbSpline
210
0.0
220
0.0
230
1.0
 70
    24
 71
     3
 72
     8
 73
     4
 74
     0
 42
0.0000000001
 43
0.0000000001
 40
0.0
 40
0.0
 40
0.0
 40
0.0
 40
1.0
 40
1.0
 40
1.0
 40
1.0
 10
13.0851
 20
-1.4497
 30
0.0
 10
13.0851
 20
-1.4497
 30
0.0
 10
23.244
 20
-1.4497
 30
0.0
 10
23.244
 20
-1.4497
 30
0.0
  0
SPLINE
  5
4E
330
1F
100
AcDbEntity
  8
DEFAULT_1
 62
   250
100
AcDbSpline
210
0.0
220
0.0
230
1.0
 70
    24
 71
     3
 72
     8
 73
     4
 74
     0
 42
0.0000000001
 43
0.0000000001
 40
0.0
 40
0.0
 40
0.0
 40
0.0
 40
1.0
 40
1.0
 40
1.0
 40
1.0
 10
22.8125
 20
-1.4497
 30
0.0
 10
22.8125
 20
-1.4497
 30
0.0
 10
22.8125
 20
-13.4262
 30
0.0
 10
22.8125
 20
-13.4262
 30
0.0
  0
SPLINE
  5
4F
330
1F
100
AcDbEntity
  8
DEFAULT_1
 62
   250
100
AcDbSpline
210
0.0
220
0.0
230
1.0
 70
    24
 71
     3
 72
     8
 73
     4
 74
     0
 42
0.0000000001
 43
0.0000000001
 40
0.0
 40
0.0
 40
0.0
 40
0.0
 40
1.0
 40
1.0
 40
1.0
 40
1.0
 10
13.4354
 20
-12.7802
 30
0.0
 10
13.4354
 20
-12.7802
 30
0.0
 10
18.3864
 20
-12.7802
 30
0.0
 10
18.3864
 20
-12.7802
 30
0.0
  0
SPLINE
  5
50
330
1F
100
AcDbEntity
  8
DEFAULT_1
 62
   250
100
AcDbSpline
210
0.0
220
0.0
230
1.0
 70
    24
 71
     3
 72
     8
 73
     4
 74
     0
 42
0.0000000001
 43
0.0000000001
 40
0.0
 40
0.0
 40
0.0
 40
0.0
 40
1.0
 40
1.0
 40
1.0
 40
1.0
 10
13.3254
 20
-2.6833
 30
0.0
 10
13.3254
 20
-2.6833
 30
0.0
 10
18.3864
 20
-2.6833
 30
0.0
 10
18.3864
 20
-2.6833
 30
0.0
  0
SPLINE
  5
51
330
1F
100
AcDbEntity
  8
DEFAULT_1
 62
   250
100
AcDbSpline
210
0.0
220
0.0
230
1.0
 70
    24
 71
     3
 72
     8
 73
     4
 74
     0
 42
0.0000000001
 43
0.0000000001
 40
0.0
 40
0.0
 40
0.0
 40
0.0
 40
1.0
 40
1.0
 40
1.0
 40
1.0
 10
17.8778
 20
-3.3992
 30
0.0
 10
17.8778
 20
-3.3992
 30
0.0
 10
17.8778
 20
-11.8541
 30
0.0
 10
17.8778
 20
-11.8541
 30
0.0
  0
SPLINE
  5
52
330
1F
100
AcDbEntity
  8
DEFAULT_1
 62
   250
100
AcDbSpline
210
0.0
220
0.0
230
1.0
 70
    24
 71
     3
 72
     8
 73
     4
 74
     0
 42
0.0000000001
 43
0.0000000001
 40
0.0
 40
0.0
 40
0.0
 40
0.0
 40
1.0
 40
1.0
 40
1.0
 40
1.0
 10
-3.344
 20
-35.8278
 30
0.0
 10
-3.344
 20
-35.8278
 30
0.0
 10
-21.3384
 20
-35.8278
 30
0.0
 10
-21.3384
 20
-35.8278
 30
0.0
  0
SPLINE
  5
53
330
1F
100
AcDbEntity
  8
DEFAULT_1
 62
   250
100
AcDbSpline
210
0.0
220
0.0
230
1.0
 70
    24
 71
     3
 72
     8
 73
     4
 74
     0
 42
0.0000000001
 43
0.0000000001
 40
0.0
 40
0.0
 40
0.0
 40
0.0
 40
1.0
 40
1.0
 40
1.0
 40
1.0
 10
-20.6403
 20
-35.7726
 30
0.0
 10
-20.6403
 20
-35.7726
 30
0.0
 10
-20.6403
 20
-7.9744
 30
0.0
 10
-20.6403
 20
-7.9744
 30
0.0
  0
SPLINE
  5
54
330
1F
100
AcDbEntity
  8
DEFAULT_1
 62
   250
100
AcDbSpline
210
0.0
220
0.0
230
1.0
 70
    11
 71
     3
 72
   120
 73
   116
 74
     0
 42
0.0000000001
 43
0.0000000001
 40
0.0
 40
0.0
 40
0.0
 40
0.0
 40
0.0333333333333333
 40
0.0333333333333333
 40
0.0333333333333333
 40
0.0333333333333333
 40
0.0666666666666667
 40
0.0666666666666667
 40
0.0666666666666667
 40
0.0666666666666667
 40
0.1
 40
0.1
 40
0.1
 40
0.1
 40
0.1333333333333333
 40
0.1333333333333333
 40
0.1333333333333333
 40
0.1333333333333333
 40
0.1666666666666667
 40
0.1666666666666667
 40
0.1666666666666667
 40
0.1666666666666667
 40
0.2
 40
0.2
 40
0.2
 40
0.2
 40
0.2333333333333333
 40
0.2333333333333333
 40
0.2333333333333333
 40
0.2333333333333333
 40
0.2666666666666667
 40
0.2666666666666667
 40
0.2666666666666667
 40
0.2666666666666667
 40
0.3
 40
0.3
 40
0.3
 40
0.3
 40
0.3333333333333333
 40
0.3333333333333333
 40
0.3333333333333333
 40
0.3333333333333333
 40
0.3666666666666666
 40
0.3666666666666666
 40
0.3666666666666666
 40
0.3666666666666666
 40
0.4
 40
0.4
 40
0.4
 40
0.4
 40
0.4333333333333333
 40
0.4333333333333333
 40
0.4333333333333333
 40
0.4333333333333333
 40
0.4666666666666667
 40
0.4666666666666667
 40
0.4666666666666667
 40
0.4666666666666667
 40
0.5
 40
0.5
 40
0.5
 40
0.5
 40
0.5333333333333333
 40
0.5333333333333333
 40
0.5333333333333333
 40
0.5333333333333333
 40
0.5666666666666667
 40
0.5666666666666667
 40
0.5666666666666667
 40
0.5666666666666667
 40
0.6
 40
0.6
 40
0.6
 40
0.6
 40
0.6333333333333333
 40
0.6333333333333333
 40
0.6333333333333333
 40
0.6333333333333333
 40
0.6666666666666666
 40
0.6666666666666666
 40
0.6666666666666666
 40
0.6666666666666666
 40
0.7
 40
0.7
 40
0.7
 40
0.7
 40
0.7333333333333333
 40
0.7333333333333333
 40
0.7333333333333333
 40
0.7333333333333333
 40
0.7666666666666667
 40
0.7666666666666667
 40
0.7666666666666667
 40
0.7666666666666667
 40
0.8
 40
0.8
 40
0.8
 40
0.8
 40
0.8333333333333334
 40
0.8333333333333334
 40
0.8333333333333334
 40
0.8333333333333334
 40
0.8666666666666667
 40
0.8666666666666667
 40
0.8666666666666667
 40
0.8666666666666667
 40
0.9
 40
0.9
 40
0.9
 40
0.9
 40
0.9333333333333333
 40
0.9333333333333333
 40
0.9333333333333333
 40
0.9333333333333333
 40
1.0
 40
1.0
 40
1.0
 40
1.0
 10
-5.1466
 20
35.5394
 30
0.0
 10
-5.1466
 20
35.5394
 30
0.0
 10
-5.1466
 20
35.776
 30
0.0
 10
-5.1466
 20
35.776
 30
0.0
 10
-5.1466
 20
35.776
 30
0.0
 10
-5.1466
 20
35.776
 30
0.0
 10
-4.291
 20
35.7774
 30
0.0
 10
-4.291
 20
35.7774
 30
0.0
 10
-4.291
 20
35.7774
 30
0.0
 10
-4.291
 20
35.7774
 30
0.0
 10
-4.291
 20
35.0281
 30
0.0
 10
-4.291
 20
35.0281
 30
0.0
 10
-4.291
 20
35.0281
 30
0.0
 10
-4.4222
 20
34.9232
 30
0.0
 10
-4.5577
 20
34.8446
 30
0.0
 10
-4.6974
 20
34.7915
 30
0.0
 10
-4.6974
 20
34.7915
 30
0.0
 10
-4.8371
 20
34.7388
 30
0.0
 10
-4.9805
 20
34.7125
 30
0.0
 10
-5.1273
 20
34.7125
 30
0.0
 10
-5.1273
 20
34.7125
 30
0.0
 10
-5.3258
 20
34.7125
 30
0.0
 10
-5.5064
 20
34.7548
 30
0.0
 10
-5.6682
 20
34.8399
 30
0.0
 10
-5.6682
 20
34.8399
 30
0.0
 10
-5.8305
 20
34.9246
 30
0.0
 10
-5.9528
 20
35.0478
 30
0.0
 10
-6.0356
 20
35.2082
 30
0.0
 10
-6.0356
 20
35.2082
 30
0.0
 10
-6.1184
 20
35.3691
 30
0.0
 10
-6.1598
 20
35.5488
 30
0.0
 10
-6.1598
 20
35.7473
 30
0.0
 10
-6.1598
 20
35.7473
 30
0.0
 10
-6.1598
 20
35.9439
 30
0.0
 10
-6.1184
 20
36.1273
 30
0.0
 10
-6.036
 20
36.2976
 30
0.0
 10
-6.036
 20
36.2976
 30
0.0
 10
-5.9542
 20
36.4683
 30
0.0
 10
-5.8357
 20
36.5949
 30
0.0
 10
-5.6814
 20
36.6777
 30
0.0
 10
-5.6814
 20
36.6777
 30
0.0
 10
-5.5271
 20
36.76
 30
0.0
 10
-5.3493
 20
36.8014
 30
0.0
 10
-5.148
 20
36.8014
 30
0.0
 10
-5.148
 20
36.8014
 30
0.0
 10
-5.0022
 20
36.8014
 30
0.0
 10
-4.87
 20
36.7778
 30
0.0
 10
-4.7519
 20
36.7303
 30
0.0
 10
-4.7519
 20
36.7303
 30
0.0
 10
-4.6339
 20
36.6833
 30
0.0
 10
-4.5412
 20
36.6174
 30
0.0
 10
-4.4744
 20
36.5328
 30
0.0
 10
-4.4744
 20
36.5328
 30
0.0
 10
-4.4072
 20
36.4481
 30
0.0
 10
-4.3564
 20
36.3381
 30
0.0
 10
-4.3211
 20
36.2021
 30
0.0
 10
-4.3211
 20
36.2021
 30
0.0
 10
-4.3211
 20
36.2021
 30
0.0
 10
-4.5624
 20
36.1358
 30
0.0
 10
-4.5624
 20
36.1358
 30
0.0
 10
-4.5624
 20
36.1358
 30
0.0
 10
-4.593
 20
36.2388
 30
0.0
 10
-4.6306
 20
36.3197
 30
0.0
 10
-4.6753
 20
36.3785
 30
0.0
 10
-4.6753
 20
36.3785
 30
0.0
 10
-4.7204
 20
36.4373
 30
0.0
 10
-4.7849
 20
36.4843
 30
0.0
 10
-4.8686
 20
36.5196
 30
0.0
 10
-4.8686
 20
36.5196
 30
0.0
 10
-4.9519
 20
36.5549
 30
0.0
 10
-5.045
 20
36.5728
 30
0.0
 10
-5.1466
 20
36.5728
 30
0.0
 10
-5.1466
 20
36.5728
 30
0.0
 10
-5.2689
 20
36.5728
 30
0.0
 10
-5.3747
 20
36.5539
 30
0.0
 10
-5.4636
 20
36.5168
 30
0.0
 10
-5.4636
 20
36.5168
 30
0.0
 10
-5.553
 20
36.4796
 30
0.0
 10
-5.6245
 20
36.4307
 30
0.0
 10
-5.6795
 20
36.37
 30
0.0
 10
-5.6795
 20
36.37
 30
0.0
 10
-5.7341
 20
36.3094
 30
0.0
 10
-5.7764
 20
36.243
 30
0.0
 10
-5.807
 20
36.1701
 30
0.0
 10
-5.807
 20
36.1701
 30
0.0
 10
-5.8582
 20
36.0455
 30
0.0
 10
-5.8841
 20
35.91
 30
0.0
 10
-5.8841
 20
35.7637
 30
0.0
 10
-5.8841
 20
35.7637
 30
0.0
 10
-5.8841
 20
35.5836
 30
0.0
 10
-5.8531
 20
35.4331
 30
0.0
 10
-5.791
 20
35.3117
 30
0.0
 10
-5.791
 20
35.3117
 30
0.0
 10
-5.7289
 20
35.1904
 30
0.0
 10
-5.6386
 20
35.1005
 30
0.0
 10
-5.5201
 20
35.0417
 30
0.0
 10
-5.5201
 20
35.0417
 30
0.0
 10
-5.4015
 20
34.9829
 30
0.0
 10
-5.2759
 20
34.9533
 30
0.0
 10
-5.1428
 20
34.9533
 30
0.0
 10
-5.1428
 20
34.9533
 30
0.0
 10
-5.0266
 20
34.9533
 30
0.0
 10
-4.9138
 20
34.9759
 30
0.0
 10
-4.8037
 20
35.0206
 30
0.0
 10
-4.8037
 20
35.0206
 30
0.0
 10
-4.6931
 20
35.0648
 30
0.0
 10
-4.6099
 20
35.1123
 30
0.0
 10
-4.553
 20
35.1631
 30
0.0
 10
-4.553
 20
35.1631
 30
0.0
 10
-4.553
 20
35.1631
 30
0.0
 10
-4.553
 20
35.5394
 30
0.0
 10
-4.553
 20
35.5394
 30
0.0
 10
-4.553
 20
35.5394
 30
0.0
 10
-4.553
 20
35.5394
 30
0.0
 10
-5.1466
 20
35.5394
 30
0.0
 10
-5.1466
 20
35.5394
 30
0.0
  0
SPLINE
  5
55
330
1F
100
AcDbEntity
  8
DEFAULT_1
 62
   250
100
AcDbSpline
210
0.0
220
0.0
230
1.0
 70
    11
 71
     3
 72
    80
 73
    76
 74
     0
 42
0.0000000001
 43
0.0000000001
 40
0.0
 40
0.0
 40
0.0
 40
0.0
 40
0.05
 40
0.05
 40
0.05
 40
0.05
 40
0.1
 40
0.1
 40
0.1
 40
0.1
 40
0.15
 40
0.15
 40
0.15
 40
0.15
 40
0.2
 40
0.2
 40
0.2
 40
0.2
 40
0.25
 40
0.25
 40
0.25
 40
0.25
 40
0.3
 40
0.3
 40
0.3
 40
0.3
 40
0.35
 40
0.35
 40
0.35
 40
0.35
 40
0.4
 40
0.4
 40
0.4
 40
0.4
 40
0.45
 40
0.45
 40
0.45
 40
0.45
 40
0.5
 40
0.5
 40
0.5
 40
0.5
 40
0.55
 40
0.55
 40
0.55
 40
0.55
 40
0.6
 40
0.6
 40
0.6
 40
0.6
 40
0.65
 40
0.65
 40
0.65
 40
0.65
 40
0.7
 40
0.7
 40
0.7
 40
0.7
 40
0.75
 40
0.75
 40
0.75
 40
0.75
 40
0.8
 40
0.8
 40
0.8
 40
0.8
 40
0.85
 40
0.85
 40
0.85
 40
0.85
 40
0.9
 40
0.9
 40
0.9
 40
0.9
 40
1.0
 40
1.0
 40
1.0
 40
1.0
 10
-1.9265
 20
36.2722
 30
0.0
 10
-1.9265
 20
36.2722
 30
0.0
 10
-2.1729
 20
36.2529
 30
0.0
 10
-2.1729
 20
36.2529
 30
0.0
 10
-2.1729
 20
36.2529
 30
0.0
 10
-2.195
 20
36.3503
 30
0.0
 10
-2.2261
 20
36.4213
 30
0.0
 10
-2.2665
 20
36.465
 30
0.0
 10
-2.2665
 20
36.465
 30
0.0
 10
-2.3338
 20
36.5361
 30
0.0
 10
-2.4166
 20
36.5714
 30
0.0
 10
-2.5149
 20
36.5714
 30
0.0
 10
-2.5149
 20
36.5714
 30
0.0
 10
-2.5939
 20
36.5714
 30
0.0
 10
-2.663
 20
36.5492
 30
0.0
 10
-2.7228
 20
36.505
 30
0.0
 10
-2.7228
 20
36.505
 30
0.0
 10
-2.8009
 20
36.4481
 30
0.0
 10
-2.8625
 20
36.3649
 30
0.0
 10
-2.9076
 20
36.2557
 30
0.0
 10
-2.9076
 20
36.2557
 30
0.0
 10
-2.9523
 20
36.1466
 30
0.0
 10
-2.9758
 20
35.9909
 30
0.0
 10
-2.9777
 20
35.7887
 30
0.0
 10
-2.9777
 20
35.7887
 30
0.0
 10
-2.918
 20
35.8794
 30
0.0
 10
-2.8451
 20
35.9472
 30
0.0
 10
-2.7585
 20
35.9914
 30
0.0
 10
-2.7585
 20
35.9914
 30
0.0
 10
-2.6725
 20
36.0351
 30
0.0
 10
-2.5817
 20
36.0572
 30
0.0
 10
-2.4871
 20
36.0572
 30
0.0
 10
-2.4871
 20
36.0572
 30
0.0
 10
-2.3216
 20
36.0572
 30
0.0
 10
-2.1809
 20
35.9966
 30
0.0
 10
-2.0647
 20
35.8747
 30
0.0
 10
-2.0647
 20
35.8747
 30
0.0
 10
-1.9486
 20
35.7529
 30
0.0
 10
-1.8902
 20
35.5958
 30
0.0
 10
-1.8902
 20
35.403
 30
0.0
 10
-1.8902
 20
35.403
 30
0.0
 10
-1.8902
 20
35.276
 30
0.0
 10
-1.918
 20
35.1584
 30
0.0
 10
-1.9726
 20
35.0492
 30
0.0
 10
-1.9726
 20
35.0492
 30
0.0
 10
-2.0271
 20
34.9406
 30
0.0
 10
-2.1024
 20
34.8569
 30
0.0
 10
-2.1979
 20
34.799
 30
0.0
 10
-2.1979
 20
34.799
 30
0.0
 10
-2.2933
 20
34.7412
 30
0.0
 10
-2.4015
 20
34.7125
 30
0.0
 10
-2.5229
 20
34.7125
 30
0.0
 10
-2.5229
 20
34.7125
 30
0.0
 10
-2.7298
 20
34.7125
 30
0.0
 10
-2.8982
 20
34.7882
 30
0.0
 10
-3.0285
 20
34.9406
 30
0.0
 10
-3.0285
 20
34.9406
 30
0.0
 10
-3.1593
 20
35.0925
 30
0.0
 10
-3.2242
 20
35.3432
 30
0.0
 10
-3.2242
 20
35.6922
 30
0.0
 10
-3.2242
 20
35.6922
 30
0.0
 10
-3.2242
 20
36.0826
 30
0.0
 10
-3.1522
 20
36.3663
 30
0.0
 10
-3.0078
 20
36.5436
 30
0.0
 10
-3.0078
 20
36.5436
 30
0.0
 10
-2.8822
 20
36.6979
 30
0.0
 10
-2.7129
 20
36.7755
 30
0.0
 10
-2.4994
 20
36.7755
 30
0.0
 10
-2.4994
 20
36.7755
 30
0.0
 10
-2.3408
 20
36.7755
 30
0.0
 10
-2.2106
 20
36.7308
 30
0.0
 10
-2.109
 20
36.6414
 30
0.0
 10
-2.109
 20
36.6414
 30
0.0
 10
-2.0074
 20
36.5525
 30
0.0
 10
-1.9467
 20
36.4293
 30
0.0
 10
-1.9265
 20
36.2722
 30
0.0
  0
SPLINE
  5
56
330
1F
100
AcDbEntity
  8
DEFAULT_1
 62
   250
100
AcDbSpline
210
0.0
220
0.0
230
1.0
 70
    11
 71
     3
 72
    40
 73
    36
 74
     0
 42
0.0000000001
 43
0.0000000001
 40
0.0
 40
0.0
 40
0.0
 40
0.0
 40
0.1
 40
0.1
 40
0.1
 40
0.1
 40
0.2
 40
0.2
 40
0.2
 40
0.2
 40
0.3
 40
0.3
 40
0.3
 40
0.3
 40
0.4
 40
0.4
 40
0.4
 40
0.4
 40
0.5
 40
0.5
 40
0.5
 40
0.5
 40
0.6
 40
0.6
 40
0.6
 40
0.6
 40
0.7
 40
0.7
 40
0.7
 40
0.7
 40
0.8
 40
0.8
 40
0.8
 40
0.8
 40
1.0
 40
1.0
 40
1.0
 40
1.0
 10
-2.9392
 20
35.4016
 30
0.0
 10
-2.9392
 20
35.3159
 30
0.0
 10
-2.9208
 20
35.2341
 30
0.0
 10
-2.8846
 20
35.156
 30
0.0
 10
-2.8846
 20
35.156
 30
0.0
 10
-2.8484
 20
35.0779
 30
0.0
 10
-2.7976
 20
35.0187
 30
0.0
 10
-2.7327
 20
34.9778
 30
0.0
 10
-2.7327
 20
34.9778
 30
0.0
 10
-2.6673
 20
34.9368
 30
0.0
 10
-2.5986
 20
34.9161
 30
0.0
 10
-2.5271
 20
34.9161
 30
0.0
 10
-2.5271
 20
34.9161
 30
0.0
 10
-2.4222
 20
34.9161
 30
0.0
 10
-2.3324
 20
34.9585
 30
0.0
 10
-2.2571
 20
35.0431
 30
0.0
 10
-2.2571
 20
35.0431
 30
0.0
 10
-2.1819
 20
35.1278
 30
0.0
 10
-2.1442
 20
35.2426
 30
0.0
 10
-2.1442
 20
35.3874
 30
0.0
 10
-2.1442
 20
35.3874
 30
0.0
 10
-2.1442
 20
35.5271
 30
0.0
 10
-2.1814
 20
35.6372
 30
0.0
 10
-2.2557
 20
35.7176
 30
0.0
 10
-2.2557
 20
35.7176
 30
0.0
 10
-2.33
 20
35.7981
 30
0.0
 10
-2.4236
 20
35.8381
 30
0.0
 10
-2.5365
 20
35.8381
 30
0.0
 10
-2.5365
 20
35.8381
 30
0.0
 10
-2.6489
 20
35.8381
 30
0.0
 10
-2.744
 20
35.7981
 30
0.0
 10
-2.822
 20
35.7176
 30
0.0
 10
-2.822
 20
35.7176
 30
0.0
 10
-2.9001
 20
35.6372
 30
0.0
 10
-2.9392
 20
35.5318
 30
0.0
 10
-2.9392
 20
35.4016
 30
0.0
  0
SPLINE
  5
57
330
1F
100
AcDbEntity
  8
DEFAULT_1
 62
   250
100
AcDbSpline
210
0.0
220
0.0
230
1.0
 70
    11
 71
     3
 72
    20
 73
    16
 74
     0
 42
0.0000000001
 43
0.0000000001
 40
0.0
 40
0.0
 40
0.0
 40
0.0
 40
0.2
 40
0.2
 40
0.2
 40
0.2
 40
0.4
 40
0.4
 40
0.4
 40
0.4
 40
0.6
 40
0.6
 40
0.6
 40
0.6
 40
1.0
 40
1.0
 40
1.0
 40
1.0
 10
-1.7609
 20
34.7125
 30
0.0
 10
-1.7609
 20
34.7125
 30
0.0
 10
-1.1753
 20
36.8014
 30
0.0
 10
-1.1753
 20
36.8014
 30
0.0
 10
-1.1753
 20
36.8014
 30
0.0
 10
-1.1753
 20
36.8014
 30
0.0
 10
-0.9768
 20
36.8014
 30
0.0
 10
-0.9768
 20
36.8014
 30
0.0
 10
-0.9768
 20
36.8014
 30
0.0
 10
-0.9768
 20
36.8014
 30
0.0
 10
-1.561
 20
34.7125
 30
0.0
 10
-1.561
 20
34.7125
 30
0.0
 10
-1.561
 20
34.7125
 30
0.0
 10
-1.561
 20
34.7125
 30
0.0
 10
-1.7609
 20
34.7125
 30
0.0
 10
-1.7609
 20
34.7125
 30
0.0
  0
SPLINE
  5
58
330
1F
100
AcDbEntity
  8
DEFAULT_1
 62
   250
100
AcDbSpline
210
0.0
220
0.0
230
1.0
 70
    11
 71
     3
 72
    48
 73
    44
 74
     0
 42
0.0000000001
 43
0.0000000001
 40
0.0
 40
0.0
 40
0.0
 40
0.0
 40
0.0833333333333333
 40
0.0833333333333333
 40
0.0833333333333333
 40
0.0833333333333333
 40
0.1666666666666667
 40
0.1666666666666667
 40
0.1666666666666667
 40
0.1666666666666667
 40
0.25
 40
0.25
 40
0.25
 40
0.25
 40
0.3333333333333333
 40
0.3333333333333333
 40
0.3333333333333333
 40
0.3333333333333333
 40
0.4166666666666667
 40
0.4166666666666667
 40
0.4166666666666667
 40
0.4166666666666667
 40
0.5
 40
0.5
 40
0.5
 40
0.5
 40
0.5833333333333334
 40
0.5833333333333334
 40
0.5833333333333334
 40
0.5833333333333334
 40
0.6666666666666666
 40
0.6666666666666666
 40
0.6666666666666666
 40
0.6666666666666666
 40
0.75
 40
0.75
 40
0.75
 40
0.75
 40
0.8333333333333334
 40
0.8333333333333334
 40
0.8333333333333334
 40
0.8333333333333334
 40
1.0
 40
1.0
 40
1.0
 40
1.0
 10
-0.0648
 20
34.7468
 30
0.0
 10
-0.0648
 20
34.7468
 30
0.0
 10
-0.0648
 20
35.2303
 30
0.0
 10
-0.0648
 20
35.2303
 30
0.0
 10
-0.0648
 20
35.2303
 30
0.0
 10
-0.0648
 20
35.2303
 30
0.0
 10
-0.9411
 20
35.2303
 30
0.0
 10
-0.9411
 20
35.2303
 30
0.0
 10
-0.9411
 20
35.2303
 30
0.0
 10
-0.9411
 20
35.2303
 30
0.0
 10
-0.9411
 20
35.458
 30
0.0
 10
-0.9411
 20
35.458
 30
0.0
 10
-0.9411
 20
35.458
 30
0.0
 10
-0.9411
 20
35.458
 30
0.0
 10
-0.0191
 20
36.767
 30
0.0
 10
-0.0191
 20
36.767
 30
0.0
 10
-0.0191
 20
36.767
 30
0.0
 10
-0.0191
 20
36.767
 30
0.0
 10
0.1836
 20
36.767
 30
0.0
 10
0.1836
 20
36.767
 30
0.0
 10
0.1836
 20
36.767
 30
0.0
 10
0.1836
 20
36.767
 30
0.0
 10
0.1836
 20
35.458
 30
0.0
 10
0.1836
 20
35.458
 30
0.0
 10
0.1836
 20
35.458
 30
0.0
 10
0.1836
 20
35.458
 30
0.0
 10
0.4564
 20
35.458
 30
0.0
 10
0.4564
 20
35.458
 30
0.0
 10
0.4564
 20
35.458
 30
0.0
 10
0.4564
 20
35.458
 30
0.0
 10
0.4564
 20
35.2303
 30
0.0
 10
0.4564
 20
35.2303
 30
0.0
 10
0.4564
 20
35.2303
 30
0.0
 10
0.4564
 20
35.2303
 30
0.0
 10
0.1836
 20
35.2303
 30
0.0
 10
0.1836
 20
35.2303
 30
0.0
 10
0.1836
 20
35.2303
 30
0.0
 10
0.1836
 20
35.2303
 30
0.0
 10
0.1836
 20
34.7468
 30
0.0
 10
0.1836
 20
34.7468
 30
0.0
 10
0.1836
 20
34.7468
 30
0.0
 10
0.1836
 20
34.7468
 30
0.0
 10
-0.0648
 20
34.7468
 30
0.0
 10
-0.0648
 20
34.7468
 30
0.0
  0
SPLINE
  5
59
330
1F
100
AcDbEntity
  8
DEFAULT_1
 62
   250
100
AcDbSpline
210
0.0
220
0.0
230
1.0
 70
    11
 71
     3
 72
    16
 73
    12
 74
     0
 42
0.0000000001
 43
0.0000000001
 40
0.0
 40
0.0
 40
0.0
 40
0.0
 40
0.25
 40
0.25
 40
0.25
 40
0.25
 40
0.5
 40
0.5
 40
0.5
 40
0.5
 40
1.0
 40
1.0
 40
1.0
 40
1.0
 10
-0.0648
 20
35.458
 30
0.0
 10
-0.0648
 20
35.458
 30
0.0
 10
-0.0648
 20
36.3686
 30
0.0
 10
-0.0648
 20
36.3686
 30
0.0
 10
-0.0648
 20
36.3686
 30
0.0
 10
-0.0648
 20
36.3686
 30
0.0
 10
-0.6969
 20
35.458
 30
0.0
 10
-0.6969
 20
35.458
 30
0.0
 10
-0.6969
 20
35.458
 30
0.0
 10
-0.6969
 20
35.458
 30
0.0
 10
-0.0648
 20
35.458
 30
0.0
 10
-0.0648
 20
35.458
 30
0.0
  0
SPLINE
  5
5A
330
1F
100
AcDbEntity
  8
DEFAULT_1
 62
   250
100
AcDbSpline
210
0.0
220
0.0
230
1.0
 70
    11
 71
     3
 72
    28
 73
    24
 74
     0
 42
0.0000000001
 43
0.0000000001
 40
0.0
 40
0.0
 40
0.0
 40
0.0
 40
0.1428571428571428
 40
0.1428571428571428
 40
0.1428571428571428
 40
0.1428571428571428
 40
0.2857142857142857
 40
0.2857142857142857
 40
0.2857142857142857
 40
0.2857142857142857
 40
0.4285714285714285
 40
0.4285714285714285
 40
0.4285714285714285
 40
0.4285714285714285
 40
0.5714285714285714
 40
0.5714285714285714
 40
0.5714285714285714
 40
0.5714285714285714
 40
0.7142857142857143
 40
0.7142857142857143
 40
0.7142857142857143
 40
0.7142857142857143
 40
1.0
 40
1.0
 40
1.0
 40
1.0
 10
0.7913
 20
36.0516
 30
0.0
 10
0.7913
 20
36.0516
 30
0.0
 10
0.7222
 20
36.4364
 30
0.0
 10
0.7222
 20
36.4364
 30
0.0
 10
0.7222
 20
36.4364
 30
0.0
 10
0.7222
 20
36.4364
 30
0.0
 10
0.7222
 20
36.767
 30
0.0
 10
0.7222
 20
36.767
 30
0.0
 10
0.7222
 20
36.767
 30
0.0
 10
0.7222
 20
36.767
 30
0.0
 10
1.0048
 20
36.767
 30
0.0
 10
1.0048
 20
36.767
 30
0.0
 10
1.0048
 20
36.767
 30
0.0
 10
1.0048
 20
36.767
 30
0.0
 10
1.0048
 20
36.4364
 30
0.0
 10
1.0048
 20
36.4364
 30
0.0
 10
1.0048
 20
36.4364
 30
0.0
 10
1.0048
 20
36.4364
 30
0.0
 10
0.9428
 20
36.0516
 30
0.0
 10
0.9428
 20
36.0516
 30
0.0
 10
0.9428
 20
36.0516
 30
0.0
 10
0.9428
 20
36.0516
 30
0.0
 10
0.7913
 20
36.0516
 30
0.0
 10
0.7913
 20
36.0516
 30
0.0
  0
SPLINE
  5
5B
330
1F
100
AcDbEntity
  8
DEFAULT_1
 62
   250
100
AcDbSpline
210
0.0
220
0.0
230
1.0
 70
    11
 71
     3
 72
    28
 73
    24
 74
     0
 42
0.0000000001
 43
0.0000000001
 40
0.0
 40
0.0
 40
0.0
 40
0.0
 40
0.1428571428571428
 40
0.1428571428571428
 40
0.1428571428571428
 40
0.1428571428571428
 40
0.2857142857142857
 40
0.2857142857142857
 40
0.2857142857142857
 40
0.2857142857142857
 40
0.4285714285714285
 40
0.4285714285714285
 40
0.4285714285714285
 40
0.4285714285714285
 40
0.5714285714285714
 40
0.5714285714285714
 40
0.5714285714285714
 40
0.5714285714285714
 40
0.7142857142857143
 40
0.7142857142857143
 40
0.7142857142857143
 40
0.7142857142857143
 40
1.0
 40
1.0
 40
1.0
 40
1.0
 10
1.2476
 20
36.0516
 30
0.0
 10
1.2476
 20
36.0516
 30
0.0
 10
1.1798
 20
36.4364
 30
0.0
 10
1.1798
 20
36.4364
 30
0.0
 10
1.1798
 20
36.4364
 30
0.0
 10
1.1798
 20
36.4364
 30
0.0
 10
1.1798
 20
36.767
 30
0.0
 10
1.1798
 20
36.767
 30
0.0
 10
1.1798
 20
36.767
 30
0.0
 10
1.1798
 20
36.767
 30
0.0
 10
1.4625
 20
36.767
 30
0.0
 10
1.4625
 20
36.767
 30
0.0
 10
1.4625
 20
36.767
 30
0.0
 10
1.4625
 20
36.767
 30
0.0
 10
1.4625
 20
36.4364
 30
0.0
 10
1.4625
 20
36.4364
 30
0.0
 10
1.4625
 20
36.4364
 30
0.0
 10
1.4625
 20
36.4364
 30
0.0
 10
1.3962
 20
36.0516
 30
0.0
 10
1.3962
 20
36.0516
 30
0.0
 10
1.3962
 20
36.0516
 30
0.0
 10
1.3962
 20
36.0516
 30
0.0
 10
1.2476
 20
36.0516
 30
0.0
 10
1.2476
 20
36.0516
 30
0.0
  0
SPLINE
  5
5C
330
1F
100
AcDbEntity
  8
DEFAULT_1
 62
   250
100
AcDbSpline
210
0.0
220
0.0
230
1.0
 70
    11
 71
     3
 72
    20
 73
    16
 74
     0
 42
0.0000000001
 43
0.0000000001
 40
0.0
 40
0.0
 40
0.0
 40
0.0
 40
0.2
 40
0.2
 40
0.2
 40
0.2
 40
0.4
 40
0.4
 40
0.4
 40
0.4
 40
0.6
 40
0.6
 40
0.6
 40
0.6
 40
1.0
 40
1.0
 40
1.0
 40
1.0
 10
-20.1894
 20
-32.7184
 30
0.0
 10
-20.1894
 20
-32.7184
 30
0.0
 10
-20.6128
 20
-35.7183
 30
0.0
 10
-20.6128
 20
-35.7183
 30
0.0
 10
-20.6128
 20
-35.7183
 30
0.0
 10
-20.6128
 20
-35.7183
 30
0.0
 10
-20.7068
 20
-35.7183
 30
0.0
 10
-20.7068
 20
-35.7183
 30
0.0
 10
-20.7068
 20
-35.7183
 30
0.0
 10
-20.7068
 20
-35.7183
 30
0.0
 10
-21.1583
 20
-32.7184
 30
0.0
 10
-21.1583
 20
-32.7184
 30
0.0
 10
-21.1583
 20
-32.7184
 30
0.0
 10
-21.1583
 20
-32.7184
 30
0.0
 10
-20.1894
 20
-32.7184
 30
0.0
 10
-20.1894
 20
-32.7184
 30
0.0
  0
SPLINE
  5
5D
330
1F
100
AcDbEntity
  8
DEFAULT_1
 62
   250
100
AcDbSpline
210
0.0
220
0.0
230
1.0
 70
    11
 71
     3
 72
    40
 73
    36
 74
     0
 42
0.0000000001
 43
0.0000000001
 40
0.0
 40
0.0
 40
0.0
 40
0.0
 40
0.1
 40
0.1
 40
0.1
 40
0.1
 40
0.2
 40
0.2
 40
0.2
 40
0.2
 40
0.3
 40
0.3
 40
0.3
 40
0.3
 40
0.4
 40
0.4
 40
0.4
 40
0.4
 40
0.5
 40
0.5
 40
0.5
 40
0.5
 40
0.6
 40
0.6
 40
0.6
 40
0.6
 40
0.7
 40
0.7
 40
0.7
 40
0.7
 40
0.8
 40
0.8
 40
0.8
 40
0.8
 40
1.0
 40
1.0
 40
1.0
 40
1.0
 10
-21.0429
 20
-21.6788
 30
0.0
 10
-21.0429
 20
-21.6788
 30
0.0
 10
-21.0429
 20
-21.9267
 30
0.0
 10
-21.0429
 20
-21.9267
 30
0.0
 10
-21.0429
 20
-21.9267
 30
0.0
 10
-21.0429
 20
-21.9267
 30
0.0
 10
-22.6233
 20
-21.9267
 30
0.0
 10
-22.6233
 20
-21.9267
 30
0.0
 10
-22.6233
 20
-21.9267
 30
0.0
 10
-22.5664
 20
-21.9865
 30
0.0
 10
-22.5095
 20
-22.0645
 30
0.0
 10
-22.4526
 20
-22.1614
 30
0.0
 10
-22.4526
 20
-22.1614
 30
0.0
 10
-22.3957
 20
-22.2588
 30
0.0
 10
-22.3529
 20
-22.3458
 30
0.0
 10
-22.3246
 20
-22.423
 30
0.0
 10
-22.3246
 20
-22.423
 30
0.0
 10
-22.3246
 20
-22.423
 30
0.0
 10
-22.5641
 20
-22.423
 30
0.0
 10
-22.5641
 20
-22.423
 30
0.0
 10
-22.5641
 20
-22.423
 30
0.0
 10
-22.6294
 20
-22.2842
 30
0.0
 10
-22.7085
 20
-22.1628
 30
0.0
 10
-22.8011
 20
-22.0589
 30
0.0
 10
-22.8011
 20
-22.0589
 30
0.0
 10
-22.8943
 20
-21.9554
 30
0.0
 10
-22.9841
 20
-21.8816
 30
0.0
 10
-23.0716
 20
-21.8383
 30
0.0
 10
-23.0716
 20
-21.8383
 30
0.0
 10
-23.0716
 20
-21.8383
 30
0.0
 10
-23.0716
 20
-21.6788
 30
0.0
 10
-23.0716
 20
-21.6788
 30
0.0
 10
-23.0716
 20
-21.6788
 30
0.0
 10
-23.0716
 20
-21.6788
 30
0.0
 10
-21.0429
 20
-21.6788
 30
0.0
 10
-21.0429
 20
-21.6788
 30
0.0
  0
SPLINE
  5
5E
330
1F
100
AcDbEntity
  8
DEFAULT_1
 62
   250
100
AcDbSpline
210
0.0
220
0.0
230
1.0
 70
    11
 71
     3
 72
    40
 73
    36
 74
     0
 42
0.0000000001
 43
0.0000000001
 40
0.0
 40
0.0
 40
0.0
 40
0.0
 40
0.1
 40
0.1
 40
0.1
 40
0.1
 40
0.2
 40
0.2
 40
0.2
 40
0.2
 40
0.3
 40
0.3
 40
0.3
 40
0.3
 40
0.4
 40
0.4
 40
0.4
 40
0.4
 40
0.5
 40
0.5
 40
0.5
 40
0.5
 40
0.6
 40
0.6
 40
0.6
 40
0.6
 40
0.7
 40
0.7
 40
0.7
 40
0.7
 40
0.8
 40
0.8
 40
0.8
 40
0.8
 40
1.0
 40
1.0
 40
1.0
 40
1.0
 10
-21.0429
 20
-20.3185
 30
0.0
 10
-21.0429
 20
-20.3185
 30
0.0
 10
-21.0429
 20
-20.5664
 30
0.0
 10
-21.0429
 20
-20.5664
 30
0.0
 10
-21.0429
 20
-20.5664
 30
0.0
 10
-21.0429
 20
-20.5664
 30
0.0
 10
-22.6233
 20
-20.5664
 30
0.0
 10
-22.6233
 20
-20.5664
 30
0.0
 10
-22.6233
 20
-20.5664
 30
0.0
 10
-22.5664
 20
-20.6262
 30
0.0
 10
-22.5095
 20
-20.7042
 30
0.0
 10
-22.4526
 20
-20.8011
 30
0.0
 10
-22.4526
 20
-20.8011
 30
0.0
 10
-22.3957
 20
-20.8985
 30
0.0
 10
-22.3529
 20
-20.9855
 30
0.0
 10
-22.3246
 20
-21.0627
 30
0.0
 10
-22.3246
 20
-21.0627
 30
0.0
 10
-22.3246
 20
-21.0627
 30
0.0
 10
-22.5641
 20
-21.0627
 30
0.0
 10
-22.5641
 20
-21.0627
 30
0.0
 10
-22.5641
 20
-21.0627
 30
0.0
 10
-22.6294
 20
-20.9239
 30
0.0
 10
-22.7085
 20
-20.8025
 30
0.0
 10
-22.8011
 20
-20.6986
 30
0.0
 10
-22.8011
 20
-20.6986
 30
0.0
 10
-22.8943
 20
-20.5951
 30
0.0
 10
-22.9841
 20
-20.5213
 30
0.0
 10
-23.0716
 20
-20.478
 30
0.0
 10
-23.0716
 20
-20.478
 30
0.0
 10
-23.0716
 20
-20.478
 30
0.0
 10
-23.0716
 20
-20.3185
 30
0.0
 10
-23.0716
 20
-20.3185
 30
0.0
 10
-23.0716
 20
-20.3185
 30
0.0
 10
-23.0716
 20
-20.3185
 30
0.0
 10
-21.0429
 20
-20.3185
 30
0.0
 10
-21.0429
 20
-20.3185
 30
0.0
  0
SPLINE
  5
5F
330
1F
100
AcDbEntity
  8
DEFAULT_1
 62
   250
100
AcDbSpline
210
0.0
220
0.0
230
1.0
 70
    11
 71
     3
 72
    52
 73
    48
 74
     0
 42
0.0000000001
 43
0.0000000001
 40
0.0
 40
0.0
 40
0.0
 40
0.0
 40
0.0769230769230769
 40
0.0769230769230769
 40
0.0769230769230769
 40
0.0769230769230769
 40
0.1538461538461539
 40
0.1538461538461539
 40
0.1538461538461539
 40
0.1538461538461539
 40
0.2307692307692308
 40
0.2307692307692308
 40
0.2307692307692308
 40
0.2307692307692308
 40
0.3076923076923077
 40
0.3076923076923077
 40
0.3076923076923077
 40
0.3076923076923077
 40
0.3846153846153846
 40
0.3846153846153846
 40
0.3846153846153846
 40
0.3846153846153846
 40
0.4615384615384616
 40
0.4615384615384616
 40
0.4615384615384616
 40
0.4615384615384616
 40
0.5384615384615384
 40
0.5384615384615384
 40
0.5384615384615384
 40
0.5384615384615384
 40
0.6153846153846154
 40
0.6153846153846154
 40
0.6153846153846154
 40
0.6153846153846154
 40
0.6923076923076923
 40
0.6923076923076923
 40
0.6923076923076923
 40
0.6923076923076923
 40
0.7692307692307693
 40
0.7692307692307693
 40
0.7692307692307693
 40
0.7692307692307693
 40
0.8461538461538461
 40
0.8461538461538461
 40
0.8461538461538461
 40
0.8461538461538461
 40
1.0
 40
1.0
 40
1.0
 40
1.0
 10
-22.0391
 20
-19.6831
 30
0.0
 10
-22.2781
 20
-19.6831
 30
0.0
 10
-22.4705
 20
-19.6586
 30
0.0
 10
-22.6158
 20
-19.6092
 30
0.0
 10
-22.6158
 20
-19.6092
 30
0.0
 10
-22.7616
 20
-19.5603
 30
0.0
 10
-22.874
 20
-19.4869
 30
0.0
 10
-22.9531
 20
-19.39
 30
0.0
 10
-22.9531
 20
-19.39
 30
0.0
 10
-23.0321
 20
-19.2931
 30
0.0
 10
-23.0716
 20
-19.1713
 30
0.0
 10
-23.0716
 20
-19.0246
 30
0.0
 10
-23.0716
 20
-19.0246
 30
0.0
 10
-23.0716
 20
-18.9159
 30
0.0
 10
-23.0495
 20
-18.8209
 30
0.0
 10
-23.0057
 20
-18.7391
 30
0.0
 10
-23.0057
 20
-18.7391
 30
0.0
 10
-22.9625
 20
-18.6572
 30
0.0
 10
-22.8994
 20
-18.5899
 30
0.0
 10
-22.8171
 20
-18.5363
 30
0.0
 10
-22.8171
 20
-18.5363
 30
0.0
 10
-22.7348
 20
-18.4832
 30
0.0
 10
-22.6346
 20
-18.4413
 30
0.0
 10
-22.5166
 20
-18.4112
 30
0.0
 10
-22.5166
 20
-18.4112
 30
0.0
 10
-22.3985
 20
-18.3806
 30
0.0
 10
-22.2395
 20
-18.3656
 30
0.0
 10
-22.0391
 20
-18.3656
 30
0.0
 10
-22.0391
 20
-18.3656
 30
0.0
 10
-21.8021
 20
-18.3656
 30
0.0
 10
-21.6111
 20
-18.39
 30
0.0
 10
-21.4653
 20
-18.4385
 30
0.0
 10
-21.4653
 20
-18.4385
 30
0.0
 10
-21.3195
 20
-18.4874
 30
0.0
 10
-21.2071
 20
-18.5603
 30
0.0
 10
-21.1276
 20
-18.6572
 30
0.0
 10
-21.1276
 20
-18.6572
 30
0.0
 10
-21.0481
 20
-18.7541
 30
0.0
 10
-21.0086
 20
-18.8764
 30
0.0
 10
-21.0086
 20
-19.0246
 30
0.0
 10
-21.0086
 20
-19.0246
 30
0.0
 10
-21.0086
 20
-19.2193
 30
0.0
 10
-21.0782
 20
-19.3722
 30
0.0
 10
-21.2179
 20
-19.4832
 30
0.0
 10
-21.2179
 20
-19.4832
 30
0.0
 10
-21.3858
 20
-19.6163
 30
0.0
 10
-21.66
 20
-19.6831
 30
0.0
 10
-22.0391
 20
-19.6831
 30
0.0
  0
SPLINE
  5
60
330
1F
100
AcDbEntity
  8
DEFAULT_1
 62
   250
100
AcDbSpline
210
0.0
220
0.0
230
1.0
 70
    11
 71
     3
 72
    36
 73
    32
 74
     0
 42
0.0000000001
 43
0.0000000001
 40
0.0
 40
0.0
 40
0.0
 40
0.0
 40
0.1111111111111111
 40
0.1111111111111111
 40
0.1111111111111111
 40
0.1111111111111111
 40
0.2222222222222222
 40
0.2222222222222222
 40
0.2222222222222222
 40
0.2222222222222222
 40
0.3333333333333333
 40
0.3333333333333333
 40
0.3333333333333333
 40
0.3333333333333333
 40
0.4444444444444444
 40
0.4444444444444444
 40
0.4444444444444444
 40
0.4444444444444444
 40
0.5555555555555556
 40
0.5555555555555556
 40
0.5555555555555556
 40
0.5555555555555556
 40
0.6666666666666666
 40
0.6666666666666666
 40
0.6666666666666666
 40
0.6666666666666666
 40
0.7777777777777778
 40
0.7777777777777778
 40
0.7777777777777778
 40
0.7777777777777778
 40
1.0
 40
1.0
 40
1.0
 40
1.0
 10
-22.0391
 20
-19.4281
 30
0.0
 10
-21.7075
 20
-19.4281
 30
0.0
 10
-21.4869
 20
-19.3891
 30
0.0
 10
-21.3769
 20
-19.3115
 30
0.0
 10
-21.3769
 20
-19.3115
 30
0.0
 10
-21.2673
 20
-19.2339
 30
0.0
 10
-21.2122
 20
-19.1384
 30
0.0
 10
-21.2122
 20
-19.0246
 30
0.0
 10
-21.2122
 20
-19.0246
 30
0.0
 10
-21.2122
 20
-18.9103
 30
0.0
 10
-21.2677
 20
-18.8148
 30
0.0
 10
-21.3778
 20
-18.7372
 30
0.0
 10
-21.3778
 20
-18.7372
 30
0.0
 10
-21.4879
 20
-18.6596
 30
0.0
 10
-21.7085
 20
-18.6205
 30
0.0
 10
-22.0391
 20
-18.6205
 30
0.0
 10
-22.0391
 20
-18.6205
 30
0.0
 10
-22.3717
 20
-18.6205
 30
0.0
 10
-22.5928
 20
-18.6596
 30
0.0
 10
-22.7019
 20
-18.7372
 30
0.0
 10
-22.7019
 20
-18.7372
 30
0.0
 10
-22.8115
 20
-18.8148
 30
0.0
 10
-22.866
 20
-18.9112
 30
0.0
 10
-22.866
 20
-19.0269
 30
0.0
 10
-22.866
 20
-19.0269
 30
0.0
 10
-22.866
 20
-19.1412
 30
0.0
 10
-22.8176
 20
-19.232
 30
0.0
 10
-22.7212
 20
-19.3002
 30
0.0
 10
-22.7212
 20
-19.3002
 30
0.0
 10
-22.5984
 20
-19.3853
 30
0.0
 10
-22.3707
 20
-19.4281
 30
0.0
 10
-22.0391
 20
-19.4281
 30
0.0
  0
SPLINE
  5
61
330
1F
100
AcDbEntity
  8
DEFAULT_1
 62
   250
100
AcDbSpline
210
0.0
220
0.0
230
1.0
 70
    11
 71
     3
 72
    20
 73
    16
 74
     0
 42
0.0000000001
 43
0.0000000001
 40
0.0
 40
0.0
 40
0.0
 40
0.0
 40
0.2
 40
0.2
 40
0.2
 40
0.2
 40
0.4
 40
0.4
 40
0.4
 40
0.4
 40
0.6
 40
0.6
 40
0.6
 40
0.6
 40
1.0
 40
1.0
 40
1.0
 40
1.0
 10
-21.0785
 20
-10.8429
 30
0.0
 10
-21.0785
 20
-10.8429
 30
0.0
 10
-20.6552
 20
-7.843
 30
0.0
 10
-20.6552
 20
-7.843
 30
0.0
 10
-20.6552
 20
-7.843
 30
0.0
 10
-20.6552
 20
-7.843
 30
0.0
 10
-20.5611
 20
-7.843
 30
0.0
 10
-20.5611
 20
-7.843
 30
0.0
 10
-20.5611
 20
-7.843
 30
0.0
 10
-20.5611
 20
-7.843
 30
0.0
 10
-20.1096
 20
-10.8429
 30
0.0
 10
-20.1096
 20
-10.8429
 30
0.0
 10
-20.1096
 20
-10.8429
 30
0.0
 10
-20.1096
 20
-10.8429
 30
0.0
 10
-21.0785
 20
-10.8429
 30
0.0
 10
-21.0785
 20
-10.8429
 30
0.0
  0
SPLINE
  5
62
330
1F
100
AcDbEntity
  8
DEFAULT_1
 62
   250
100
AcDbSpline
210
0.0
220
0.0
230
1.0
 70
    11
 71
     3
 72
    20
 73
    16
 74
     0
 42
0.0000000001
 43
0.0000000001
 40
0.0
 40
0.0
 40
0.0
 40
0.0
 40
0.2
 40
0.2
 40
0.2
 40
0.2
 40
0.4
 40
0.4
 40
0.4
 40
0.4
 40
0.6
 40
0.6
 40
0.6
 40
0.6
 40
1.0
 40
1.0
 40
1.0
 40
1.0
 10
-11.6537
 20
34.495
 30
0.0
 10
-11.6537
 20
34.495
 30
0.0
 10
-8.6538
 20
34.0717
 30
0.0
 10
-8.6538
 20
34.0717
 30
0.0
 10
-8.6538
 20
34.0717
 30
0.0
 10
-8.6538
 20
34.0717
 30
0.0
 10
-8.6538
 20
33.9776
 30
0.0
 10
-8.6538
 20
33.9776
 30
0.0
 10
-8.6538
 20
33.9776
 30
0.0
 10
-8.6538
 20
33.9776
 30
0.0
 10
-11.6537
 20
33.5261
 30
0.0
 10
-11.6537
 20
33.5261
 30
0.0
 10
-11.6537
 20
33.5261
 30
0.0
 10
-11.6537
 20
33.5261
 30
0.0
 10
-11.6537
 20
34.495
 30
0.0
 10
-11.6537
 20
34.495
 30
0.0
  0
SPLINE
  5
63
330
1F
100
AcDbEntity
  8
DEFAULT_1
 62
   250
100
AcDbSpline
210
0.0
220
0.0
230
1.0
 70
    11
 71
     3
 72
    20
 73
    16
 74
     0
 42
0.0000000001
 43
0.0000000001
 40
0.0
 40
0.0
 40
0.0
 40
0.0
 40
0.2
 40
0.2
 40
0.2
 40
0.2
 40
0.4
 40
0.4
 40
0.4
 40
0.4
 40
0.6
 40
0.6
 40
0.6
 40
0.6
 40
1.0
 40
1.0
 40
1.0
 40
1.0
 10
6.3972
 20
33.5706
 30
0.0
 10
6.3972
 20
33.5706
 30
0.0
 10
3.3973
 20
33.994
 30
0.0
 10
3.3973
 20
33.994
 30
0.0
 10
3.3973
 20
33.994
 30
0.0
 10
3.3973
 20
33.994
 30
0.0
 10
3.3973
 20
34.088
 30
0.0
 10
3.3973
 20
34.088
 30
0.0
 10
3.3973
 20
34.088
 30
0.0
 10
3.3973
 20
34.088
 30
0.0
 10
6.3972
 20
34.5395
 30
0.0
 10
6.3972
 20
34.5395
 30
0.0
 10
6.3972
 20
34.5395
 30
0.0
 10
6.3972
 20
34.5395
 30
0.0
 10
6.3972
 20
33.5706
 30
0.0
 10
6.3972
 20
33.5706
 30
0.0
  0
SPLINE
  5
64
330
1F
100
AcDbEntity
  8
DEFAULT_1
 62
   250
100
AcDbSpline
210
0.0
220
0.0
230
1.0
 70
     8
 71
     3
 72
    16
 73
    12
 74
     0
 42
0.0000000001
 43
0.0000000001
 40
0.0
 40
0.0
 40
0.0
 40
0.0
 40
0.25
 40
0.25
 40
0.25
 40
0.25
 40
0.5
 40
0.5
 40
0.5
 40
0.5
 40
1.0
 40
1.0
 40
1.0
 40
1.0
 10
4.373
 20
4.7977
 30
0.0
 10
4.373
 20
4.7977
 30
0.0
 10
4.287
 20
1.7976
 30
0.0
 10
4.287
 20
1.7976
 30
0.0
 10
4.287
 20
1.7976
 30
0.0
 10
4.287
 20
1.7976
 30
0.0
 10
-9.6278
 20
1.7976
 30
0.0
 10
-9.6278
 20
1.7976
 30
0.0
 10
-9.6278
 20
1.7976
 30
0.0
 10
-9.6278
 20
1.7976
 30
0.0
 10
-9.6681
 20
4.7784
 30
0.0
 10
-9.6681
 20
4.7784
 30
0.0
  0
SPLINE
  5
65
330
1F
100
AcDbEntity
  8
DEFAULT_1
 62
   250
100
AcDbSpline
210
0.0
220
0.0
230
1.0
 70
     8
 71
     3
 72
    96
 73
    92
 74
     0
 42
0.0000000001
 43
0.0000000001
 40
0.0
 40
0.0
 40
0.0
 40
0.0
 40
0.0416666666666667
 40
0.0416666666666667
 40
0.0416666666666667
 40
0.0416666666666667
 40
0.0833333333333333
 40
0.0833333333333333
 40
0.0833333333333333
 40
0.0833333333333333
 40
0.125
 40
0.125
 40
0.125
 40
0.125
 40
0.1666666666666667
 40
0.1666666666666667
 40
0.1666666666666667
 40
0.1666666666666667
 40
0.2083333333333333
 40
0.2083333333333333
 40
0.2083333333333333
 40
0.2083333333333333
 40
0.25
 40
0.25
 40
0.25
 40
0.25
 40
0.2916666666666667
 40
0.2916666666666667
 40
0.2916666666666667
 40
0.2916666666666667
 40
0.3333333333333333
 40
0.3333333333333333
 40
0.3333333333333333
 40
0.3333333333333333
 40
0.375
 40
0.375
 40
0.375
 40
0.375
 40
0.4166666666666667
 40
0.4166666666666667
 40
0.4166666666666667
 40
0.4166666666666667
 40
0.4583333333333333
 40
0.4583333333333333
 40
0.4583333333333333
 40
0.4583333333333333
 40
0.5
 40
0.5
 40
0.5
 40
0.5
 40
0.5416666666666666
 40
0.5416666666666666
 40
0.5416666666666666
 40
0.5416666666666666
 40
0.5833333333333334
 40
0.5833333333333334
 40
0.5833333333333334
 40
0.5833333333333334
 40
0.625
 40
0.625
 40
0.625
 40
0.625
 40
0.6666666666666666
 40
0.6666666666666666
 40
0.6666666666666666
 40
0.6666666666666666
 40
0.7083333333333334
 40
0.7083333333333334
 40
0.7083333333333334
 40
0.7083333333333334
 40
0.75
 40
0.75
 40
0.75
 40
0.75
 40
0.7916666666666666
 40
0.7916666666666666
 40
0.7916666666666666
 40
0.7916666666666666
 40
0.8333333333333334
 40
0.8333333333333334
 40
0.8333333333333334
 40
0.8333333333333334
 40
0.875
 40
0.875
 40
0.875
 40
0.875
 40
0.9166666666666666
 40
0.9166666666666666
 40
0.9166666666666666
 40
0.9166666666666666
 40
1.0
 40
1.0
 40
1.0
 40
1.0
 10
4.234
 20
2.4958
 30
0.0
 10
4.234
 20
2.4958
 30
0.0
 10
2.63
 20
2.515
 30
0.0
 10
2.63
 20
2.515
 30
0.0
 10
2.63
 20
2.515
 30
0.0
 10
2.63
 20
2.515
 30
0.0
 10
2.63
 20
4.2366
 30
0.0
 10
2.63
 20
4.2366
 30
0.0
 10
2.63
 20
4.2366
 30
0.0
 10
2.63
 20
4.2366
 30
0.0
 10
2.5906
 20
4.4302
 30
0.0
 10
2.5906
 20
4.4302
 30
0.0
 10
2.5906
 20
4.4302
 30
0.0
 10
2.5906
 20
4.4302
 30
0.0
 10
2.531
 20
4.6041
 30
0.0
 10
2.531
 20
4.6041
 30
0.0
 10
2.531
 20
4.6041
 30
0.0
 10
2.531
 20
4.6041
 30
0.0
 10
2.3131
 20
4.7588
 30
0.0
 10
2.3131
 20
4.7588
 30
0.0
 10
2.3131
 20
4.7588
 30
0.0
 10
2.3131
 20
4.7588
 30
0.0
 10
2.0159
 20
4.7396
 30
0.0
 10
2.0159
 20
4.7396
 30
0.0
 10
2.0159
 20
4.7396
 30
0.0
 10
2.0159
 20
4.7396
 30
0.0
 10
1.8971
 20
4.6233
 30
0.0
 10
1.8971
 20
4.6233
 30
0.0
 10
1.8971
 20
4.6233
 30
0.0
 10
1.8971
 20
4.6233
 30
0.0
 10
1.8182
 20
4.3721
 30
0.0
 10
1.8182
 20
4.3721
 30
0.0
 10
1.8182
 20
4.3721
 30
0.0
 10
1.8182
 20
4.3721
 30
0.0
 10
1.8182
 20
2.515
 30
0.0
 10
1.8182
 20
2.515
 30
0.0
 10
1.8182
 20
2.515
 30
0.0
 10
1.8182
 20
2.515
 30
0.0
 10
-2.1625
 20
2.515
 30
0.0
 10
-2.1625
 20
2.515
 30
0.0
 10
-2.1625
 20
2.515
 30
0.0
 10
-2.1625
 20
2.515
 30
0.0
 10
-2.1643
 20
4.2635
 30
0.0
 10
-2.1643
 20
4.2635
 30
0.0
 10
-2.1643
 20
4.2635
 30
0.0
 10
-2.1643
 20
4.5362
 30
0.0
 10
-2.3909
 20
4.7571
 30
0.0
 10
-2.6702
 20
4.7571
 30
0.0
 10
-2.6702
 20
4.7571
 30
0.0
 10
-2.9498
 20
4.7571
 30
0.0
 10
-3.1765
 20
4.5362
 30
0.0
 10
-3.1765
 20
4.2635
 30
0.0
 10
-3.1765
 20
4.2635
 30
0.0
 10
-3.1765
 20
4.2635
 30
0.0
 10
-3.1725
 20
2.515
 30
0.0
 10
-3.1725
 20
2.515
 30
0.0
 10
-3.1725
 20
2.515
 30
0.0
 10
-3.1725
 20
2.515
 30
0.0
 10
-7.2326
 20
2.515
 30
0.0
 10
-7.2326
 20
2.515
 30
0.0
 10
-7.2326
 20
2.515
 30
0.0
 10
-7.2326
 20
2.515
 30
0.0
 10
-7.2124
 20
4.3721
 30
0.0
 10
-7.2124
 20
4.3721
 30
0.0
 10
-7.2124
 20
4.3721
 30
0.0
 10
-7.2124
 20
4.3721
 30
0.0
 10
-7.3312
 20
4.6041
 30
0.0
 10
-7.3312
 20
4.6041
 30
0.0
 10
-7.3312
 20
4.6041
 30
0.0
 10
-7.3312
 20
4.6041
 30
0.0
 10
-7.5294
 20
4.7396
 30
0.0
 10
-7.5294
 20
4.7396
 30
0.0
 10
-7.5294
 20
4.7396
 30
0.0
 10
-7.5294
 20
4.7396
 30
0.0
 10
-7.767
 20
4.7396
 30
0.0
 10
-7.767
 20
4.7396
 30
0.0
 10
-7.767
 20
4.7396
 30
0.0
 10
-7.767
 20
4.7396
 30
0.0
 10
-7.9059
 20
4.5268
 30
0.0
 10
-7.9059
 20
4.5268
 30
0.0
 10
-7.9059
 20
4.5268
 30
0.0
 10
-7.9059
 20
4.5268
 30
0.0
 10
-7.9454
 20
4.2755
 30
0.0
 10
-7.9454
 20
4.2755
 30
0.0
 10
-7.9454
 20
4.2755
 30
0.0
 10
-7.9454
 20
4.2755
 30
0.0
 10
-7.9454
 20
2.4958
 30
0.0
 10
-7.9454
 20
2.4958
 30
0.0
 10
-7.9454
 20
2.4958
 30
0.0
 10
-7.9454
 20
2.4958
 30
0.0
 10
-9.5691
 20
2.515
 30
0.0
 10
-9.5691
 20
2.515
 30
0.0
  0
SPLINE
  5
66
330
1F
100
AcDbEntity
  8
DEFAULT_1
 62
   250
100
AcDbSpline
210
0.0
220
0.0
230
1.0
 70
     8
 71
     3
 72
    32
 73
    28
 74
     0
 42
0.0000000001
 43
0.0000000001
 40
0.0
 40
0.0
 40
0.0
 40
0.0
 40
0.125
 40
0.125
 40
0.125
 40
0.125
 40
0.25
 40
0.25
 40
0.25
 40
0.25
 40
0.375
 40
0.375
 40
0.375
 40
0.375
 40
0.5
 40
0.5
 40
0.5
 40
0.5
 40
0.625
 40
0.625
 40
0.625
 40
0.625
 40
0.75
 40
0.75
 40
0.75
 40
0.75
 40
1.0
 40
1.0
 40
1.0
 40
1.0
 10
4.1086
 20
2.4462
 30
0.0
 10
4.1086
 20
2.4462
 30
0.0
 10
4.1608
 20
5.4967
 30
0.0
 10
4.1608
 20
5.4967
 30
0.0
 10
4.1608
 20
5.4967
 30
0.0
 10
4.1608
 20
5.7694
 30
0.0
 10
3.9342
 20
5.9903
 30
0.0
 10
3.6545
 20
5.9903
 30
0.0
 10
3.6545
 20
5.9903
 30
0.0
 10
3.6545
 20
5.9903
 30
0.0
 10
-8.944
 20
5.9877
 30
0.0
 10
-8.944
 20
5.9877
 30
0.0
 10
-8.944
 20
5.9877
 30
0.0
 10
-8.944
 20
5.9877
 30
0.0
 10
-9.285
 20
5.9044
 30
0.0
 10
-9.285
 20
5.9044
 30
0.0
 10
-9.285
 20
5.9044
 30
0.0
 10
-9.285
 20
5.9044
 30
0.0
 10
-9.4345
 20
5.6544
 30
0.0
 10
-9.4345
 20
5.6544
 30
0.0
 10
-9.4345
 20
5.6544
 30
0.0
 10
-9.4345
 20
5.6544
 30
0.0
 10
-9.4985
 20
5.2792
 30
0.0
 10
-9.4985
 20
5.2792
 30
0.0
 10
-9.4985
 20
5.2792
 30
0.0
 10
-9.4985
 20
5.2792
 30
0.0
 10
-9.477
 20
2.4672
 30
0.0
 10
-9.477
 20
2.4672
 30
0.0
  0
SPLINE
  5
67
330
1F
100
AcDbEntity
  8
DEFAULT_1
 62
   250
100
AcDbSpline
210
0.0
220
0.0
230
1.0
 70
     8
 71
     3
 72
    28
 73
    24
 74
     0
 42
0.0000000001
 43
0.0000000001
 40
0.0
 40
0.0
 40
0.0
 40
0.0
 40
0.1428571428571428
 40
0.1428571428571428
 40
0.1428571428571428
 40
0.1428571428571428
 40
0.2857142857142857
 40
0.2857142857142857
 40
0.2857142857142857
 40
0.2857142857142857
 40
0.4285714285714285
 40
0.4285714285714285
 40
0.4285714285714285
 40
0.4285714285714285
 40
0.5714285714285714
 40
0.5714285714285714
 40
0.5714285714285714
 40
0.5714285714285714
 40
0.7142857142857143
 40
0.7142857142857143
 40
0.7142857142857143
 40
0.7142857142857143
 40
1.0
 40
1.0
 40
1.0
 40
1.0
 10
8.5208
 20
0.8315
 30
0.0
 10
8.5208
 20
0.8315
 30
0.0
 10
12.0832
 20
0.8411
 30
0.0
 10
12.0832
 20
0.8411
 30
0.0
 10
12.0832
 20
0.8411
 30
0.0
 10
12.3555
 20
0.8411
 30
0.0
 10
12.5757
 20
0.6165
 30
0.0
 10
12.5757
 20
0.3396
 30
0.0
 10
12.5757
 20
0.3396
 30
0.0
 10
12.5757
 20
0.3396
 30
0.0
 10
12.5882
 20
-15.0205
 30
0.0
 10
12.5882
 20
-15.0205
 30
0.0
 10
12.5882
 20
-15.0205
 30
0.0
 10
12.5882
 20
-15.0205
 30
0.0
 10
12.4374
 20
-15.3286
 30
0.0
 10
12.4374
 20
-15.3286
 30
0.0
 10
12.4374
 20
-15.3286
 30
0.0
 10
12.4374
 20
-15.3286
 30
0.0
 10
12.1608
 20
-15.4821
 30
0.0
 10
12.1608
 20
-15.4821
 30
0.0
 10
12.1608
 20
-15.4821
 30
0.0
 10
12.1608
 20
-15.4821
 30
0.0
 10
9.0697
 20
-15.4821
 30
0.0
 10
9.0697
 20
-15.4821
 30
0.0
  0
SPLINE
  5
68
330
1F
100
AcDbEntity
  8
DEFAULT_1
 62
   250
100
AcDbSpline
210
0.0
220
0.0
230
1.0
 70
     8
 71
     3
 72
   200
 73
   196
 74
     0
 42
0.0000000001
 43
0.0000000001
 40
0.0
 40
0.0
 40
0.0
 40
0.0
 40
0.02
 40
0.02
 40
0.02
 40
0.02
 40
0.04
 40
0.04
 40
0.04
 40
0.04
 40
0.06
 40
0.06
 40
0.06
 40
0.06
 40
0.08
 40
0.08
 40
0.08
 40
0.08
 40
0.1
 40
0.1
 40
0.1
 40
0.1
 40
0.12
 40
0.12
 40
0.12
 40
0.12
 40
0.14
 40
0.14
 40
0.14
 40
0.14
 40
0.16
 40
0.16
 40
0.16
 40
0.16
 40
0.18
 40
0.18
 40
0.18
 40
0.18
 40
0.2
 40
0.2
 40
0.2
 40
0.2
 40
0.22
 40
0.22
 40
0.22
 40
0.22
 40
0.24
 40
0.24
 40
0.24
 40
0.24
 40
0.26
 40
0.26
 40
0.26
 40
0.26
 40
0.28
 40
0.28
 40
0.28
 40
0.28
 40
0.3
 40
0.3
 40
0.3
 40
0.3
 40
0.32
 40
0.32
 40
0.32
 40
0.32
 40
0.34
 40
0.34
 40
0.34
 40
0.34
 40
0.36
 40
0.36
 40
0.36
 40
0.36
 40
0.38
 40
0.38
 40
0.38
 40
0.38
 40
0.4
 40
0.4
 40
0.4
 40
0.4
 40
0.42
 40
0.42
 40
0.42
 40
0.42
 40
0.44
 40
0.44
 40
0.44
 40
0.44
 40
0.46
 40
0.46
 40
0.46
 40
0.46
 40
0.48
 40
0.48
 40
0.48
 40
0.48
 40
0.5
 40
0.5
 40
0.5
 40
0.5
 40
0.52
 40
0.52
 40
0.52
 40
0.52
 40
0.54
 40
0.54
 40
0.54
 40
0.54
 40
0.56
 40
0.56
 40
0.56
 40
0.56
 40
0.58
 40
0.58
 40
0.58
 40
0.58
 40
0.6
 40
0.6
 40
0.6
 40
0.6
 40
0.62
 40
0.62
 40
0.62
 40
0.62
 40
0.64
 40
0.64
 40
0.64
 40
0.64
 40
0.66
 40
0.66
 40
0.66
 40
0.66
 40
0.68
 40
0.68
 40
0.68
 40
0.68
 40
0.7
 40
0.7
 40
0.7
 40
0.7
 40
0.72
 40
0.72
 40
0.72
 40
0.72
 40
0.74
 40
0.74
 40
0.74
 40
0.74
 40
0.76
 40
0.76
 40
0.76
 40
0.76
 40
0.78
 40
0.78
 40
0.78
 40
0.78
 40
0.8
 40
0.8
 40
0.8
 40
0.8
 40
0.82
 40
0.82
 40
0.82
 40
0.82
 40
0.84
 40
0.84
 40
0.84
 40
0.84
 40
0.86
 40
0.86
 40
0.86
 40
0.86
 40
0.88
 40
0.88
 40
0.88
 40
0.88
 40
0.9
 40
0.9
 40
0.9
 40
0.9
 40
0.92
 40
0.92
 40
0.92
 40
0.92
 40
0.94
 40
0.94
 40
0.94
 40
0.94
 40
0.96
 40
0.96
 40
0.96
 40
0.96
 40
1.0
 40
1.0
 40
1.0
 40
1.0
 10
11.3845
 20
0.8262
 30
0.0
 10
11.3845
 20
0.8262
 30
0.0
 10
11.4241
 20
0.7455
 30
0.0
 10
11.4241
 20
0.7455
 30
0.0
 10
11.4241
 20
0.7455
 30
0.0
 10
11.4241
 20
0.7455
 30
0.0
 10
11.4241
 20
0.6573
 30
0.0
 10
11.4241
 20
0.6573
 30
0.0
 10
11.4241
 20
0.6573
 30
0.0
 10
11.4241
 20
0.6573
 30
0.0
 10
11.2983
 20
0.5594
 30
0.0
 10
11.2983
 20
0.5594
 30
0.0
 10
11.2983
 20
0.5594
 30
0.0
 10
11.2983
 20
0.5594
 30
0.0
 10
11.1988
 20
0.5256
 30
0.0
 10
11.1988
 20
0.5256
 30
0.0
 10
11.1988
 20
0.5256
 30
0.0
 10
11.1988
 20
0.5256
 30
0.0
 10
11.0988
 20
0.5085
 30
0.0
 10
11.0988
 20
0.5085
 30
0.0
 10
11.0988
 20
0.5085
 30
0.0
 10
11.0988
 20
0.5085
 30
0.0
 10
10.933
 20
0.4747
 30
0.0
 10
10.933
 20
0.4747
 30
0.0
 10
10.933
 20
0.4747
 30
0.0
 10
10.933
 20
0.4747
 30
0.0
 10
9.0904
 20
0.5085
 30
0.0
 10
9.0904
 20
0.5085
 30
0.0
 10
9.0904
 20
0.5085
 30
0.0
 10
9.0904
 20
0.5085
 30
0.0
 10
9.0813
 20
-1.057
 30
0.0
 10
9.0813
 20
-1.057
 30
0.0
 10
9.0813
 20
-1.057
 30
0.0
 10
9.0813
 20
-1.057
 30
0.0
 10
10.9911
 20
-1.1079
 30
0.0
 10
10.9911
 20
-1.1079
 30
0.0
 10
10.9911
 20
-1.1079
 30
0.0
 10
10.9911
 20
-1.1079
 30
0.0
 10
11.1897
 20
-1.1584
 30
0.0
 10
11.1897
 20
-1.1584
 30
0.0
 10
11.1897
 20
-1.1584
 30
0.0
 10
11.1897
 20
-1.1584
 30
0.0
 10
11.3
 20
-1.3501
 30
0.0
 10
11.3
 20
-1.3501
 30
0.0
 10
11.3
 20
-1.3501
 30
0.0
 10
11.3
 20
-1.3501
 30
0.0
 10
11.2561
 20
-1.6643
 30
0.0
 10
11.2561
 20
-1.6643
 30
0.0
 10
11.2561
 20
-1.6643
 30
0.0
 10
11.2561
 20
-1.6643
 30
0.0
 10
11.0906
 20
-1.7911
 30
0.0
 10
11.0906
 20
-1.7911
 30
0.0
 10
11.0906
 20
-1.7911
 30
0.0
 10
11.0906
 20
-1.7911
 30
0.0
 10
10.8675
 20
-1.842
 30
0.0
 10
10.8675
 20
-1.842
 30
0.0
 10
10.8675
 20
-1.842
 30
0.0
 10
10.8675
 20
-1.842
 30
0.0
 10
9.1283
 20
-1.8231
 30
0.0
 10
9.1283
 20
-1.8231
 30
0.0
 10
9.1283
 20
-1.8231
 30
0.0
 10
9.1283
 20
-1.8231
 30
0.0
 10
9.1283
 20
-4.6874
 30
0.0
 10
9.1283
 20
-4.6874
 30
0.0
 10
9.1283
 20
-4.6874
 30
0.0
 10
9.1283
 20
-4.6874
 30
0.0
 10
10.9058
 20
-4.7124
 30
0.0
 10
10.9058
 20
-4.7124
 30
0.0
 10
10.9058
 20
-4.7124
 30
0.0
 10
10.9058
 20
-4.7124
 30
0.0
 10
11.098
 20
-4.7647
 30
0.0
 10
11.098
 20
-4.7647
 30
0.0
 10
11.098
 20
-4.7647
 30
0.0
 10
11.098
 20
-4.7647
 30
0.0
 10
11.2647
 20
-4.9217
 30
0.0
 10
11.2647
 20
-4.9217
 30
0.0
 10
11.2647
 20
-4.9217
 30
0.0
 10
11.2647
 20
-4.9217
 30
0.0
 10
11.2905
 20
-5.1179
 30
0.0
 10
11.2905
 20
-5.1179
 30
0.0
 10
11.2905
 20
-5.1179
 30
0.0
 10
11.2905
 20
-5.1179
 30
0.0
 10
11.316
 20
-5.3662
 30
0.0
 10
11.316
 20
-5.3662
 30
0.0
 10
11.316
 20
-5.3662
 30
0.0
 10
11.316
 20
-5.3662
 30
0.0
 10
11.1367
 20
-5.5887
 30
0.0
 10
11.1367
 20
-5.5887
 30
0.0
 10
11.1367
 20
-5.5887
 30
0.0
 10
11.1367
 20
-5.5887
 30
0.0
 10
10.8291
 20
-5.7453
 30
0.0
 10
10.8291
 20
-5.7453
 30
0.0
 10
10.8291
 20
-5.7453
 30
0.0
 10
10.8291
 20
-5.7453
 30
0.0
 10
9.0736
 20
-5.6931
 30
0.0
 10
9.0736
 20
-5.6931
 30
0.0
 10
9.0736
 20
-5.6931
 30
0.0
 10
9.0736
 20
-5.6931
 30
0.0
 10
9.1119
 20
-9.0146
 30
0.0
 10
9.1119
 20
-9.0146
 30
0.0
 10
9.1119
 20
-9.0146
 30
0.0
 10
9.1119
 20
-9.0146
 30
0.0
 10
10.8933
 20
-9.0146
 30
0.0
 10
10.8933
 20
-9.0146
 30
0.0
 10
10.8933
 20
-9.0146
 30
0.0
 10
10.8933
 20
-9.0146
 30
0.0
 10
11.2134
 20
-9.1326
 30
0.0
 10
11.2134
 20
-9.1326
 30
0.0
 10
11.2134
 20
-9.1326
 30
0.0
 10
11.2134
 20
-9.1326
 30
0.0
 10
11.303
 20
-9.3288
 30
0.0
 10
11.303
 20
-9.3288
 30
0.0
 10
11.303
 20
-9.3288
 30
0.0
 10
11.303
 20
-9.3288
 30
0.0
 10
11.3418
 20
-9.4854
 30
0.0
 10
11.3418
 20
-9.4854
 30
0.0
 10
11.3418
 20
-9.4854
 30
0.0
 10
11.3418
 20
-9.4854
 30
0.0
 10
11.2647
 20
-9.6815
 30
0.0
 10
11.2647
 20
-9.6815
 30
0.0
 10
11.2647
 20
-9.6815
 30
0.0
 10
11.2647
 20
-9.6815
 30
0.0
 10
11.1492
 20
-9.8255
 30
0.0
 10
11.1492
 20
-9.8255
 30
0.0
 10
11.1492
 20
-9.8255
 30
0.0
 10
11.1492
 20
-9.8255
 30
0.0
 10
11.0084
 20
-9.904
 30
0.0
 10
11.0084
 20
-9.904
 30
0.0
 10
11.0084
 20
-9.904
 30
0.0
 10
11.0084
 20
-9.904
 30
0.0
 10
10.8675
 20
-9.9694
 30
0.0
 10
10.8675
 20
-9.9694
 30
0.0
 10
10.8675
 20
-9.9694
 30
0.0
 10
10.8675
 20
-9.9694
 30
0.0
 10
9.0865
 20
-9.9562
 30
0.0
 10
9.0865
 20
-9.9562
 30
0.0
 10
9.0865
 20
-9.9562
 30
0.0
 10
9.0865
 20
-9.9562
 30
0.0
 10
9.0994
 20
-12.8201
 30
0.0
 10
9.0994
 20
-12.8201
 30
0.0
 10
9.0994
 20
-12.8201
 30
0.0
 10
9.0994
 20
-12.8201
 30
0.0
 10
10.9446
 20
-12.8201
 30
0.0
 10
10.9446
 20
-12.8201
 30
0.0
 10
10.9446
 20
-12.8201
 30
0.0
 10
10.9446
 20
-12.8201
 30
0.0
 10
11.1622
 20
-12.8591
 30
0.0
 10
11.1622
 20
-12.8591
 30
0.0
 10
11.1622
 20
-12.8591
 30
0.0
 10
11.1622
 20
-12.8591
 30
0.0
 10
11.2776
 20
-12.9772
 30
0.0
 10
11.2776
 20
-12.9772
 30
0.0
 10
11.2776
 20
-12.9772
 30
0.0
 10
11.2776
 20
-12.9772
 30
0.0
 10
11.2776
 20
-13.1865
 30
0.0
 10
11.2776
 20
-13.1865
 30
0.0
 10
11.2776
 20
-13.1865
 30
0.0
 10
11.2776
 20
-13.1865
 30
0.0
 10
11.2263
 20
-13.3694
 30
0.0
 10
11.2263
 20
-13.3694
 30
0.0
 10
11.2263
 20
-13.3694
 30
0.0
 10
11.2263
 20
-13.3694
 30
0.0
 10
11.1238
 20
-13.4607
 30
0.0
 10
11.1238
 20
-13.4607
 30
0.0
 10
11.1238
 20
-13.4607
 30
0.0
 10
11.1238
 20
-13.4607
 30
0.0
 10
11.0213
 20
-13.487
 30
0.0
 10
11.0213
 20
-13.487
 30
0.0
 10
11.0213
 20
-13.487
 30
0.0
 10
11.0213
 20
-13.487
 30
0.0
 10
9.1248
 20
-13.5002
 30
0.0
 10
9.1248
 20
-13.5002
 30
0.0
 10
9.1248
 20
-13.5002
 30
0.0
 10
9.1248
 20
-13.5002
 30
0.0
 10
9.1248
 20
-15.1609
 30
0.0
 10
9.1248
 20
-15.1609
 30
0.0
 10
9.1248
 20
-15.1609
 30
0.0
 10
9.1248
 20
-15.1609
 30
0.0
 10
10.9317
 20
-15.1478
 30
0.0
 10
10.9317
 20
-15.1478
 30
0.0
 10
10.9317
 20
-15.1478
 30
0.0
 10
10.9317
 20
-15.1478
 30
0.0
 10
11.0855
 20
-15.1478
 30
0.0
 10
11.0855
 20
-15.1478
 30
0.0
 10
11.0855
 20
-15.1478
 30
0.0
 10
11.0855
 20
-15.1478
 30
0.0
 10
11.303
 20
-15.2263
 30
0.0
 10
11.303
 20
-15.2263
 30
0.0
 10
11.303
 20
-15.2263
 30
0.0
 10
11.303
 20
-15.2263
 30
0.0
 10
11.3672
 20
-15.3049
 30
0.0
 10
11.3672
 20
-15.3049
 30
0.0
 10
11.3672
 20
-15.3049
 30
0.0
 10
11.3672
 20
-15.3049
 30
0.0
 10
11.4056
 20
-15.4488
 30
0.0
 10
11.4056
 20
-15.4488
 30
0.0
  0
SPLINE
  5
69
330
1F
100
AcDbEntity
  8
DEFAULT_1
 62
   250
100
AcDbSpline
210
0.0
220
0.0
230
1.0
 70
     8
 71
     3
 72
    16
 73
    12
 74
     0
 42
0.0000000001
 43
0.0000000001
 40
0.0
 40
0.0
 40
0.0
 40
0.0
 40
0.25
 40
0.25
 40
0.25
 40
0.25
 40
0.5
 40
0.5
 40
0.5
 40
0.5
 40
1.0
 40
1.0
 40
1.0
 40
1.0
 10
9.1916
 20
0.9683
 30
0.0
 10
9.1916
 20
0.9683
 30
0.0
 10
8.3894
 20
0.9666
 30
0.0
 10
8.3894
 20
0.9666
 30
0.0
 10
8.3894
 20
0.9666
 30
0.0
 10
8.3894
 20
0.9666
 30
0.0
 10
8.3894
 20
-15.5866
 30
0.0
 10
8.3894
 20
-15.5866
 30
0.0
 10
8.3894
 20
-15.5866
 30
0.0
 10
8.3894
 20
-15.5866
 30
0.0
 10
9.217
 20
-15.5738
 30
0.0
 10
9.217
 20
-15.5738
 30
0.0
  0
SPLINE
  5
6A
330
1F
100
AcDbEntity
  8
DEFAULT_1
 62
   250
100
AcDbSpline
210
0.0
220
0.0
230
1.0
 70
     8
 71
     3
 72
   228
 73
   224
 74
     0
 42
0.0000000001
 43
0.0000000001
 40
0.0
 40
0.0
 40
0.0
 40
0.0
 40
0.0175438596491228
 40
0.0175438596491228
 40
0.0175438596491228
 40
0.0175438596491228
 40
0.0350877192982456
 40
0.0350877192982456
 40
0.0350877192982456
 40
0.0350877192982456
 40
0.0526315789473684
 40
0.0526315789473684
 40
0.0526315789473684
 40
0.0526315789473684
 40
0.0701754385964912
 40
0.0701754385964912
 40
0.0701754385964912
 40
0.0701754385964912
 40
0.087719298245614
 40
0.087719298245614
 40
0.087719298245614
 40
0.087719298245614
 40
0.1052631578947368
 40
0.1052631578947368
 40
0.1052631578947368
 40
0.1052631578947368
 40
0.1228070175438596
 40
0.1228070175438596
 40
0.1228070175438596
 40
0.1228070175438596
 40
0.1403508771929824
 40
0.1403508771929824
 40
0.1403508771929824
 40
0.1403508771929824
 40
0.1578947368421053
 40
0.1578947368421053
 40
0.1578947368421053
 40
0.1578947368421053
 40
0.1754385964912281
 40
0.1754385964912281
 40
0.1754385964912281
 40
0.1754385964912281
 40
0.1929824561403509
 40
0.1929824561403509
 40
0.1929824561403509
 40
0.1929824561403509
 40
0.2105263157894737
 40
0.2105263157894737
 40
0.2105263157894737
 40
0.2105263157894737
 40
0.2280701754385965
 40
0.2280701754385965
 40
0.2280701754385965
 40
0.2280701754385965
 40
0.2456140350877193
 40
0.2456140350877193
 40
0.2456140350877193
 40
0.2456140350877193
 40
0.2631578947368421
 40
0.2631578947368421
 40
0.2631578947368421
 40
0.2631578947368421
 40
0.2807017543859649
 40
0.2807017543859649
 40
0.2807017543859649
 40
0.2807017543859649
 40
0.2982456140350877
 40
0.2982456140350877
 40
0.2982456140350877
 40
0.2982456140350877
 40
0.3157894736842105
 40
0.3157894736842105
 40
0.3157894736842105
 40
0.3157894736842105
 40
0.3333333333333333
 40
0.3333333333333333
 40
0.3333333333333333
 40
0.3333333333333333
 40
0.3508771929824561
 40
0.3508771929824561
 40
0.3508771929824561
 40
0.3508771929824561
 40
0.3684210526315789
 40
0.3684210526315789
 40
0.3684210526315789
 40
0.3684210526315789
 40
0.3859649122807017
 40
0.3859649122807017
 40
0.3859649122807017
 40
0.3859649122807017
 40
0.4035087719298245
 40
0.4035087719298245
 40
0.4035087719298245
 40
0.4035087719298245
 40
0.4210526315789473
 40
0.4210526315789473
 40
0.4210526315789473
 40
0.4210526315789473
 40
0.4385964912280702
 40
0.4385964912280702
 40
0.4385964912280702
 40
0.4385964912280702
 40
0.456140350877193
 40
0.456140350877193
 40
0.456140350877193
 40
0.456140350877193
 40
0.4736842105263158
 40
0.4736842105263158
 40
0.4736842105263158
 40
0.4736842105263158
 40
0.4912280701754386
 40
0.4912280701754386
 40
0.4912280701754386
 40
0.4912280701754386
 40
0.5087719298245614
 40
0.5087719298245614
 40
0.5087719298245614
 40
0.5087719298245614
 40
0.5263157894736842
 40
0.5263157894736842
 40
0.5263157894736842
 40
0.5263157894736842
 40
0.543859649122807
 40
0.543859649122807
 40
0.543859649122807
 40
0.543859649122807
 40
0.5614035087719298
 40
0.5614035087719298
 40
0.5614035087719298
 40
0.5614035087719298
 40
0.5789473684210527
 40
0.5789473684210527
 40
0.5789473684210527
 40
0.5789473684210527
 40
0.5964912280701754
 40
0.5964912280701754
 40
0.5964912280701754
 40
0.5964912280701754
 40
0.6140350877192983
 40
0.6140350877192983
 40
0.6140350877192983
 40
0.6140350877192983
 40
0.631578947368421
 40
0.631578947368421
 40
0.631578947368421
 40
0.631578947368421
 40
0.6491228070175439
 40
0.6491228070175439
 40
0.6491228070175439
 40
0.6491228070175439
 40
0.6666666666666666
 40
0.6666666666666666
 40
0.6666666666666666
 40
0.6666666666666666
 40
0.6842105263157895
 40
0.6842105263157895
 40
0.6842105263157895
 40
0.6842105263157895
 40
0.7017543859649122
 40
0.7017543859649122
 40
0.7017543859649122
 40
0.7017543859649122
 40
0.7192982456140351
 40
0.7192982456140351
 40
0.7192982456140351
 40
0.7192982456140351
 40
0.7368421052631579
 40
0.7368421052631579
 40
0.7368421052631579
 40
0.7368421052631579
 40
0.7543859649122807
 40
0.7543859649122807
 40
0.7543859649122807
 40
0.7543859649122807
 40
0.7719298245614035
 40
0.7719298245614035
 40
0.7719298245614035
 40
0.7719298245614035
 40
0.7894736842105263
 40
0.7894736842105263
 40
0.7894736842105263
 40
0.7894736842105263
 40
0.8070175438596491
 40
0.8070175438596491
 40
0.8070175438596491
 40
0.8070175438596491
 40
0.8245614035087719
 40
0.8245614035087719
 40
0.8245614035087719
 40
0.8245614035087719
 40
0.8421052631578947
 40
0.8421052631578947
 40
0.8421052631578947
 40
0.8421052631578947
 40
0.8596491228070176
 40
0.8596491228070176
 40
0.8596491228070176
 40
0.8596491228070176
 40
0.8771929824561403
 40
0.8771929824561403
 40
0.8771929824561403
 40
0.8771929824561403
 40
0.8947368421052632
 40
0.8947368421052632
 40
0.8947368421052632
 40
0.8947368421052632
 40
0.9122807017543859
 40
0.9122807017543859
 40
0.9122807017543859
 40
0.9122807017543859
 40
0.9298245614035088
 40
0.9298245614035088
 40
0.9298245614035088
 40
0.9298245614035088
 40
0.9473684210526315
 40
0.9473684210526315
 40
0.9473684210526315
 40
0.9473684210526315
 40
0.9649122807017544
 40
0.9649122807017544
 40
0.9649122807017544
 40
0.9649122807017544
 40
1.0
 40
1.0
 40
1.0
 40
1.0
 10
7.4425
 20
-14.3924
 30
0.0
 10
7.4425
 20
-14.3924
 30
0.0
 10
5.9709
 20
-14.3872
 30
0.0
 10
5.9709
 20
-14.3872
 30
0.0
 10
5.9709
 20
-14.3872
 30
0.0
 10
5.9709
 20
-14.3872
 30
0.0
 10
5.9644
 20
-14.3795
 30
0.0
 10
5.9644
 20
-14.3795
 30
0.0
 10
5.9644
 20
-14.3795
 30
0.0
 10
5.9644
 20
-14.3795
 30
0.0
 10
5.9458
 20
-14.3567
 30
0.0
 10
5.9458
 20
-14.3567
 30
0.0
 10
5.9458
 20
-14.3567
 30
0.0
 10
5.9458
 20
-14.3567
 30
0.0
 10
5.9141
 20
-14.3189
 30
0.0
 10
5.9141
 20
-14.3189
 30
0.0
 10
5.9141
 20
-14.3189
 30
0.0
 10
5.9141
 20
-14.3189
 30
0.0
 10
5.8695
 20
-14.2652
 30
0.0
 10
5.8695
 20
-14.2652
 30
0.0
 10
5.8695
 20
-14.2652
 30
0.0
 10
5.8695
 20
-14.2652
 30
0.0
 10
5.8118
 20
-14.1957
 30
0.0
 10
5.8118
 20
-14.1957
 30
0.0
 10
5.8118
 20
-14.1957
 30
0.0
 10
5.8118
 20
-14.1957
 30
0.0
 10
5.7411
 20
-14.1098
 30
0.0
 10
5.7411
 20
-14.1098
 30
0.0
 10
5.7411
 20
-14.1098
 30
0.0
 10
5.7411
 20
-14.1098
 30
0.0
 10
5.657
 20
-14.0071
 30
0.0
 10
5.657
 20
-14.0071
 30
0.0
 10
5.657
 20
-14.0071
 30
0.0
 10
5.657
 20
-14.0071
 30
0.0
 10
5.5582
 20
-13.8865
 30
0.0
 10
5.5582
 20
-13.8865
 30
0.0
 10
5.5582
 20
-13.8865
 30
0.0
 10
5.5582
 20
-13.8865
 30
0.0
 10
5.4459
 20
-13.7473
 30
0.0
 10
5.4459
 20
-13.7473
 30
0.0
 10
5.4459
 20
-13.7473
 30
0.0
 10
5.4459
 20
-13.7473
 30
0.0
 10
5.3184
 20
-13.5888
 30
0.0
 10
5.3184
 20
-13.5888
 30
0.0
 10
5.3184
 20
-13.5888
 30
0.0
 10
5.3184
 20
-13.5888
 30
0.0
 10
5.1766
 20
-13.4106
 30
0.0
 10
5.1766
 20
-13.4106
 30
0.0
 10
5.1766
 20
-13.4106
 30
0.0
 10
5.1766
 20
-13.4106
 30
0.0
 10
5.0197
 20
-13.2109
 30
0.0
 10
5.0197
 20
-13.2109
 30
0.0
 10
5.0197
 20
-13.2109
 30
0.0
 10
5.0197
 20
-13.2109
 30
0.0
 10
4.8484
 20
-12.9897
 30
0.0
 10
4.8484
 20
-12.9897
 30
0.0
 10
4.8484
 20
-12.9897
 30
0.0
 10
4.8484
 20
-12.9897
 30
0.0
 10
4.6632
 20
-12.7466
 30
0.0
 10
4.6632
 20
-12.7466
 30
0.0
 10
4.6632
 20
-12.7466
 30
0.0
 10
4.6632
 20
-12.7466
 30
0.0
 10
4.4651
 20
-12.4817
 30
0.0
 10
4.4651
 20
-12.4817
 30
0.0
 10
4.4651
 20
-12.4817
 30
0.0
 10
4.4651
 20
-12.4817
 30
0.0
 10
4.257
 20
-12.1952
 30
0.0
 10
4.257
 20
-12.1952
 30
0.0
 10
4.257
 20
-12.1952
 30
0.0
 10
4.257
 20
-12.1952
 30
0.0
 10
4.0398
 20
-11.8881
 30
0.0
 10
4.0398
 20
-11.8881
 30
0.0
 10
4.0398
 20
-11.8881
 30
0.0
 10
4.0398
 20
-11.8881
 30
0.0
 10
3.8182
 20
-11.5626
 30
0.0
 10
3.8182
 20
-11.5626
 30
0.0
 10
3.8182
 20
-11.5626
 30
0.0
 10
3.8182
 20
-11.5626
 30
0.0
 10
3.5962
 20
-11.2216
 30
0.0
 10
3.5962
 20
-11.2216
 30
0.0
 10
3.5962
 20
-11.2216
 30
0.0
 10
3.5962
 20
-11.2216
 30
0.0
 10
3.3798
 20
-10.8716
 30
0.0
 10
3.3798
 20
-10.8716
 30
0.0
 10
3.3798
 20
-10.8716
 30
0.0
 10
3.3798
 20
-10.8716
 30
0.0
 10
3.1756
 20
-10.5199
 30
0.0
 10
3.1756
 20
-10.5199
 30
0.0
 10
3.1756
 20
-10.5199
 30
0.0
 10
3.1756
 20
-10.5199
 30
0.0
 10
2.9892
 20
-10.1724
 30
0.0
 10
2.9892
 20
-10.1724
 30
0.0
 10
2.9892
 20
-10.1724
 30
0.0
 10
2.9892
 20
-10.1724
 30
0.0
 10
2.8222
 20
-9.8344
 30
0.0
 10
2.8222
 20
-9.8344
 30
0.0
 10
2.8222
 20
-9.8344
 30
0.0
 10
2.8222
 20
-9.8344
 30
0.0
 10
2.677
 20
-9.5072
 30
0.0
 10
2.677
 20
-9.5072
 30
0.0
 10
2.677
 20
-9.5072
 30
0.0
 10
2.677
 20
-9.5072
 30
0.0
 10
2.553
 20
-9.1928
 30
0.0
 10
2.553
 20
-9.1928
 30
0.0
 10
2.553
 20
-9.1928
 30
0.0
 10
2.553
 20
-9.1928
 30
0.0
 10
2.4498
 20
-8.8913
 30
0.0
 10
2.4498
 20
-8.8913
 30
0.0
 10
2.4498
 20
-8.8913
 30
0.0
 10
2.4498
 20
-8.8913
 30
0.0
 10
2.3657
 20
-8.601
 30
0.0
 10
2.3657
 20
-8.601
 30
0.0
 10
2.3657
 20
-8.601
 30
0.0
 10
2.3657
 20
-8.601
 30
0.0
 10
2.2993
 20
-8.3206
 30
0.0
 10
2.2993
 20
-8.3206
 30
0.0
 10
2.2993
 20
-8.3206
 30
0.0
 10
2.2993
 20
-8.3206
 30
0.0
 10
2.2495
 20
-8.0478
 30
0.0
 10
2.2495
 20
-8.0478
 30
0.0
 10
2.2495
 20
-8.0478
 30
0.0
 10
2.2495
 20
-8.0478
 30
0.0
 10
2.2152
 20
-7.7803
 30
0.0
 10
2.2152
 20
-7.7803
 30
0.0
 10
2.2152
 20
-7.7803
 30
0.0
 10
2.2152
 20
-7.7803
 30
0.0
 10
2.1957
 20
-7.517
 30
0.0
 10
2.1957
 20
-7.517
 30
0.0
 10
2.1957
 20
-7.517
 30
0.0
 10
2.1957
 20
-7.517
 30
0.0
 10
2.1905
 20
-7.2559
 30
0.0
 10
2.1905
 20
-7.2559
 30
0.0
 10
2.1905
 20
-7.2559
 30
0.0
 10
2.1905
 20
-7.2559
 30
0.0
 10
2.1996
 20
-6.9944
 30
0.0
 10
2.1996
 20
-6.9944
 30
0.0
 10
2.1996
 20
-6.9944
 30
0.0
 10
2.1996
 20
-6.9944
 30
0.0
 10
2.223
 20
-6.7302
 30
0.0
 10
2.223
 20
-6.7302
 30
0.0
 10
2.223
 20
-6.7302
 30
0.0
 10
2.223
 20
-6.7302
 30
0.0
 10
2.2612
 20
-6.4631
 30
0.0
 10
2.2612
 20
-6.4631
 30
0.0
 10
2.2612
 20
-6.4631
 30
0.0
 10
2.2612
 20
-6.4631
 30
0.0
 10
2.3154
 20
-6.19
 30
0.0
 10
2.3154
 20
-6.19
 30
0.0
 10
2.3154
 20
-6.19
 30
0.0
 10
2.3154
 20
-6.19
 30
0.0
 10
2.3856
 20
-5.9082
 30
0.0
 10
2.3856
 20
-5.9082
 30
0.0
 10
2.3856
 20
-5.9082
 30
0.0
 10
2.3856
 20
-5.9082
 30
0.0
 10
2.4741
 20
-5.6166
 30
0.0
 10
2.4741
 20
-5.6166
 30
0.0
 10
2.4741
 20
-5.6166
 30
0.0
 10
2.4741
 20
-5.6166
 30
0.0
 10
2.582
 20
-5.313
 30
0.0
 10
2.582
 20
-5.313
 30
0.0
 10
2.582
 20
-5.313
 30
0.0
 10
2.582
 20
-5.313
 30
0.0
 10
2.7108
 20
-4.9969
 30
0.0
 10
2.7108
 20
-4.9969
 30
0.0
 10
2.7108
 20
-4.9969
 30
0.0
 10
2.7108
 20
-4.9969
 30
0.0
 10
2.8604
 20
-4.6688
 30
0.0
 10
2.8604
 20
-4.6688
 30
0.0
 10
2.8604
 20
-4.6688
 30
0.0
 10
2.8604
 20
-4.6688
 30
0.0
 10
3.0312
 20
-4.3304
 30
0.0
 10
3.0312
 20
-4.3304
 30
0.0
 10
3.0312
 20
-4.3304
 30
0.0
 10
3.0312
 20
-4.3304
 30
0.0
 10
3.2194
 20
-3.9864
 30
0.0
 10
3.2194
 20
-3.9864
 30
0.0
 10
3.2194
 20
-3.9864
 30
0.0
 10
3.2194
 20
-3.9864
 30
0.0
 10
3.4219
 20
-3.6419
 30
0.0
 10
3.4219
 20
-3.6419
 30
0.0
 10
3.4219
 20
-3.6419
 30
0.0
 10
3.4219
 20
-3.6419
 30
0.0
 10
3.6326
 20
-3.3048
 30
0.0
 10
3.6326
 20
-3.3048
 30
0.0
 10
3.6326
 20
-3.3048
 30
0.0
 10
3.6326
 20
-3.3048
 30
0.0
 10
3.8455
 20
-2.9806
 30
0.0
 10
3.8455
 20
-2.9806
 30
0.0
 10
3.8455
 20
-2.9806
 30
0.0
 10
3.8455
 20
-2.9806
 30
0.0
 10
4.0554
 20
-2.6735
 30
0.0
 10
4.0554
 20
-2.6735
 30
0.0
 10
4.0554
 20
-2.6735
 30
0.0
 10
4.0554
 20
-2.6735
 30
0.0
 10
4.2578
 20
-2.387
 30
0.0
 10
4.2578
 20
-2.387
 30
0.0
 10
4.2578
 20
-2.387
 30
0.0
 10
4.2578
 20
-2.387
 30
0.0
 10
4.4504
 20
-2.122
 30
0.0
 10
4.4504
 20
-2.122
 30
0.0
 10
4.4504
 20
-2.122
 30
0.0
 10
4.4504
 20
-2.122
 30
0.0
 10
4.6312
 20
-1.8794
 30
0.0
 10
4.6312
 20
-1.8794
 30
0.0
 10
4.6312
 20
-1.8794
 30
0.0
 10
4.6312
 20
-1.8794
 30
0.0
 10
4.7985
 20
-1.6587
 30
0.0
 10
4.7985
 20
-1.6587
 30
0.0
 10
4.7985
 20
-1.6587
 30
0.0
 10
4.7985
 20
-1.6587
 30
0.0
 10
4.9524
 20
-1.4594
 30
0.0
 10
4.9524
 20
-1.4594
 30
0.0
 10
4.9524
 20
-1.4594
 30
0.0
 10
4.9524
 20
-1.4594
 30
0.0
 10
5.0912
 20
-1.2811
 30
0.0
 10
5.0912
 20
-1.2811
 30
0.0
 10
5.0912
 20
-1.2811
 30
0.0
 10
5.0912
 20
-1.2811
 30
0.0
 10
5.546
 20
-0.5124
 30
0.0
 10
5.546
 20
-0.5124
 30
0.0
 10
5.546
 20
-0.5124
 30
0.0
 10
5.546
 20
-0.5124
 30
0.0
 10
7.3723
 20
-0.5124
 30
0.0
 10
7.3723
 20
-0.5124
 30
0.0
  0
SPLINE
  5
6B
330
1F
100
AcDbEntity
  8
DEFAULT_1
 62
   250
100
AcDbSpline
210
0.0
220
0.0
230
1.0
 70
     8
 71
     3
 72
    32
 73
    28
 74
     0
 42
0.0000000001
 43
0.0000000001
 40
0.0
 40
0.0
 40
0.0
 40
0.0
 40
0.125
 40
0.125
 40
0.125
 40
0.125
 40
0.25
 40
0.25
 40
0.25
 40
0.25
 40
0.375
 40
0.375
 40
0.375
 40
0.375
 40
0.5
 40
0.5
 40
0.5
 40
0.5
 40
0.625
 40
0.625
 40
0.625
 40
0.625
 40
0.75
 40
0.75
 40
0.75
 40
0.75
 40
1.0
 40
1.0
 40
1.0
 40
1.0
 10
-11.5064
 20
-20.8674
 30
0.0
 10
-11.5064
 20
-20.8674
 30
0.0
 10
-11.1556
 20
-1.2811
 30
0.0
 10
-11.1556
 20
-1.2811
 30
0.0
 10
-11.1556
 20
-1.2811
 30
0.0
 10
-11.1439
 20
-0.6116
 30
0.0
 10
-10.5929
 20
-0.0752
 30
0.0
 10
-9.9169
 20
-0.0752
 30
0.0
 10
-9.9169
 20
-0.0752
 30
0.0
 10
-9.9169
 20
-0.0752
 30
0.0
 10
-8.2671
 20
-0.0705
 30
0.0
 10
-8.2671
 20
-0.0705
 30
0.0
 10
-8.2671
 20
-0.0705
 30
0.0
 10
-8.2671
 20
-0.0705
 30
0.0
 10
2.8513
 20
-0.0383
 30
0.0
 10
2.8513
 20
-0.0383
 30
0.0
 10
2.8513
 20
-0.0383
 30
0.0
 10
2.8513
 20
-0.0383
 30
0.0
 10
4.6854
 20
-0.0331
 30
0.0
 10
4.6854
 20
-0.0331
 30
0.0
 10
4.6854
 20
-0.0331
 30
0.0
 10
4.6854
 20
-0.0331
 30
0.0
 10
5.1029
 20
-0.2401
 30
0.0
 10
5.1029
 20
-0.2401
 30
0.0
 10
5.1029
 20
-0.2401
 30
0.0
 10
5.1029
 20
-0.2401
 30
0.0
 10
5.5616
 20
-0.5717
 30
0.0
 10
5.5616
 20
-0.5717
 30
0.0
  0
SPLINE
  5
6C
330
1F
100
AcDbEntity
  8
DEFAULT_1
 62
   250
100
AcDbSpline
210
0.0
220
0.0
230
1.0
 70
     8
 71
     3
 72
    32
 73
    28
 74
     0
 42
0.0000000001
 43
0.0000000001
 40
0.0
 40
0.0
 40
0.0
 40
0.0
 40
0.125
 40
0.125
 40
0.125
 40
0.125
 40
0.25
 40
0.25
 40
0.25
 40
0.25
 40
0.375
 40
0.375
 40
0.375
 40
0.375
 40
0.5
 40
0.5
 40
0.5
 40
0.5
 40
0.625
 40
0.625
 40
0.625
 40
0.625
 40
0.75
 40
0.75
 40
0.75
 40
0.75
 40
1.0
 40
1.0
 40
1.0
 40
1.0
 10
-12.9121
 20
-22.7296
 30
0.0
 10
-12.9121
 20
-22.7296
 30
0.0
 10
-12.8696
 20
-21.4326
 30
0.0
 10
-12.8696
 20
-21.4326
 30
0.0
 10
-12.8696
 20
-21.4326
 30
0.0
 10
-12.8696
 20
-21.1612
 30
0.0
 10
-12.6476
 20
-20.9417
 30
0.0
 10
-12.3736
 20
-20.9417
 30
0.0
 10
-12.3736
 20
-20.9417
 30
0.0
 10
-12.3736
 20
-20.9417
 30
0.0
 10
7.0137
 20
-20.9933
 30
0.0
 10
7.0137
 20
-20.9933
 30
0.0
 10
7.0137
 20
-20.9933
 30
0.0
 10
7.0137
 20
-20.9933
 30
0.0
 10
7.3137
 20
-21.1311
 30
0.0
 10
7.3137
 20
-21.1311
 30
0.0
 10
7.3137
 20
-21.1311
 30
0.0
 10
7.3137
 20
-21.1311
 30
0.0
 10
7.4187
 20
-21.3991
 30
0.0
 10
7.4187
 20
-21.3991
 30
0.0
 10
7.4187
 20
-21.3991
 30
0.0
 10
7.4187
 20
-21.3991
 30
0.0
 10
7.4221
 20
-21.6779
 30
0.0
 10
7.4221
 20
-21.6779
 30
0.0
 10
7.4221
 20
-21.6779
 30
0.0
 10
7.4221
 20
-21.6779
 30
0.0
 10
7.4339
 20
-22.6794
 30
0.0
 10
7.4339
 20
-22.6794
 30
0.0
  0
SPLINE
  5
6D
330
1F
100
AcDbEntity
  8
DEFAULT_1
 62
   250
100
AcDbSpline
210
0.0
220
0.0
230
1.0
 70
    11
 71
     3
 72
    60
 73
    56
 74
     0
 42
0.0000000001
 43
0.0000000001
 40
0.0
 40
0.0
 40
0.0
 40
0.0
 40
0.0666666666666667
 40
0.0666666666666667
 40
0.0666666666666667
 40
0.0666666666666667
 40
0.1333333333333333
 40
0.1333333333333333
 40
0.1333333333333333
 40
0.1333333333333333
 40
0.2
 40
0.2
 40
0.2
 40
0.2
 40
0.2666666666666667
 40
0.2666666666666667
 40
0.2666666666666667
 40
0.2666666666666667
 40
0.3333333333333333
 40
0.3333333333333333
 40
0.3333333333333333
 40
0.3333333333333333
 40
0.4
 40
0.4
 40
0.4
 40
0.4
 40
0.4666666666666667
 40
0.4666666666666667
 40
0.4666666666666667
 40
0.4666666666666667
 40
0.5333333333333333
 40
0.5333333333333333
 40
0.5333333333333333
 40
0.5333333333333333
 40
0.6
 40
0.6
 40
0.6
 40
0.6
 40
0.6666666666666666
 40
0.6666666666666666
 40
0.6666666666666666
 40
0.6666666666666666
 40
0.7333333333333333
 40
0.7333333333333333
 40
0.7333333333333333
 40
0.7333333333333333
 40
0.8
 40
0.8
 40
0.8
 40
0.8
 40
0.8666666666666667
 40
0.8666666666666667
 40
0.8666666666666667
 40
0.8666666666666667
 40
1.0
 40
1.0
 40
1.0
 40
1.0
 10
-8.6317
 20
1.8875
 30
0.0
 10
-8.6317
 20
1.8875
 30
0.0
 10
-8.6317
 20
1.3966
 30
0.0
 10
-8.6317
 20
1.3966
 30
0.0
 10
-8.6317
 20
1.3966
 30
0.0
 10
-8.6317
 20
1.3966
 30
0.0
 10
-8.2671
 20
1.3966
 30
0.0
 10
-8.2671
 20
1.3966
 30
0.0
 10
-8.2671
 20
1.3966
 30
0.0
 10
-8.2671
 20
1.3966
 30
0.0
 10
-8.2671
 20
-0.0705
 30
0.0
 10
-8.2671
 20
-0.0705
 30
0.0
 10
-8.2671
 20
-0.0705
 30
0.0
 10
-8.2671
 20
-0.0705
 30
0.0
 10
-8.2671
 20
-0.0752
 30
0.0
 10
-8.2671
 20
-0.0752
 30
0.0
 10
-8.2671
 20
-0.0752
 30
0.0
 10
-8.2671
 20
-0.0752
 30
0.0
 10
-8.2671
 20
-0.0705
 30
0.0
 10
-8.2671
 20
-0.0705
 30
0.0
 10
-8.2671
 20
-0.0705
 30
0.0
 10
-8.2671
 20
-0.0705
 30
0.0
 10
-8.2671
 20
1.3966
 30
0.0
 10
-8.2671
 20
1.3966
 30
0.0
 10
-8.2671
 20
1.3966
 30
0.0
 10
-8.2671
 20
1.3966
 30
0.0
 10
2.8513
 20
1.3966
 30
0.0
 10
2.8513
 20
1.3966
 30
0.0
 10
2.8513
 20
1.3966
 30
0.0
 10
2.8513
 20
1.3966
 30
0.0
 10
2.8513
 20
-0.0383
 30
0.0
 10
2.8513
 20
-0.0383
 30
0.0
 10
2.8513
 20
-0.0383
 30
0.0
 10
2.8513
 20
-0.0383
 30
0.0
 10
2.8513
 20
-0.0752
 30
0.0
 10
2.8513
 20
-0.0752
 30
0.0
 10
2.8513
 20
-0.0752
 30
0.0
 10
2.8513
 20
-0.0752
 30
0.0
 10
2.8513
 20
-0.0383
 30
0.0
 10
2.8513
 20
-0.0383
 30
0.0
 10
2.8513
 20
-0.0383
 30
0.0
 10
2.8513
 20
-0.0383
 30
0.0
 10
2.8513
 20
1.3966
 30
0.0
 10
2.8513
 20
1.3966
 30
0.0
 10
2.8513
 20
1.3966
 30
0.0
 10
2.8513
 20
1.3966
 30
0.0
 10
-8.2671
 20
1.3966
 30
0.0
 10
-8.2671
 20
1.3966
 30
0.0
 10
-8.2671
 20
1.3966
 30
0.0
 10
-8.2671
 20
1.3966
 30
0.0
 10
-8.6317
 20
1.3966
 30
0.0
 10
-8.6317
 20
1.3966
 30
0.0
 10
-8.6317
 20
1.3966
 30
0.0
 10
-8.6317
 20
1.3966
 30
0.0
 10
-8.6317
 20
1.8875
 30
0.0
 10
-8.6317
 20
1.8875
 30
0.0
  0
SPLINE
  5
6E
330
1F
100
AcDbEntity
  8
DEFAULT_1
 62
   250
100
AcDbSpline
210
0.0
220
0.0
230
1.0
 70
    11
 71
     3
 72
    20
 73
    16
 74
     0
 42
0.0000000001
 43
0.0000000001
 40
0.0
 40
0.0
 40
0.0
 40
0.0
 40
0.2
 40
0.2
 40
0.2
 40
0.2
 40
0.4
 40
0.4
 40
0.4
 40
0.4
 40
0.6
 40
0.6
 40
0.6
 40
0.6
 40
1.0
 40
1.0
 40
1.0
 40
1.0
 10
3.2159
 20
1.3966
 30
0.0
 10
3.2159
 20
1.3966
 30
0.0
 10
2.8513
 20
1.3966
 30
0.0
 10
2.8513
 20
1.3966
 30
0.0
 10
2.8513
 20
1.3966
 30
0.0
 10
2.8513
 20
1.3966
 30
0.0
 10
3.2159
 20
1.3966
 30
0.0
 10
3.2159
 20
1.3966
 30
0.0
 10
3.2159
 20
1.3966
 30
0.0
 10
3.2159
 20
1.3966
 30
0.0
 10
3.2159
 20
1.8875
 30
0.0
 10
3.2159
 20
1.8875
 30
0.0
 10
3.2159
 20
1.8875
 30
0.0
 10
3.2159
 20
1.8875
 30
0.0
 10
3.2159
 20
1.3966
 30
0.0
 10
3.2159
 20
1.3966
 30
0.0
  0
SPLINE
  5
6F
330
1F
100
AcDbEntity
  8
DEFAULT_1
 62
   250
100
AcDbSpline
210
0.0
220
0.0
230
1.0
 70
    11
 71
     3
 72
    44
 73
    40
 74
     0
 42
0.0000000001
 43
0.0000000001
 40
0.0
 40
0.0
 40
0.0
 40
0.0
 40
0.0909090909090909
 40
0.0909090909090909
 40
0.0909090909090909
 40
0.0909090909090909
 40
0.1818181818181818
 40
0.1818181818181818
 40
0.1818181818181818
 40
0.1818181818181818
 40
0.2727272727272727
 40
0.2727272727272727
 40
0.2727272727272727
 40
0.2727272727272727
 40
0.3636363636363636
 40
0.3636363636363636
 40
0.3636363636363636
 40
0.3636363636363636
 40
0.4545454545454545
 40
0.4545454545454545
 40
0.4545454545454545
 40
0.4545454545454545
 40
0.5454545454545454
 40
0.5454545454545454
 40
0.5454545454545454
 40
0.5454545454545454
 40
0.6363636363636364
 40
0.6363636363636364
 40
0.6363636363636364
 40
0.6363636363636364
 40
0.7272727272727273
 40
0.7272727272727273
 40
0.7272727272727273
 40
0.7272727272727273
 40
0.8181818181818182
 40
0.8181818181818182
 40
0.8181818181818182
 40
0.8181818181818182
 40
1.0
 40
1.0
 40
1.0
 40
1.0
 10
7.4534
 20
-14.757
 30
0.0
 10
7.4534
 20
-14.757
 30
0.0
 10
8.197
 20
-14.757
 30
0.0
 10
8.197
 20
-14.757
 30
0.0
 10
8.197
 20
-14.757
 30
0.0
 10
8.197
 20
-14.757
 30
0.0
 10
7.4534
 20
-14.757
 30
0.0
 10
7.4534
 20
-14.757
 30
0.0
 10
7.4534
 20
-14.757
 30
0.0
 10
7.4534
 20
-14.757
 30
0.0
 10
7.4534
 20
-14.3924
 30
0.0
 10
7.4534
 20
-14.3924
 30
0.0
 10
7.4534
 20
-14.3924
 30
0.0
 10
7.4534
 20
-14.3924
 30
0.0
 10
7.4534
 20
-2.7461
 30
0.0
 10
7.4534
 20
-2.7461
 30
0.0
 10
7.4534
 20
-2.7461
 30
0.0
 10
7.4534
 20
-2.7461
 30
0.0
 10
7.4534
 20
-0.1224
 30
0.0
 10
7.4534
 20
-0.1224
 30
0.0
 10
7.4534
 20
-0.1224
 30
0.0
 10
7.4534
 20
-0.1224
 30
0.0
 10
8.197
 20
-0.1224
 30
0.0
 10
8.197
 20
-0.1224
 30
0.0
 10
8.197
 20
-0.1224
 30
0.0
 10
8.197
 20
-0.1224
 30
0.0
 10
7.4534
 20
-0.1224
 30
0.0
 10
7.4534
 20
-0.1224
 30
0.0
 10
7.4534
 20
-0.1224
 30
0.0
 10
7.4534
 20
-0.1224
 30
0.0
 10
7.4534
 20
-2.7461
 30
0.0
 10
7.4534
 20
-2.7461
 30
0.0
 10
7.4534
 20
-2.7461
 30
0.0
 10
7.4534
 20
-2.7461
 30
0.0
 10
7.4534
 20
-14.3924
 30
0.0
 10
7.4534
 20
-14.3924
 30
0.0
 10
7.4534
 20
-14.3924
 30
0.0
 10
7.4534
 20
-14.3924
 30
0.0
 10
7.4534
 20
-14.757
 30
0.0
 10
7.4534
 20
-14.757
 30
0.0
  0
SPLINE
  5
70
330
1F
100
AcDbEntity
  8
DEFAULT_1
 62
   250
100
AcDbSpline
210
0.0
220
0.0
230
1.0
 70
    27
 71
     3
 72
    16
 73
    12
 74
     0
 42
0.0000000001
 43
0.0000000001
 40
0.0
 40
0.0
 40
0.0
 40
0.0
 40
0.25
 40
0.25
 40
0.25
 40
0.25
 40
0.5
 40
0.5
 40
0.5
 40
0.5
 40
1.0
 40
1.0
 40
1.0
 40
1.0
 10
7.4534
 20
-21.6779
 30
0.0
 10
7.4534
 20
-21.6779
 30
0.0
 10
7.4221
 20
-21.6779
 30
0.0
 10
7.4221
 20
-21.6779
 30
0.0
 10
7.4221
 20
-21.6779
 30
0.0
 10
7.4221
 20
-21.6779
 30
0.0
 10
-12.8696
 20
-21.6779
 30
0.0
 10
-12.8696
 20
-21.6779
 30
0.0
 10
-12.8696
 20
-21.6779
 30
0.0
 10
-12.8696
 20
-21.6779
 30
0.0
 10
7.4534
 20
-21.6779
 30
0.0
 10
7.4534
 20
-21.6779
 30
0.0
  0
SPLINE
  5
71
330
1F
100
AcDbEntity
  8
DEFAULT_1
 62
   250
100
AcDbSpline
210
0.0
220
0.0
230
1.0
 70
    27
 71
     3
 72
    12
 73
     8
 74
     0
 42
0.0000000001
 43
0.0000000001
 40
0.0
 40
0.0
 40
0.0
 40
0.0
 40
0.3333333333333333
 40
0.3333333333333333
 40
0.3333333333333333
 40
0.3333333333333333
 40
1.0
 40
1.0
 40
1.0
 40
1.0
 10
5.9709
 20
-14.3872
 30
0.0
 10
5.9709
 20
-14.3872
 30
0.0
 10
6.085
 20
-20.8868
 30
0.0
 10
6.085
 20
-20.8868
 30
0.0
 10
6.085
 20
-20.8868
 30
0.0
 10
6.085
 20
-20.8868
 30
0.0
 10
5.9709
 20
-14.3872
 30
0.0
 10
5.9709
 20
-14.3872
 30
0.0
  0
SPLINE
  5
72
330
1F
100
AcDbEntity
  8
DEFAULT_1
 62
   250
100
AcDbSpline
210
0.0
220
0.0
230
1.0
 70
     8
 71
     3
 72
    20
 73
    16
 74
     0
 42
0.0000000001
 43
0.0000000001
 40
0.0
 40
0.0
 40
0.0
 40
0.0
 40
0.2
 40
0.2
 40
0.2
 40
0.2
 40
0.4
 40
0.4
 40
0.4
 40
0.4
 40
0.6
 40
0.6
 40
0.6
 40
0.6
 40
1.0
 40
1.0
 40
1.0
 40
1.0
 10
-11.1409
 20
-27.2719
 30
0.0
 10
-11.1409
 20
-27.2719
 30
0.0
 10
-11.0896
 20
-27.9227
 30
0.0
 10
-11.0896
 20
-27.9227
 30
0.0
 10
-11.0896
 20
-27.9227
 30
0.0
 10
-10.7267
 20
-32.1294
 30
0.0
 10
-7.0991
 20
-35.365
 30
0.0
 10
-2.7446
 20
-35.365
 30
0.0
 10
-2.7446
 20
-35.365
 30
0.0
 10
1.6102
 20
-35.365
 30
0.0
 10
5.2376
 20
-32.1294
 30
0.0
 10
5.6007
 20
-27.9227
 30
0.0
 10
5.6007
 20
-27.9227
 30
0.0
 10
5.6007
 20
-27.9227
 30
0.0
 10
5.7135
 20
-27.2805
 30
0.0
 10
5.7135
 20
-27.2805
 30
0.0
  0
SPLINE
  5
73
330
1F
100
AcDbEntity
  8
DEFAULT_1
 62
   250
100
AcDbSpline
210
0.0
220
0.0
230
1.0
 70
     8
 71
     3
 72
    40
 73
    36
 74
     0
 42
0.0000000001
 43
0.0000000001
 40
0.0
 40
0.0
 40
0.0
 40
0.0
 40
0.1
 40
0.1
 40
0.1
 40
0.1
 40
0.2
 40
0.2
 40
0.2
 40
0.2
 40
0.3
 40
0.3
 40
0.3
 40
0.3
 40
0.4
 40
0.4
 40
0.4
 40
0.4
 40
0.5
 40
0.5
 40
0.5
 40
0.5
 40
0.6
 40
0.6
 40
0.6
 40
0.6
 40
0.7
 40
0.7
 40
0.7
 40
0.7
 40
0.8
 40
0.8
 40
0.8
 40
0.8
 40
1.0
 40
1.0
 40
1.0
 40
1.0
 10
-12.948
 20
-22.6755
 30
0.0
 10
-12.948
 20
-22.6755
 30
0.0
 10
-12.8715
 20
-26.5124
 30
0.0
 10
-12.8715
 20
-26.5124
 30
0.0
 10
-12.8715
 20
-26.5124
 30
0.0
 10
-12.8715
 20
-26.5124
 30
0.0
 10
-12.8907
 20
-26.7328
 30
0.0
 10
-12.8907
 20
-26.7328
 30
0.0
 10
-12.8907
 20
-26.7328
 30
0.0
 10
-12.8907
 20
-26.7328
 30
0.0
 10
-12.5507
 20
-27.1005
 30
0.0
 10
-12.5507
 20
-27.1005
 30
0.0
 10
-12.5507
 20
-27.1005
 30
0.0
 10
-12.5507
 20
-27.1005
 30
0.0
 10
-12.1337
 20
-27.246
 30
0.0
 10
-12.1337
 20
-27.246
 30
0.0
 10
-12.1337
 20
-27.246
 30
0.0
 10
-12.1337
 20
-27.246
 30
0.0
 10
6.6451
 20
-27.246
 30
0.0
 10
6.6451
 20
-27.246
 30
0.0
 10
6.6451
 20
-27.246
 30
0.0
 10
6.6451
 20
-27.246
 30
0.0
 10
7.0602
 20
-27.1634
 30
0.0
 10
7.0602
 20
-27.1634
 30
0.0
 10
7.0602
 20
-27.1634
 30
0.0
 10
7.0602
 20
-27.1634
 30
0.0
 10
7.3338
 20
-26.8977
 30
0.0
 10
7.3338
 20
-26.8977
 30
0.0
 10
7.3338
 20
-26.8977
 30
0.0
 10
7.3338
 20
-26.8977
 30
0.0
 10
7.4582
 20
-26.4625
 30
0.0
 10
7.4582
 20
-26.4625
 30
0.0
 10
7.4582
 20
-26.4625
 30
0.0
 10
7.4582
 20
-26.4625
 30
0.0
 10
7.4085
 20
-22.6196
 30
0.0
 10
7.4085
 20
-22.6196
 30
0.0
  0
SPLINE
  5
74
330
1F
100
AcDbEntity
  8
DEFAULT_1
 62
   250
100
AcDbSpline
210
0.0
220
0.0
230
1.0
 70
     8
 71
     3
 72
   204
 73
   200
 74
     0
 42
0.0000000001
 43
0.0000000001
 40
0.0
 40
0.0
 40
0.0
 40
0.0
 40
0.0196078431372549
 40
0.0196078431372549
 40
0.0196078431372549
 40
0.0196078431372549
 40
0.0392156862745098
 40
0.0392156862745098
 40
0.0392156862745098
 40
0.0392156862745098
 40
0.0588235294117647
 40
0.0588235294117647
 40
0.0588235294117647
 40
0.0588235294117647
 40
0.0784313725490196
 40
0.0784313725490196
 40
0.0784313725490196
 40
0.0784313725490196
 40
0.0980392156862745
 40
0.0980392156862745
 40
0.0980392156862745
 40
0.0980392156862745
 40
0.1176470588235294
 40
0.1176470588235294
 40
0.1176470588235294
 40
0.1176470588235294
 40
0.1372549019607843
 40
0.1372549019607843
 40
0.1372549019607843
 40
0.1372549019607843
 40
0.1568627450980392
 40
0.1568627450980392
 40
0.1568627450980392
 40
0.1568627450980392
 40
0.1764705882352941
 40
0.1764705882352941
 40
0.1764705882352941
 40
0.1764705882352941
 40
0.196078431372549
 40
0.196078431372549
 40
0.196078431372549
 40
0.196078431372549
 40
0.2156862745098039
 40
0.2156862745098039
 40
0.2156862745098039
 40
0.2156862745098039
 40
0.2352941176470588
 40
0.2352941176470588
 40
0.2352941176470588
 40
0.2352941176470588
 40
0.2549019607843137
 40
0.2549019607843137
 40
0.2549019607843137
 40
0.2549019607843137
 40
0.2745098039215687
 40
0.2745098039215687
 40
0.2745098039215687
 40
0.2745098039215687
 40
0.2941176470588235
 40
0.2941176470588235
 40
0.2941176470588235
 40
0.2941176470588235
 40
0.3137254901960784
 40
0.3137254901960784
 40
0.3137254901960784
 40
0.3137254901960784
 40
0.3333333333333333
 40
0.3333333333333333
 40
0.3333333333333333
 40
0.3333333333333333
 40
0.3529411764705883
 40
0.3529411764705883
 40
0.3529411764705883
 40
0.3529411764705883
 40
0.3725490196078431
 40
0.3725490196078431
 40
0.3725490196078431
 40
0.3725490196078431
 40
0.392156862745098
 40
0.392156862745098
 40
0.392156862745098
 40
0.392156862745098
 40
0.4117647058823529
 40
0.4117647058823529
 40
0.4117647058823529
 40
0.4117647058823529
 40
0.4313725490196079
 40
0.4313725490196079
 40
0.4313725490196079
 40
0.4313725490196079
 40
0.4509803921568628
 40
0.4509803921568628
 40
0.4509803921568628
 40
0.4509803921568628
 40
0.4705882352941176
 40
0.4705882352941176
 40
0.4705882352941176
 40
0.4705882352941176
 40
0.4901960784313725
 40
0.4901960784313725
 40
0.4901960784313725
 40
0.4901960784313725
 40
0.5098039215686274
 40
0.5098039215686274
 40
0.5098039215686274
 40
0.5098039215686274
 40
0.5294117647058824
 40
0.5294117647058824
 40
0.5294117647058824
 40
0.5294117647058824
 40
0.5490196078431373
 40
0.5490196078431373
 40
0.5490196078431373
 40
0.5490196078431373
 40
0.5686274509803921
 40
0.5686274509803921
 40
0.5686274509803921
 40
0.5686274509803921
 40
0.5882352941176471
 40
0.5882352941176471
 40
0.5882352941176471
 40
0.5882352941176471
 40
0.6078431372549019
 40
0.6078431372549019
 40
0.6078431372549019
 40
0.6078431372549019
 40
0.6274509803921569
 40
0.6274509803921569
 40
0.6274509803921569
 40
0.6274509803921569
 40
0.6470588235294118
 40
0.6470588235294118
 40
0.6470588235294118
 40
0.6470588235294118
 40
0.6666666666666666
 40
0.6666666666666666
 40
0.6666666666666666
 40
0.6666666666666666
 40
0.6862745098039216
 40
0.6862745098039216
 40
0.6862745098039216
 40
0.6862745098039216
 40
0.7058823529411765
 40
0.7058823529411765
 40
0.7058823529411765
 40
0.7058823529411765
 40
0.7254901960784313
 40
0.7254901960784313
 40
0.7254901960784313
 40
0.7254901960784313
 40
0.7450980392156863
 40
0.7450980392156863
 40
0.7450980392156863
 40
0.7450980392156863
 40
0.7647058823529411
 40
0.7647058823529411
 40
0.7647058823529411
 40
0.7647058823529411
 40
0.7843137254901961
 40
0.7843137254901961
 40
0.7843137254901961
 40
0.7843137254901961
 40
0.803921568627451
 40
0.803921568627451
 40
0.803921568627451
 40
0.803921568627451
 40
0.8235294117647058
 40
0.8235294117647058
 40
0.8235294117647058
 40
0.8235294117647058
 40
0.8431372549019608
 40
0.8431372549019608
 40
0.8431372549019608
 40
0.8431372549019608
 40
0.8627450980392157
 40
0.8627450980392157
 40
0.8627450980392157
 40
0.8627450980392157
 40
0.8823529411764706
 40
0.8823529411764706
 40
0.8823529411764706
 40
0.8823529411764706
 40
0.9019607843137255
 40
0.9019607843137255
 40
0.9019607843137255
 40
0.9019607843137255
 40
0.9215686274509803
 40
0.9215686274509803
 40
0.9215686274509803
 40
0.9215686274509803
 40
0.9411764705882353
 40
0.9411764705882353
 40
0.9411764705882353
 40
0.9411764705882353
 40
0.9607843137254902
 40
0.9607843137254902
 40
0.9607843137254902
 40
0.9607843137254902
 40
1.0
 40
1.0
 40
1.0
 40
1.0
 10
-12.9145
 20
-25.7543
 30
0.0
 10
-12.9145
 20
-25.7543
 30
0.0
 10
-12.5496
 20
-25.7701
 30
0.0
 10
-12.5496
 20
-25.7701
 30
0.0
 10
-12.5496
 20
-25.7701
 30
0.0
 10
-12.5496
 20
-25.7701
 30
0.0
 10
-12.5144
 20
-25.7534
 30
0.0
 10
-12.5144
 20
-25.7534
 30
0.0
 10
-12.5144
 20
-25.7534
 30
0.0
 10
-12.5144
 20
-25.7534
 30
0.0
 10
-12.4809
 20
-25.7042
 30
0.0
 10
-12.4809
 20
-25.7042
 30
0.0
 10
-12.4809
 20
-25.7042
 30
0.0
 10
-12.4809
 20
-25.7042
 30
0.0
 10
-12.4501
 20
-25.6255
 30
0.0
 10
-12.4501
 20
-25.6255
 30
0.0
 10
-12.4501
 20
-25.6255
 30
0.0
 10
-12.4501
 20
-25.6255
 30
0.0
 10
-12.4263
 20
-25.5235
 30
0.0
 10
-12.4263
 20
-25.5235
 30
0.0
 10
-12.4263
 20
-25.5235
 30
0.0
 10
-12.4263
 20
-25.5235
 30
0.0
 10
-12.4106
 20
-25.4047
 30
0.0
 10
-12.4106
 20
-25.4047
 30
0.0
 10
-12.4106
 20
-25.4047
 30
0.0
 10
-12.4106
 20
-25.4047
 30
0.0
 10
-12.4055
 20
-25.2782
 30
0.0
 10
-12.4055
 20
-25.2782
 30
0.0
 10
-12.4055
 20
-25.2782
 30
0.0
 10
-12.4055
 20
-25.2782
 30
0.0
 10
-12.4143
 20
-23.3066
 30
0.0
 10
-12.4143
 20
-23.3066
 30
0.0
 10
-12.4143
 20
-23.3066
 30
0.0
 10
-12.4143
 20
-23.3066
 30
0.0
 10
-12.9723
 20
-23.2992
 30
0.0
 10
-12.9723
 20
-23.2992
 30
0.0
 10
-12.9723
 20
-23.2992
 30
0.0
 10
-12.9723
 20
-23.2992
 30
0.0
 10
-10.4312
 20
-23.3238
 30
0.0
 10
-10.4312
 20
-23.3238
 30
0.0
 10
-10.4312
 20
-23.3238
 30
0.0
 10
-10.4312
 20
-23.3238
 30
0.0
 10
-10.4668
 20
-25.3545
 30
0.0
 10
-10.4668
 20
-25.3545
 30
0.0
 10
-10.4668
 20
-25.3545
 30
0.0
 10
-10.4668
 20
-25.3545
 30
0.0
 10
-10.3951
 20
-25.5462
 30
0.0
 10
-10.3951
 20
-25.5462
 30
0.0
 10
-10.3951
 20
-25.5462
 30
0.0
 10
-10.3951
 20
-25.5462
 30
0.0
 10
-10.1271
 20
-25.7192
 30
0.0
 10
-10.1271
 20
-25.7192
 30
0.0
 10
-10.1271
 20
-25.7192
 30
0.0
 10
-10.1271
 20
-25.7192
 30
0.0
 10
-9.9129
 20
-25.7192
 30
0.0
 10
-9.9129
 20
-25.7192
 30
0.0
 10
-9.9129
 20
-25.7192
 30
0.0
 10
-9.9129
 20
-25.7192
 30
0.0
 10
-9.77
 20
-25.5284
 30
0.0
 10
-9.77
 20
-25.5284
 30
0.0
 10
-9.77
 20
-25.5284
 30
0.0
 10
-9.77
 20
-25.5284
 30
0.0
 10
-9.7166
 20
-25.3545
 30
0.0
 10
-9.7166
 20
-25.3545
 30
0.0
 10
-9.7166
 20
-25.3545
 30
0.0
 10
-9.7166
 20
-25.3545
 30
0.0
 10
-9.7522
 20
-23.3066
 30
0.0
 10
-9.7522
 20
-23.3066
 30
0.0
 10
-9.7522
 20
-23.3066
 30
0.0
 10
-9.7522
 20
-23.3066
 30
0.0
 10
-5.9099
 20
-23.3066
 30
0.0
 10
-5.9099
 20
-23.3066
 30
0.0
 10
-5.9099
 20
-23.3066
 30
0.0
 10
-5.9099
 20
-23.3066
 30
0.0
 10
-5.9282
 20
-25.3896
 30
0.0
 10
-5.9282
 20
-25.3896
 30
0.0
 10
-5.9282
 20
-25.3896
 30
0.0
 10
-5.9282
 20
-25.3896
 30
0.0
 10
-5.7853
 20
-25.598
 30
0.0
 10
-5.7853
 20
-25.598
 30
0.0
 10
-5.7853
 20
-25.598
 30
0.0
 10
-5.7853
 20
-25.598
 30
0.0
 10
-5.535
 20
-25.737
 30
0.0
 10
-5.535
 20
-25.737
 30
0.0
 10
-5.535
 20
-25.737
 30
0.0
 10
-5.535
 20
-25.737
 30
0.0
 10
-5.3026
 20
-25.7192
 30
0.0
 10
-5.3026
 20
-25.7192
 30
0.0
 10
-5.3026
 20
-25.7192
 30
0.0
 10
-5.3026
 20
-25.7192
 30
0.0
 10
-5.0524
 20
-25.6151
 30
0.0
 10
-5.0524
 20
-25.6151
 30
0.0
 10
-5.0524
 20
-25.6151
 30
0.0
 10
-5.0524
 20
-25.6151
 30
0.0
 10
-4.9277
 20
-25.459
 30
0.0
 10
-4.9277
 20
-25.459
 30
0.0
 10
-4.9277
 20
-25.459
 30
0.0
 10
-4.9277
 20
-25.459
 30
0.0
 10
-4.9097
 20
-25.3376
 30
0.0
 10
-4.9097
 20
-25.3376
 30
0.0
 10
-4.9097
 20
-25.3376
 30
0.0
 10
-4.9097
 20
-25.3376
 30
0.0
 10
-4.9097
 20
-23.2893
 30
0.0
 10
-4.9097
 20
-23.2893
 30
0.0
 10
-4.9097
 20
-23.2893
 30
0.0
 10
-4.9097
 20
-23.2893
 30
0.0
 10
-0.5136
 20
-23.3066
 30
0.0
 10
-0.5136
 20
-23.3066
 30
0.0
 10
-0.5136
 20
-23.3066
 30
0.0
 10
-0.5136
 20
-23.3066
 30
0.0
 10
-0.5136
 20
-25.3376
 30
0.0
 10
-0.5136
 20
-25.3376
 30
0.0
 10
-0.5136
 20
-25.3376
 30
0.0
 10
-0.5136
 20
-25.3376
 30
0.0
 10
-0.4601
 20
-25.4939
 30
0.0
 10
-0.4601
 20
-25.4939
 30
0.0
 10
-0.4601
 20
-25.4939
 30
0.0
 10
-0.4601
 20
-25.4939
 30
0.0
 10
-0.2455
 20
-25.7021
 30
0.0
 10
-0.2455
 20
-25.7021
 30
0.0
 10
-0.2455
 20
-25.7021
 30
0.0
 10
-0.2455
 20
-25.7021
 30
0.0
 10
0.0584
 20
-25.7021
 30
0.0
 10
0.0584
 20
-25.7021
 30
0.0
 10
0.0584
 20
-25.7021
 30
0.0
 10
0.0584
 20
-25.7021
 30
0.0
 10
0.2364
 20
-25.6503
 30
0.0
 10
0.2364
 20
-25.6503
 30
0.0
 10
0.2364
 20
-25.6503
 30
0.0
 10
0.2364
 20
-25.6503
 30
0.0
 10
0.3616
 20
-25.5111
 30
0.0
 10
0.3616
 20
-25.5111
 30
0.0
 10
0.3616
 20
-25.5111
 30
0.0
 10
0.3616
 20
-25.5111
 30
0.0
 10
0.433
 20
-25.3205
 30
0.0
 10
0.433
 20
-25.3205
 30
0.0
 10
0.433
 20
-25.3205
 30
0.0
 10
0.433
 20
-25.3205
 30
0.0
 10
0.4689
 20
-23.2893
 30
0.0
 10
0.4689
 20
-23.2893
 30
0.0
 10
0.4689
 20
-23.2893
 30
0.0
 10
0.4689
 20
-23.2893
 30
0.0
 10
4.2214
 20
-23.2893
 30
0.0
 10
4.2214
 20
-23.2893
 30
0.0
 10
4.2214
 20
-23.2893
 30
0.0
 10
4.2214
 20
-23.2893
 30
0.0
 10
4.2387
 20
-25.3205
 30
0.0
 10
4.2387
 20
-25.3205
 30
0.0
 10
4.2387
 20
-25.3205
 30
0.0
 10
4.2387
 20
-25.3205
 30
0.0
 10
4.3109
 20
-25.5631
 30
0.0
 10
4.3109
 20
-25.5631
 30
0.0
 10
4.3109
 20
-25.5631
 30
0.0
 10
4.3109
 20
-25.5631
 30
0.0
 10
4.4719
 20
-25.7192
 30
0.0
 10
4.4719
 20
-25.7192
 30
0.0
 10
4.4719
 20
-25.7192
 30
0.0
 10
4.4719
 20
-25.7192
 30
0.0
 10
4.7931
 20
-25.737
 30
0.0
 10
4.7931
 20
-25.737
 30
0.0
 10
4.7931
 20
-25.737
 30
0.0
 10
4.7931
 20
-25.737
 30
0.0
 10
4.9006
 20
-25.5804
 30
0.0
 10
4.9006
 20
-25.5804
 30
0.0
 10
4.9006
 20
-25.5804
 30
0.0
 10
4.9006
 20
-25.5804
 30
0.0
 10
4.9362
 20
-25.3545
 30
0.0
 10
4.9362
 20
-25.3545
 30
0.0
 10
4.9362
 20
-25.3545
 30
0.0
 10
4.9362
 20
-25.3545
 30
0.0
 10
4.9362
 20
-23.2715
 30
0.0
 10
4.9362
 20
-23.2715
 30
0.0
 10
4.9362
 20
-23.2715
 30
0.0
 10
4.9362
 20
-23.2715
 30
0.0
 10
7.6168
 20
-23.3238
 30
0.0
 10
7.6168
 20
-23.3238
 30
0.0
 10
7.6168
 20
-23.3238
 30
0.0
 10
7.6168
 20
-23.3238
 30
0.0
 10
6.92
 20
-23.3238
 30
0.0
 10
6.92
 20
-23.3238
 30
0.0
 10
6.92
 20
-23.3238
 30
0.0
 10
6.92
 20
-23.3238
 30
0.0
 10
6.902
 20
-25.3725
 30
0.0
 10
6.902
 20
-25.3725
 30
0.0
 10
6.902
 20
-25.3725
 30
0.0
 10
6.902
 20
-25.3725
 30
0.0
 10
6.902
 20
-25.5631
 30
0.0
 10
6.902
 20
-25.5631
 30
0.0
 10
6.902
 20
-25.5631
 30
0.0
 10
6.902
 20
-25.5631
 30
0.0
 10
7.0266
 20
-25.6847
 30
0.0
 10
7.0266
 20
-25.6847
 30
0.0
 10
7.0266
 20
-25.6847
 30
0.0
 10
7.0266
 20
-25.6847
 30
0.0
 10
7.223
 20
-25.8237
 30
0.0
 10
7.223
 20
-25.8237
 30
0.0
 10
7.223
 20
-25.8237
 30
0.0
 10
7.223
 20
-25.8237
 30
0.0
 10
7.4381
 20
-25.8237
 30
0.0
 10
7.4381
 20
-25.8237
 30
0.0
  0
SPLINE
  5
75
330
1F
100
AcDbEntity
  8
DEFAULT_1
 62
   250
100
AcDbSpline
210
0.0
220
0.0
230
1.0
 70
    27
 71
     3
 72
    12
 73
     8
 74
     0
 42
0.0000000001
 43
0.0000000001
 40
0.0
 40
0.0
 40
0.0
 40
0.0
 40
0.3333333333333333
 40
0.3333333333333333
 40
0.3333333333333333
 40
0.3333333333333333
 40
1.0
 40
1.0
 40
1.0
 40
1.0
 10
7.5176
 20
-22.5499
 30
0.0
 10
7.5176
 20
-22.5499
 30
0.0
 10
-12.9892
 20
-22.5499
 30
0.0
 10
-12.9892
 20
-22.5499
 30
0.0
 10
-12.9892
 20
-22.5499
 30
0.0
 10
-12.9892
 20
-22.5499
 30
0.0
 10
7.5176
 20
-22.5499
 30
0.0
 10
7.5176
 20
-22.5499
 30
0.0
  0
SPLINE
  5
76
330
1F
100
AcDbEntity
  8
DEFAULT_1
 62
   250
100
AcDbSpline
210
0.0
220
0.0
230
1.0
 70
     8
 71
     3
 72
    16
 73
    12
 74
     0
 42
0.0000000001
 43
0.0000000001
 40
0.0
 40
0.0
 40
0.0
 40
0.0
 40
0.25
 40
0.25
 40
0.25
 40
0.25
 40
0.5
 40
0.5
 40
0.5
 40
0.5
 40
1.0
 40
1.0
 40
1.0
 40
1.0
 10
-9.706
 20
27.7995
 30
0.0
 10
-9.706
 20
27.7995
 30
0.0
 10
-9.62
 20
30.9345
 30
0.0
 10
-9.62
 20
30.9345
 30
0.0
 10
-9.62
 20
30.9345
 30
0.0
 10
-9.62
 20
30.9345
 30
0.0
 10
4.2948
 20
30.9345
 30
0.0
 10
4.2948
 20
30.9345
 30
0.0
 10
4.2948
 20
30.9345
 30
0.0
 10
4.2948
 20
30.9345
 30
0.0
 10
4.3351
 20
27.8196
 30
0.0
 10
4.3351
 20
27.8196
 30
0.0
  0
SPLINE
  5
77
330
1F
100
AcDbEntity
  8
DEFAULT_1
 62
   250
100
AcDbSpline
210
0.0
220
0.0
230
1.0
 70
     8
 71
     3
 72
    96
 73
    92
 74
     0
 42
0.0000000001
 43
0.0000000001
 40
0.0
 40
0.0
 40
0.0
 40
0.0
 40
0.0416666666666667
 40
0.0416666666666667
 40
0.0416666666666667
 40
0.0416666666666667
 40
0.0833333333333333
 40
0.0833333333333333
 40
0.0833333333333333
 40
0.0833333333333333
 40
0.125
 40
0.125
 40
0.125
 40
0.125
 40
0.1666666666666667
 40
0.1666666666666667
 40
0.1666666666666667
 40
0.1666666666666667
 40
0.2083333333333333
 40
0.2083333333333333
 40
0.2083333333333333
 40
0.2083333333333333
 40
0.25
 40
0.25
 40
0.25
 40
0.25
 40
0.2916666666666667
 40
0.2916666666666667
 40
0.2916666666666667
 40
0.2916666666666667
 40
0.3333333333333333
 40
0.3333333333333333
 40
0.3333333333333333
 40
0.3333333333333333
 40
0.375
 40
0.375
 40
0.375
 40
0.375
 40
0.4166666666666667
 40
0.4166666666666667
 40
0.4166666666666667
 40
0.4166666666666667
 40
0.4583333333333333
 40
0.4583333333333333
 40
0.4583333333333333
 40
0.4583333333333333
 40
0.5
 40
0.5
 40
0.5
 40
0.5
 40
0.5416666666666666
 40
0.5416666666666666
 40
0.5416666666666666
 40
0.5416666666666666
 40
0.5833333333333334
 40
0.5833333333333334
 40
0.5833333333333334
 40
0.5833333333333334
 40
0.625
 40
0.625
 40
0.625
 40
0.625
 40
0.6666666666666666
 40
0.6666666666666666
 40
0.6666666666666666
 40
0.6666666666666666
 40
0.7083333333333334
 40
0.7083333333333334
 40
0.7083333333333334
 40
0.7083333333333334
 40
0.75
 40
0.75
 40
0.75
 40
0.75
 40
0.7916666666666666
 40
0.7916666666666666
 40
0.7916666666666666
 40
0.7916666666666666
 40
0.8333333333333334
 40
0.8333333333333334
 40
0.8333333333333334
 40
0.8333333333333334
 40
0.875
 40
0.875
 40
0.875
 40
0.875
 40
0.9166666666666666
 40
0.9166666666666666
 40
0.9166666666666666
 40
0.9166666666666666
 40
1.0
 40
1.0
 40
1.0
 40
1.0
 10
-9.567
 20
30.2049
 30
0.0
 10
-9.567
 20
30.2049
 30
0.0
 10
-7.963
 20
30.1848
 30
0.0
 10
-7.963
 20
30.1848
 30
0.0
 10
-7.963
 20
30.1848
 30
0.0
 10
-7.963
 20
30.1848
 30
0.0
 10
-7.963
 20
28.3858
 30
0.0
 10
-7.963
 20
28.3858
 30
0.0
 10
-7.963
 20
28.3858
 30
0.0
 10
-7.963
 20
28.3858
 30
0.0
 10
-7.9236
 20
28.1836
 30
0.0
 10
-7.9236
 20
28.1836
 30
0.0
 10
-7.9236
 20
28.1836
 30
0.0
 10
-7.9236
 20
28.1836
 30
0.0
 10
-7.864
 20
28.0018
 30
0.0
 10
-7.864
 20
28.0018
 30
0.0
 10
-7.864
 20
28.0018
 30
0.0
 10
-7.864
 20
28.0018
 30
0.0
 10
-7.6461
 20
27.8402
 30
0.0
 10
-7.6461
 20
27.8402
 30
0.0
 10
-7.6461
 20
27.8402
 30
0.0
 10
-7.6461
 20
27.8402
 30
0.0
 10
-7.3489
 20
27.8603
 30
0.0
 10
-7.3489
 20
27.8603
 30
0.0
 10
-7.3489
 20
27.8603
 30
0.0
 10
-7.3489
 20
27.8603
 30
0.0
 10
-7.2301
 20
27.9817
 30
0.0
 10
-7.2301
 20
27.9817
 30
0.0
 10
-7.2301
 20
27.9817
 30
0.0
 10
-7.2301
 20
27.9817
 30
0.0
 10
-7.1512
 20
28.2443
 30
0.0
 10
-7.1512
 20
28.2443
 30
0.0
 10
-7.1512
 20
28.2443
 30
0.0
 10
-7.1512
 20
28.2443
 30
0.0
 10
-7.1512
 20
30.1848
 30
0.0
 10
-7.1512
 20
30.1848
 30
0.0
 10
-7.1512
 20
30.1848
 30
0.0
 10
-7.1512
 20
30.1848
 30
0.0
 10
-3.1705
 20
30.1848
 30
0.0
 10
-3.1705
 20
30.1848
 30
0.0
 10
-3.1705
 20
30.1848
 30
0.0
 10
-3.1705
 20
30.1848
 30
0.0
 10
-3.1687
 20
28.3577
 30
0.0
 10
-3.1687
 20
28.3577
 30
0.0
 10
-3.1687
 20
28.3577
 30
0.0
 10
-3.1687
 20
28.0728
 30
0.0
 10
-2.9421
 20
27.842
 30
0.0
 10
-2.6628
 20
27.842
 30
0.0
 10
-2.6628
 20
27.842
 30
0.0
 10
-2.3832
 20
27.842
 30
0.0
 10
-2.1565
 20
28.0728
 30
0.0
 10
-2.1565
 20
28.3577
 30
0.0
 10
-2.1565
 20
28.3577
 30
0.0
 10
-2.1565
 20
28.3577
 30
0.0
 10
-2.1605
 20
30.1848
 30
0.0
 10
-2.1605
 20
30.1848
 30
0.0
 10
-2.1605
 20
30.1848
 30
0.0
 10
-2.1605
 20
30.1848
 30
0.0
 10
1.8996
 20
30.1848
 30
0.0
 10
1.8996
 20
30.1848
 30
0.0
 10
1.8996
 20
30.1848
 30
0.0
 10
1.8996
 20
30.1848
 30
0.0
 10
1.8794
 20
28.2443
 30
0.0
 10
1.8794
 20
28.2443
 30
0.0
 10
1.8794
 20
28.2443
 30
0.0
 10
1.8794
 20
28.2443
 30
0.0
 10
1.9982
 20
28.0018
 30
0.0
 10
1.9982
 20
28.0018
 30
0.0
 10
1.9982
 20
28.0018
 30
0.0
 10
1.9982
 20
28.0018
 30
0.0
 10
2.1964
 20
27.8603
 30
0.0
 10
2.1964
 20
27.8603
 30
0.0
 10
2.1964
 20
27.8603
 30
0.0
 10
2.1964
 20
27.8603
 30
0.0
 10
2.434
 20
27.8603
 30
0.0
 10
2.434
 20
27.8603
 30
0.0
 10
2.434
 20
27.8603
 30
0.0
 10
2.434
 20
27.8603
 30
0.0
 10
2.5729
 20
28.0826
 30
0.0
 10
2.5729
 20
28.0826
 30
0.0
 10
2.5729
 20
28.0826
 30
0.0
 10
2.5729
 20
28.0826
 30
0.0
 10
2.6124
 20
28.3452
 30
0.0
 10
2.6124
 20
28.3452
 30
0.0
 10
2.6124
 20
28.3452
 30
0.0
 10
2.6124
 20
28.3452
 30
0.0
 10
2.6124
 20
30.2049
 30
0.0
 10
2.6124
 20
30.2049
 30
0.0
 10
2.6124
 20
30.2049
 30
0.0
 10
2.6124
 20
30.2049
 30
0.0
 10
4.2361
 20
30.1848
 30
0.0
 10
4.2361
 20
30.1848
 30
0.0
  0
SPLINE
  5
78
330
1F
100
AcDbEntity
  8
DEFAULT_1
 62
   250
100
AcDbSpline
210
0.0
220
0.0
230
1.0
 70
     8
 71
     3
 72
    32
 73
    28
 74
     0
 42
0.0000000001
 43
0.0000000001
 40
0.0
 40
0.0
 40
0.0
 40
0.0
 40
0.125
 40
0.125
 40
0.125
 40
0.125
 40
0.25
 40
0.25
 40
0.25
 40
0.25
 40
0.375
 40
0.375
 40
0.375
 40
0.375
 40
0.5
 40
0.5
 40
0.5
 40
0.5
 40
0.625
 40
0.625
 40
0.625
 40
0.625
 40
0.75
 40
0.75
 40
0.75
 40
0.75
 40
1.0
 40
1.0
 40
1.0
 40
1.0
 10
-9.4416
 20
30.2567
 30
0.0
 10
-9.4416
 20
30.2567
 30
0.0
 10
-9.4938
 20
27.0691
 30
0.0
 10
-9.4938
 20
27.0691
 30
0.0
 10
-9.4938
 20
27.0691
 30
0.0
 10
-9.4938
 20
26.7842
 30
0.0
 10
-9.2672
 20
26.5533
 30
0.0
 10
-8.9875
 20
26.5533
 30
0.0
 10
-8.9875
 20
26.5533
 30
0.0
 10
-8.9875
 20
26.5533
 30
0.0
 10
3.611
 20
26.556
 30
0.0
 10
3.611
 20
26.556
 30
0.0
 10
3.611
 20
26.556
 30
0.0
 10
3.611
 20
26.556
 30
0.0
 10
3.952
 20
26.6431
 30
0.0
 10
3.952
 20
26.6431
 30
0.0
 10
3.952
 20
26.6431
 30
0.0
 10
3.952
 20
26.6431
 30
0.0
 10
4.1015
 20
26.9043
 30
0.0
 10
4.1015
 20
26.9043
 30
0.0
 10
4.1015
 20
26.9043
 30
0.0
 10
4.1015
 20
26.9043
 30
0.0
 10
4.1655
 20
27.2963
 30
0.0
 10
4.1655
 20
27.2963
 30
0.0
 10
4.1655
 20
27.2963
 30
0.0
 10
4.1655
 20
27.2963
 30
0.0
 10
4.144
 20
30.2348
 30
0.0
 10
4.144
 20
30.2348
 30
0.0
  0
SPLINE
  5
79
330
1F
100
AcDbEntity
  8
DEFAULT_1
 62
   250
100
AcDbSpline
210
0.0
220
0.0
230
1.0
 70
    11
 71
     3
 72
    84
 73
    80
 74
     0
 42
0.0000000001
 43
0.0000000001
 40
0.0
 40
0.0
 40
0.0
 40
0.0
 40
0.0476190476190476
 40
0.0476190476190476
 40
0.0476190476190476
 40
0.0476190476190476
 40
0.0952380952380952
 40
0.0952380952380952
 40
0.0952380952380952
 40
0.0952380952380952
 40
0.1428571428571428
 40
0.1428571428571428
 40
0.1428571428571428
 40
0.1428571428571428
 40
0.1904761904761905
 40
0.1904761904761905
 40
0.1904761904761905
 40
0.1904761904761905
 40
0.2380952380952381
 40
0.2380952380952381
 40
0.2380952380952381
 40
0.2380952380952381
 40
0.2857142857142857
 40
0.2857142857142857
 40
0.2857142857142857
 40
0.2857142857142857
 40
0.3333333333333333
 40
0.3333333333333333
 40
0.3333333333333333
 40
0.3333333333333333
 40
0.3809523809523809
 40
0.3809523809523809
 40
0.3809523809523809
 40
0.3809523809523809
 40
0.4285714285714285
 40
0.4285714285714285
 40
0.4285714285714285
 40
0.4285714285714285
 40
0.4761904761904762
 40
0.4761904761904762
 40
0.4761904761904762
 40
0.4761904761904762
 40
0.5238095238095238
 40
0.5238095238095238
 40
0.5238095238095238
 40
0.5238095238095238
 40
0.5714285714285714
 40
0.5714285714285714
 40
0.5714285714285714
 40
0.5714285714285714
 40
0.6190476190476191
 40
0.6190476190476191
 40
0.6190476190476191
 40
0.6190476190476191
 40
0.6666666666666666
 40
0.6666666666666666
 40
0.6666666666666666
 40
0.6666666666666666
 40
0.7142857142857143
 40
0.7142857142857143
 40
0.7142857142857143
 40
0.7142857142857143
 40
0.7619047619047619
 40
0.7619047619047619
 40
0.7619047619047619
 40
0.7619047619047619
 40
0.8095238095238095
 40
0.8095238095238095
 40
0.8095238095238095
 40
0.8095238095238095
 40
0.8571428571428571
 40
0.8571428571428571
 40
0.8571428571428571
 40
0.8571428571428571
 40
0.9047619047619048
 40
0.9047619047619048
 40
0.9047619047619048
 40
0.9047619047619048
 40
1.0
 40
1.0
 40
1.0
 40
1.0
 10
-3.2049
 20
12.883
 30
0.0
 10
-3.2049
 20
12.883
 30
0.0
 10
-2.9735
 20
13.1421
 30
0.0
 10
-2.9735
 20
13.1421
 30
0.0
 10
-2.9735
 20
13.1421
 30
0.0
 10
-2.9735
 20
13.1421
 30
0.0
 10
-2.8371
 20
13.0264
 30
0.0
 10
-2.8371
 20
13.0264
 30
0.0
 10
-2.8371
 20
13.0264
 30
0.0
 10
-2.8371
 20
13.0264
 30
0.0
 10
-3.0793
 20
12.7536
 30
0.0
 10
-3.0793
 20
12.7536
 30
0.0
 10
-3.0793
 20
12.7536
 30
0.0
 10
-3.0003
 20
12.636
 30
0.0
 10
-2.9472
 20
12.533
 30
0.0
 10
-2.9194
 20
12.4451
 30
0.0
 10
-2.9194
 20
12.4451
 30
0.0
 10
-2.8827
 20
12.3293
 30
0.0
 10
-2.8644
 20
12.1995
 30
0.0
 10
-2.8644
 20
12.0565
 30
0.0
 10
-2.8644
 20
12.0565
 30
0.0
 10
-2.8644
 20
11.8496
 30
0.0
 10
-2.9062
 20
11.6652
 30
0.0
 10
-2.99
 20
11.5039
 30
0.0
 10
-2.99
 20
11.5039
 30
0.0
 10
-3.0737
 20
11.342
 30
0.0
 10
-3.1908
 20
11.2198
 30
0.0
 10
-3.3418
 20
11.137
 30
0.0
 10
-3.3418
 20
11.137
 30
0.0
 10
-3.4933
 20
11.0547
 30
0.0
 10
-3.6536
 20
11.0133
 30
0.0
 10
-3.8234
 20
11.0133
 30
0.0
 10
-3.8234
 20
11.0133
 30
0.0
 10
-3.9504
 20
11.0133
 30
0.0
 10
-4.0652
 20
11.0311
 30
0.0
 10
-4.1682
 20
11.0669
 30
0.0
 10
-4.1682
 20
11.0669
 30
0.0
 10
-4.2472
 20
11.0946
 30
0.0
 10
-4.3394
 20
11.1473
 30
0.0
 10
-4.4453
 20
11.2254
 30
0.0
 10
-4.4453
 20
11.2254
 30
0.0
 10
-4.4453
 20
11.2254
 30
0.0
 10
-4.6767
 20
10.9662
 30
0.0
 10
-4.6767
 20
10.9662
 30
0.0
 10
-4.6767
 20
10.9662
 30
0.0
 10
-4.6767
 20
10.9662
 30
0.0
 10
-4.8131
 20
11.0819
 30
0.0
 10
-4.8131
 20
11.0819
 30
0.0
 10
-4.8131
 20
11.0819
 30
0.0
 10
-4.8131
 20
11.0819
 30
0.0
 10
-4.5704
 20
11.3533
 30
0.0
 10
-4.5704
 20
11.3533
 30
0.0
 10
-4.5704
 20
11.3533
 30
0.0
 10
-4.6607
 20
11.4902
 30
0.0
 10
-4.7209
 20
11.6073
 30
0.0
 10
-4.751
 20
11.7042
 30
0.0
 10
-4.751
 20
11.7042
 30
0.0
 10
-4.7811
 20
11.8011
 30
0.0
 10
-4.7966
 20
11.9178
 30
0.0
 10
-4.7966
 20
12.0537
 30
0.0
 10
-4.7966
 20
12.0537
 30
0.0
 10
-4.7966
 20
12.2611
 30
0.0
 10
-4.7552
 20
12.446
 30
0.0
 10
-4.6725
 20
12.6083
 30
0.0
 10
-4.6725
 20
12.6083
 30
0.0
 10
-4.5897
 20
12.7706
 30
0.0
 10
-4.474
 20
12.8933
 30
0.0
 10
-4.3244
 20
12.977
 30
0.0
 10
-4.3244
 20
12.977
 30
0.0
 10
-4.1753
 20
13.0603
 30
0.0
 10
-4.0092
 20
13.1022
 30
0.0
 10
-3.8263
 20
13.1022
 30
0.0
 10
-3.8263
 20
13.1022
 30
0.0
 10
-3.703
 20
13.1022
 30
0.0
 10
-3.5953
 20
13.0862
 30
0.0
 10
-3.5031
 20
13.0532
 30
0.0
 10
-3.5031
 20
13.0532
 30
0.0
 10
-3.4109
 20
13.0208
 30
0.0
 10
-3.3112
 20
12.9639
 30
0.0
 10
-3.2049
 20
12.883
 30
0.0
  0
SPLINE
  5
7A
330
1F
100
AcDbEntity
  8
DEFAULT_1
 62
   250
100
AcDbSpline
210
0.0
220
0.0
230
1.0
 70
    11
 71
     3
 72
    32
 73
    28
 74
     0
 42
0.0000000001
 43
0.0000000001
 40
0.0
 40
0.0
 40
0.0
 40
0.0
 40
0.125
 40
0.125
 40
0.125
 40
0.125
 40
0.25
 40
0.25
 40
0.25
 40
0.25
 40
0.375
 40
0.375
 40
0.375
 40
0.375
 40
0.5
 40
0.5
 40
0.5
 40
0.5
 40
0.625
 40
0.625
 40
0.625
 40
0.625
 40
0.75
 40
0.75
 40
0.75
 40
0.75
 40
1.0
 40
1.0
 40
1.0
 40
1.0
 10
-3.37
 20
12.6972
 30
0.0
 10
-3.4566
 20
12.7649
 30
0.0
 10
-3.5323
 20
12.8115
 30
0.0
 10
-3.5967
 20
12.8364
 30
0.0
 10
-3.5967
 20
12.8364
 30
0.0
 10
-3.6616
 20
12.8609
 30
0.0
 10
-3.7378
 20
12.8736
 30
0.0
 10
-3.8249
 20
12.8736
 30
0.0
 10
-3.8249
 20
12.8736
 30
0.0
 10
-4.0262
 20
12.8736
 30
0.0
 10
-4.1922
 20
12.8054
 30
0.0
 10
-4.3239
 20
12.669
 30
0.0
 10
-4.3239
 20
12.669
 30
0.0
 10
-4.4552
 20
12.5325
 30
0.0
 10
-4.521
 20
12.3289
 30
0.0
 10
-4.521
 20
12.0575
 30
0.0
 10
-4.521
 20
12.0575
 30
0.0
 10
-4.521
 20
11.9512
 30
0.0
 10
-4.5107
 20
11.8566
 30
0.0
 10
-4.4904
 20
11.7738
 30
0.0
 10
-4.4904
 20
11.7738
 30
0.0
 10
-4.4758
 20
11.7122
 30
0.0
 10
-4.4453
 20
11.6365
 30
0.0
 10
-4.3982
 20
11.5467
 30
0.0
 10
-4.3982
 20
11.5467
 30
0.0
 10
-4.3982
 20
11.5467
 30
0.0
 10
-3.37
 20
12.6972
 30
0.0
 10
-3.37
 20
12.6972
 30
0.0
  0
SPLINE
  5
7B
330
1F
100
AcDbEntity
  8
DEFAULT_1
 62
   250
100
AcDbSpline
210
0.0
220
0.0
230
1.0
 70
    11
 71
     3
 72
    28
 73
    24
 74
     0
 42
0.0000000001
 43
0.0000000001
 40
0.0
 40
0.0
 40
0.0
 40
0.0
 40
0.1428571428571428
 40
0.1428571428571428
 40
0.1428571428571428
 40
0.1428571428571428
 40
0.2857142857142857
 40
0.2857142857142857
 40
0.2857142857142857
 40
0.2857142857142857
 40
0.4285714285714285
 40
0.4285714285714285
 40
0.4285714285714285
 40
0.4285714285714285
 40
0.5714285714285714
 40
0.5714285714285714
 40
0.5714285714285714
 40
0.5714285714285714
 40
0.7142857142857143
 40
0.7142857142857143
 40
0.7142857142857143
 40
0.7142857142857143
 40
1.0
 40
1.0
 40
1.0
 40
1.0
 10
-3.2571
 20
12.5551
 30
0.0
 10
-3.2571
 20
12.5551
 30
0.0
 10
-4.2811
 20
11.4088
 30
0.0
 10
-4.2811
 20
11.4088
 30
0.0
 10
-4.2811
 20
11.4088
 30
0.0
 10
-4.2106
 20
11.351
 30
0.0
 10
-4.1452
 20
11.3105
 30
0.0
 10
-4.0854
 20
11.2875
 30
0.0
 10
-4.0854
 20
11.2875
 30
0.0
 10
-4.0074
 20
11.2569
 30
0.0
 10
-3.9227
 20
11.2419
 30
0.0
 10
-3.8319
 20
11.2419
 30
0.0
 10
-3.8319
 20
11.2419
 30
0.0
 10
-3.6315
 20
11.2419
 30
0.0
 10
-3.4664
 20
11.3124
 30
0.0
 10
-3.3357
 20
11.454
 30
0.0
 10
-3.3357
 20
11.454
 30
0.0
 10
-3.2054
 20
11.5956
 30
0.0
 10
-3.14
 20
11.7941
 30
0.0
 10
-3.14
 20
12.0495
 30
0.0
 10
-3.14
 20
12.0495
 30
0.0
 10
-3.14
 20
12.2404
 30
0.0
 10
-3.179
 20
12.4093
 30
0.0
 10
-3.2571
 20
12.5551
 30
0.0
  0
SPLINE
  5
7C
330
1F
100
AcDbEntity
  8
DEFAULT_1
 62
   250
100
AcDbSpline
210
0.0
220
0.0
230
1.0
 70
    11
 71
     3
 72
    48
 73
    44
 74
     0
 42
0.0000000001
 43
0.0000000001
 40
0.0
 40
0.0
 40
0.0
 40
0.0
 40
0.0833333333333333
 40
0.0833333333333333
 40
0.0833333333333333
 40
0.0833333333333333
 40
0.1666666666666667
 40
0.1666666666666667
 40
0.1666666666666667
 40
0.1666666666666667
 40
0.25
 40
0.25
 40
0.25
 40
0.25
 40
0.3333333333333333
 40
0.3333333333333333
 40
0.3333333333333333
 40
0.3333333333333333
 40
0.4166666666666667
 40
0.4166666666666667
 40
0.4166666666666667
 40
0.4166666666666667
 40
0.5
 40
0.5
 40
0.5
 40
0.5
 40
0.5833333333333334
 40
0.5833333333333334
 40
0.5833333333333334
 40
0.5833333333333334
 40
0.6666666666666666
 40
0.6666666666666666
 40
0.6666666666666666
 40
0.6666666666666666
 40
0.75
 40
0.75
 40
0.75
 40
0.75
 40
0.8333333333333334
 40
0.8333333333333334
 40
0.8333333333333334
 40
0.8333333333333334
 40
1.0
 40
1.0
 40
1.0
 40
1.0
 10
-1.8202
 20
11.0476
 30
0.0
 10
-1.8202
 20
11.0476
 30
0.0
 10
-1.8202
 20
11.5311
 30
0.0
 10
-1.8202
 20
11.5311
 30
0.0
 10
-1.8202
 20
11.5311
 30
0.0
 10
-1.8202
 20
11.5311
 30
0.0
 10
-2.6965
 20
11.5311
 30
0.0
 10
-2.6965
 20
11.5311
 30
0.0
 10
-2.6965
 20
11.5311
 30
0.0
 10
-2.6965
 20
11.5311
 30
0.0
 10
-2.6965
 20
11.7588
 30
0.0
 10
-2.6965
 20
11.7588
 30
0.0
 10
-2.6965
 20
11.7588
 30
0.0
 10
-2.6965
 20
11.7588
 30
0.0
 10
-1.7745
 20
13.0678
 30
0.0
 10
-1.7745
 20
13.0678
 30
0.0
 10
-1.7745
 20
13.0678
 30
0.0
 10
-1.7745
 20
13.0678
 30
0.0
 10
-1.5718
 20
13.0678
 30
0.0
 10
-1.5718
 20
13.0678
 30
0.0
 10
-1.5718
 20
13.0678
 30
0.0
 10
-1.5718
 20
13.0678
 30
0.0
 10
-1.5718
 20
11.7588
 30
0.0
 10
-1.5718
 20
11.7588
 30
0.0
 10
-1.5718
 20
11.7588
 30
0.0
 10
-1.5718
 20
11.7588
 30
0.0
 10
-1.299
 20
11.7588
 30
0.0
 10
-1.299
 20
11.7588
 30
0.0
 10
-1.299
 20
11.7588
 30
0.0
 10
-1.299
 20
11.7588
 30
0.0
 10
-1.299
 20
11.5311
 30
0.0
 10
-1.299
 20
11.5311
 30
0.0
 10
-1.299
 20
11.5311
 30
0.0
 10
-1.299
 20
11.5311
 30
0.0
 10
-1.5718
 20
11.5311
 30
0.0
 10
-1.5718
 20
11.5311
 30
0.0
 10
-1.5718
 20
11.5311
 30
0.0
 10
-1.5718
 20
11.5311
 30
0.0
 10
-1.5718
 20
11.0476
 30
0.0
 10
-1.5718
 20
11.0476
 30
0.0
 10
-1.5718
 20
11.0476
 30
0.0
 10
-1.5718
 20
11.0476
 30
0.0
 10
-1.8202
 20
11.0476
 30
0.0
 10
-1.8202
 20
11.0476
 30
0.0
  0
SPLINE
  5
7D
330
1F
100
AcDbEntity
  8
DEFAULT_1
 62
   250
100
AcDbSpline
210
0.0
220
0.0
230
1.0
 70
    11
 71
     3
 72
    16
 73
    12
 74
     0
 42
0.0000000001
 43
0.0000000001
 40
0.0
 40
0.0
 40
0.0
 40
0.0
 40
0.25
 40
0.25
 40
0.25
 40
0.25
 40
0.5
 40
0.5
 40
0.5
 40
0.5
 40
1.0
 40
1.0
 40
1.0
 40
1.0
 10
-1.8202
 20
11.7588
 30
0.0
 10
-1.8202
 20
11.7588
 30
0.0
 10
-1.8202
 20
12.6694
 30
0.0
 10
-1.8202
 20
12.6694
 30
0.0
 10
-1.8202
 20
12.6694
 30
0.0
 10
-1.8202
 20
12.6694
 30
0.0
 10
-2.4523
 20
11.7588
 30
0.0
 10
-2.4523
 20
11.7588
 30
0.0
 10
-2.4523
 20
11.7588
 30
0.0
 10
-2.4523
 20
11.7588
 30
0.0
 10
-1.8202
 20
11.7588
 30
0.0
 10
-1.8202
 20
11.7588
 30
0.0
  0
SPLINE
  5
7E
330
1F
100
AcDbEntity
  8
DEFAULT_1
 62
   250
100
AcDbSpline
210
0.0
220
0.0
230
1.0
 70
    11
 71
     3
 72
    52
 73
    48
 74
     0
 42
0.0000000001
 43
0.0000000001
 40
0.0
 40
0.0
 40
0.0
 40
0.0
 40
0.0769230769230769
 40
0.0769230769230769
 40
0.0769230769230769
 40
0.0769230769230769
 40
0.1538461538461539
 40
0.1538461538461539
 40
0.1538461538461539
 40
0.1538461538461539
 40
0.2307692307692308
 40
0.2307692307692308
 40
0.2307692307692308
 40
0.2307692307692308
 40
0.3076923076923077
 40
0.3076923076923077
 40
0.3076923076923077
 40
0.3076923076923077
 40
0.3846153846153846
 40
0.3846153846153846
 40
0.3846153846153846
 40
0.3846153846153846
 40
0.4615384615384616
 40
0.4615384615384616
 40
0.4615384615384616
 40
0.4615384615384616
 40
0.5384615384615384
 40
0.5384615384615384
 40
0.5384615384615384
 40
0.5384615384615384
 40
0.6153846153846154
 40
0.6153846153846154
 40
0.6153846153846154
 40
0.6153846153846154
 40
0.6923076923076923
 40
0.6923076923076923
 40
0.6923076923076923
 40
0.6923076923076923
 40
0.7692307692307693
 40
0.7692307692307693
 40
0.7692307692307693
 40
0.7692307692307693
 40
0.8461538461538461
 40
0.8461538461538461
 40
0.8461538461538461
 40
0.8461538461538461
 40
1.0
 40
1.0
 40
1.0
 40
1.0
 10
-1.0455
 20
12.0438
 30
0.0
 10
-1.0455
 20
12.2828
 30
0.0
 10
-1.021
 20
12.4752
 30
0.0
 10
-0.9716
 20
12.6205
 30
0.0
 10
-0.9716
 20
12.6205
 30
0.0
 10
-0.9227
 20
12.7663
 30
0.0
 10
-0.8493
 20
12.8787
 30
0.0
 10
-0.7524
 20
12.9578
 30
0.0
 10
-0.7524
 20
12.9578
 30
0.0
 10
-0.6555
 20
13.0368
 30
0.0
 10
-0.5337
 20
13.0763
 30
0.0
 10
-0.387
 20
13.0763
 30
0.0
 10
-0.387
 20
13.0763
 30
0.0
 10
-0.2783
 20
13.0763
 30
0.0
 10
-0.1833
 20
13.0542
 30
0.0
 10
-0.1015
 20
13.0104
 30
0.0
 10
-0.1015
 20
13.0104
 30
0.0
 10
-0.0196
 20
12.9672
 30
0.0
 10
0.0477
 20
12.9041
 30
0.0
 10
0.1013
 20
12.8218
 30
0.0
 10
0.1013
 20
12.8218
 30
0.0
 10
0.1544
 20
12.7395
 30
0.0
 10
0.1963
 20
12.6393
 30
0.0
 10
0.2264
 20
12.5213
 30
0.0
 10
0.2264
 20
12.5213
 30
0.0
 10
0.257
 20
12.4032
 30
0.0
 10
0.272
 20
12.2442
 30
0.0
 10
0.272
 20
12.0438
 30
0.0
 10
0.272
 20
12.0438
 30
0.0
 10
0.272
 20
11.8068
 30
0.0
 10
0.2476
 20
11.6158
 30
0.0
 10
0.1991
 20
11.47
 30
0.0
 10
0.1991
 20
11.47
 30
0.0
 10
0.1502
 20
11.3242
 30
0.0
 10
0.0773
 20
11.2118
 30
0.0
 10
-0.0196
 20
11.1323
 30
0.0
 10
-0.0196
 20
11.1323
 30
0.0
 10
-0.1165
 20
11.0528
 30
0.0
 10
-0.2388
 20
11.0133
 30
0.0
 10
-0.387
 20
11.0133
 30
0.0
 10
-0.387
 20
11.0133
 30
0.0
 10
-0.5817
 20
11.0133
 30
0.0
 10
-0.7346
 20
11.0829
 30
0.0
 10
-0.8456
 20
11.2226
 30
0.0
 10
-0.8456
 20
11.2226
 30
0.0
 10
-0.9787
 20
11.3905
 30
0.0
 10
-1.0455
 20
11.6647
 30
0.0
 10
-1.0455
 20
12.0438
 30
0.0
  0
SPLINE
  5
7F
330
1F
100
AcDbEntity
  8
DEFAULT_1
 62
   250
100
AcDbSpline
210
0.0
220
0.0
230
1.0
 70
    11
 71
     3
 72
    36
 73
    32
 74
     0
 42
0.0000000001
 43
0.0000000001
 40
0.0
 40
0.0
 40
0.0
 40
0.0
 40
0.1111111111111111
 40
0.1111111111111111
 40
0.1111111111111111
 40
0.1111111111111111
 40
0.2222222222222222
 40
0.2222222222222222
 40
0.2222222222222222
 40
0.2222222222222222
 40
0.3333333333333333
 40
0.3333333333333333
 40
0.3333333333333333
 40
0.3333333333333333
 40
0.4444444444444444
 40
0.4444444444444444
 40
0.4444444444444444
 40
0.4444444444444444
 40
0.5555555555555556
 40
0.5555555555555556
 40
0.5555555555555556
 40
0.5555555555555556
 40
0.6666666666666666
 40
0.6666666666666666
 40
0.6666666666666666
 40
0.6666666666666666
 40
0.7777777777777778
 40
0.7777777777777778
 40
0.7777777777777778
 40
0.7777777777777778
 40
1.0
 40
1.0
 40
1.0
 40
1.0
 10
-0.7905
 20
12.0438
 30
0.0
 10
-0.7905
 20
11.7122
 30
0.0
 10
-0.7515
 20
11.4916
 30
0.0
 10
-0.6739
 20
11.3816
 30
0.0
 10
-0.6739
 20
11.3816
 30
0.0
 10
-0.5963
 20
11.272
 30
0.0
 10
-0.5008
 20
11.2169
 30
0.0
 10
-0.387
 20
11.2169
 30
0.0
 10
-0.387
 20
11.2169
 30
0.0
 10
-0.2727
 20
11.2169
 30
0.0
 10
-0.1772
 20
11.2724
 30
0.0
 10
-0.0996
 20
11.3825
 30
0.0
 10
-0.0996
 20
11.3825
 30
0.0
 10
-0.022
 20
11.4926
 30
0.0
 10
0.0171
 20
11.7132
 30
0.0
 10
0.0171
 20
12.0438
 30
0.0
 10
0.0171
 20
12.0438
 30
0.0
 10
0.0171
 20
12.3764
 30
0.0
 10
-0.022
 20
12.5975
 30
0.0
 10
-0.0996
 20
12.7066
 30
0.0
 10
-0.0996
 20
12.7066
 30
0.0
 10
-0.1772
 20
12.8162
 30
0.0
 10
-0.2736
 20
12.8707
 30
0.0
 10
-0.3893
 20
12.8707
 30
0.0
 10
-0.3893
 20
12.8707
 30
0.0
 10
-0.5036
 20
12.8707
 30
0.0
 10
-0.5944
 20
12.8223
 30
0.0
 10
-0.6626
 20
12.7259
 30
0.0
 10
-0.6626
 20
12.7259
 30
0.0
 10
-0.7477
 20
12.6031
 30
0.0
 10
-0.7905
 20
12.3754
 30
0.0
 10
-0.7905
 20
12.0438
 30
0.0
  0
SPLINE
  5
80
330
1F
100
AcDbEntity
  8
DEFAULT_1
 62
   250
100
AcDbSpline
210
0.0
220
0.0
230
1.0
 70
    11
 71
     3
 72
    20
 73
    16
 74
     0
 42
0.0000000001
 43
0.0000000001
 40
0.0
 40
0.0
 40
0.0
 40
0.0
 40
0.2
 40
0.2
 40
0.2
 40
0.2
 40
0.4
 40
0.4
 40
0.4
 40
0.4
 40
0.6
 40
0.6
 40
0.6
 40
0.6
 40
1.0
 40
1.0
 40
1.0
 40
1.0
 10
-10.8329
 20
10.9254
 30
0.0
 10
-10.8329
 20
10.9254
 30
0.0
 10
-7.833
 20
10.5021
 30
0.0
 10
-7.833
 20
10.5021
 30
0.0
 10
-7.833
 20
10.5021
 30
0.0
 10
-7.833
 20
10.5021
 30
0.0
 10
-7.833
 20
10.408
 30
0.0
 10
-7.833
 20
10.408
 30
0.0
 10
-7.833
 20
10.408
 30
0.0
 10
-7.833
 20
10.408
 30
0.0
 10
-10.8329
 20
9.9565
 30
0.0
 10
-10.8329
 20
9.9565
 30
0.0
 10
-10.8329
 20
9.9565
 30
0.0
 10
-10.8329
 20
9.9565
 30
0.0
 10
-10.8329
 20
10.9254
 30
0.0
 10
-10.8329
 20
10.9254
 30
0.0
  0
SPLINE
  5
81
330
1F
100
AcDbEntity
  8
DEFAULT_1
 62
   250
100
AcDbSpline
210
0.0
220
0.0
230
1.0
 70
    11
 71
     3
 72
    20
 73
    16
 74
     0
 42
0.0000000001
 43
0.0000000001
 40
0.0
 40
0.0
 40
0.0
 40
0.0
 40
0.2
 40
0.2
 40
0.2
 40
0.2
 40
0.4
 40
0.4
 40
0.4
 40
0.4
 40
0.6
 40
0.6
 40
0.6
 40
0.6
 40
1.0
 40
1.0
 40
1.0
 40
1.0
 10
5.4036
 20
10.0442
 30
0.0
 10
5.4036
 20
10.0442
 30
0.0
 10
2.4037
 20
10.4676
 30
0.0
 10
2.4037
 20
10.4676
 30
0.0
 10
2.4037
 20
10.4676
 30
0.0
 10
2.4037
 20
10.4676
 30
0.0
 10
2.4037
 20
10.5616
 30
0.0
 10
2.4037
 20
10.5616
 30
0.0
 10
2.4037
 20
10.5616
 30
0.0
 10
2.4037
 20
10.5616
 30
0.0
 10
5.4036
 20
11.0131
 30
0.0
 10
5.4036
 20
11.0131
 30
0.0
 10
5.4036
 20
11.0131
 30
0.0
 10
5.4036
 20
11.0131
 30
0.0
 10
5.4036
 20
10.0442
 30
0.0
 10
5.4036
 20
10.0442
 30
0.0
  0
SPLINE
  5
82
330
1F
100
AcDbEntity
  8
DEFAULT_1
 62
   250
100
AcDbSpline
210
0.0
220
0.0
230
1.0
 70
    11
 71
     3
 72
    20
 73
    16
 74
     0
 42
0.0000000001
 43
0.0000000001
 40
0.0
 40
0.0
 40
0.0
 40
0.0
 40
0.2
 40
0.2
 40
0.2
 40
0.2
 40
0.4
 40
0.4
 40
0.4
 40
0.4
 40
0.6
 40
0.6
 40
0.6
 40
0.6
 40
1.0
 40
1.0
 40
1.0
 40
1.0
 10
-20.1475
 20
-4.5346
 30
0.0
 10
-20.1475
 20
-4.5346
 30
0.0
 10
-20.5709
 20
-7.5345
 30
0.0
 10
-20.5709
 20
-7.5345
 30
0.0
 10
-20.5709
 20
-7.5345
 30
0.0
 10
-20.5709
 20
-7.5345
 30
0.0
 10
-20.6649
 20
-7.5345
 30
0.0
 10
-20.6649
 20
-7.5345
 30
0.0
 10
-20.6649
 20
-7.5345
 30
0.0
 10
-20.6649
 20
-7.5345
 30
0.0
 10
-21.1164
 20
-4.5346
 30
0.0
 10
-21.1164
 20
-4.5346
 30
0.0
 10
-21.1164
 20
-4.5346
 30
0.0
 10
-21.1164
 20
-4.5346
 30
0.0
 10
-20.1475
 20
-4.5346
 30
0.0
 10
-20.1475
 20
-4.5346
 30
0.0
  0
SPLINE
  5
83
330
1F
100
AcDbEntity
  8
DEFAULT_1
 62
   250
100
AcDbSpline
210
0.0
220
0.0
230
1.0
 70
    11
 71
     3
 72
    40
 73
    36
 74
     0
 42
0.0000000001
 43
0.0000000001
 40
0.0
 40
0.0
 40
0.0
 40
0.0
 40
0.1
 40
0.1
 40
0.1
 40
0.1
 40
0.2
 40
0.2
 40
0.2
 40
0.2
 40
0.3
 40
0.3
 40
0.3
 40
0.3
 40
0.4
 40
0.4
 40
0.4
 40
0.4
 40
0.5
 40
0.5
 40
0.5
 40
0.5
 40
0.6
 40
0.6
 40
0.6
 40
0.6
 40
0.7
 40
0.7
 40
0.7
 40
0.7
 40
0.8
 40
0.8
 40
0.8
 40
0.8
 40
1.0
 40
1.0
 40
1.0
 40
1.0
 10
-21.4039
 20
6.2602
 30
0.0
 10
-21.4039
 20
6.2602
 30
0.0
 10
-21.4039
 20
6.0123
 30
0.0
 10
-21.4039
 20
6.0123
 30
0.0
 10
-21.4039
 20
6.0123
 30
0.0
 10
-21.4039
 20
6.0123
 30
0.0
 10
-22.9843
 20
6.0123
 30
0.0
 10
-22.9843
 20
6.0123
 30
0.0
 10
-22.9843
 20
6.0123
 30
0.0
 10
-22.9274
 20
5.9525
 30
0.0
 10
-22.8705
 20
5.8745
 30
0.0
 10
-22.8136
 20
5.7776
 30
0.0
 10
-22.8136
 20
5.7776
 30
0.0
 10
-22.7567
 20
5.6802
 30
0.0
 10
-22.7139
 20
5.5932
 30
0.0
 10
-22.6856
 20
5.516
 30
0.0
 10
-22.6856
 20
5.516
 30
0.0
 10
-22.6856
 20
5.516
 30
0.0
 10
-22.9251
 20
5.516
 30
0.0
 10
-22.9251
 20
5.516
 30
0.0
 10
-22.9251
 20
5.516
 30
0.0
 10
-22.9904
 20
5.6548
 30
0.0
 10
-23.0695
 20
5.7762
 30
0.0
 10
-23.1621
 20
5.8801
 30
0.0
 10
-23.1621
 20
5.8801
 30
0.0
 10
-23.2553
 20
5.9836
 30
0.0
 10
-23.3451
 20
6.0574
 30
0.0
 10
-23.4326
 20
6.1007
 30
0.0
 10
-23.4326
 20
6.1007
 30
0.0
 10
-23.4326
 20
6.1007
 30
0.0
 10
-23.4326
 20
6.2602
 30
0.0
 10
-23.4326
 20
6.2602
 30
0.0
 10
-23.4326
 20
6.2602
 30
0.0
 10
-23.4326
 20
6.2602
 30
0.0
 10
-21.4039
 20
6.2602
 30
0.0
 10
-21.4039
 20
6.2602
 30
0.0
  0
SPLINE
  5
84
330
1F
100
AcDbEntity
  8
DEFAULT_1
 62
   250
100
AcDbSpline
210
0.0
220
0.0
230
1.0
 70
    11
 71
     3
 72
    92
 73
    88
 74
     0
 42
0.0000000001
 43
0.0000000001
 40
0.0
 40
0.0
 40
0.0
 40
0.0
 40
0.0434782608695652
 40
0.0434782608695652
 40
0.0434782608695652
 40
0.0434782608695652
 40
0.0869565217391304
 40
0.0869565217391304
 40
0.0869565217391304
 40
0.0869565217391304
 40
0.1304347826086956
 40
0.1304347826086956
 40
0.1304347826086956
 40
0.1304347826086956
 40
0.1739130434782609
 40
0.1739130434782609
 40
0.1739130434782609
 40
0.1739130434782609
 40
0.2173913043478261
 40
0.2173913043478261
 40
0.2173913043478261
 40
0.2173913043478261
 40
0.2608695652173913
 40
0.2608695652173913
 40
0.2608695652173913
 40
0.2608695652173913
 40
0.3043478260869565
 40
0.3043478260869565
 40
0.3043478260869565
 40
0.3043478260869565
 40
0.3478260869565217
 40
0.3478260869565217
 40
0.3478260869565217
 40
0.3478260869565217
 40
0.391304347826087
 40
0.391304347826087
 40
0.391304347826087
 40
0.391304347826087
 40
0.4347826086956522
 40
0.4347826086956522
 40
0.4347826086956522
 40
0.4347826086956522
 40
0.4782608695652174
 40
0.4782608695652174
 40
0.4782608695652174
 40
0.4782608695652174
 40
0.5217391304347826
 40
0.5217391304347826
 40
0.5217391304347826
 40
0.5217391304347826
 40
0.5652173913043478
 40
0.5652173913043478
 40
0.5652173913043478
 40
0.5652173913043478
 40
0.6086956521739131
 40
0.6086956521739131
 40
0.6086956521739131
 40
0.6086956521739131
 40
0.6521739130434783
 40
0.6521739130434783
 40
0.6521739130434783
 40
0.6521739130434783
 40
0.6956521739130435
 40
0.6956521739130435
 40
0.6956521739130435
 40
0.6956521739130435
 40
0.7391304347826086
 40
0.7391304347826086
 40
0.7391304347826086
 40
0.7391304347826086
 40
0.782608695652174
 40
0.782608695652174
 40
0.782608695652174
 40
0.782608695652174
 40
0.8260869565217391
 40
0.8260869565217391
 40
0.8260869565217391
 40
0.8260869565217391
 40
0.8695652173913043
 40
0.8695652173913043
 40
0.8695652173913043
 40
0.8695652173913043
 40
0.9130434782608695
 40
0.9130434782608695
 40
0.9130434782608695
 40
0.9130434782608695
 40
1.0
 40
1.0
 40
1.0
 40
1.0
 10
-21.6424
 20
8.1995
 30
0.0
 10
-21.6424
 20
8.1995
 30
0.0
 10
-21.4039
 20
8.1995
 30
0.0
 10
-21.4039
 20
8.1995
 30
0.0
 10
-21.4039
 20
8.1995
 30
0.0
 10
-21.4039
 20
8.1995
 30
0.0
 10
-21.4039
 20
6.8641
 30
0.0
 10
-21.4039
 20
6.8641
 30
0.0
 10
-21.4039
 20
6.8641
 30
0.0
 10
-21.4636
 20
6.8622
 30
0.0
 10
-21.521
 20
6.8716
 30
0.0
 10
-21.5761
 20
6.8928
 30
0.0
 10
-21.5761
 20
6.8928
 30
0.0
 10
-21.6673
 20
6.9267
 30
0.0
 10
-21.7567
 20
6.9812
 30
0.0
 10
-21.8451
 20
7.056
 30
0.0
 10
-21.8451
 20
7.056
 30
0.0
 10
-21.9331
 20
7.1313
 30
0.0
 10
-22.0351
 20
7.2395
 30
0.0
 10
-22.1508
 20
7.3806
 30
0.0
 10
-22.1508
 20
7.3806
 30
0.0
 10
-22.331
 20
7.6002
 30
0.0
 10
-22.4735
 20
7.7489
 30
0.0
 10
-22.5789
 20
7.826
 30
0.0
 10
-22.5789
 20
7.826
 30
0.0
 10
-22.6838
 20
7.9031
 30
0.0
 10
-22.7835
 20
7.9417
 30
0.0
 10
-22.8771
 20
7.9417
 30
0.0
 10
-22.8771
 20
7.9417
 30
0.0
 10
-22.9754
 20
7.9417
 30
0.0
 10
-23.0582
 20
7.9064
 30
0.0
 10
-23.1259
 20
7.8364
 30
0.0
 10
-23.1259
 20
7.8364
 30
0.0
 10
-23.1932
 20
7.7658
 30
0.0
 10
-23.227
 20
7.6741
 30
0.0
 10
-23.227
 20
7.5612
 30
0.0
 10
-23.227
 20
7.5612
 30
0.0
 10
-23.227
 20
7.4417
 30
0.0
 10
-23.1913
 20
7.3462
 30
0.0
 10
-23.1193
 20
7.2747
 30
0.0
 10
-23.1193
 20
7.2747
 30
0.0
 10
-23.0478
 20
7.2028
 30
0.0
 10
-22.9486
 20
7.1666
 30
0.0
 10
-22.8221
 20
7.1656
 30
0.0
 10
-22.8221
 20
7.1656
 30
0.0
 10
-22.8221
 20
7.1656
 30
0.0
 10
-22.8479
 20
6.9107
 30
0.0
 10
-22.8479
 20
6.9107
 30
0.0
 10
-22.8479
 20
6.9107
 30
0.0
 10
-23.0384
 20
6.9281
 30
0.0
 10
-23.1833
 20
6.9939
 30
0.0
 10
-23.283
 20
7.1078
 30
0.0
 10
-23.283
 20
7.1078
 30
0.0
 10
-23.3827
 20
7.2216
 30
0.0
 10
-23.4326
 20
7.3749
 30
0.0
 10
-23.4326
 20
7.5668
 30
0.0
 10
-23.4326
 20
7.5668
 30
0.0
 10
-23.4326
 20
7.7606
 30
0.0
 10
-23.3785
 20
7.914
 30
0.0
 10
-23.2713
 20
8.0269
 30
0.0
 10
-23.2713
 20
8.0269
 30
0.0
 10
-23.1635
 20
8.1402
 30
0.0
 10
-23.0304
 20
8.1967
 30
0.0
 10
-22.8714
 20
8.1967
 30
0.0
 10
-22.8714
 20
8.1967
 30
0.0
 10
-22.7905
 20
8.1967
 30
0.0
 10
-22.711
 20
8.1802
 30
0.0
 10
-22.633
 20
8.1468
 30
0.0
 10
-22.633
 20
8.1468
 30
0.0
 10
-22.5549
 20
8.1139
 30
0.0
 10
-22.4726
 20
8.0588
 30
0.0
 10
-22.3865
 20
7.9822
 30
0.0
 10
-22.3865
 20
7.9822
 30
0.0
 10
-22.2999
 20
7.9055
 30
0.0
 10
-22.1814
 20
7.778
 30
0.0
 10
-22.0309
 20
7.5998
 30
0.0
 10
-22.0309
 20
7.5998
 30
0.0
 10
-21.9058
 20
7.4511
 30
0.0
 10
-21.8211
 20
7.3556
 30
0.0
 10
-21.7764
 20
7.3133
 30
0.0
 10
-21.7764
 20
7.3133
 30
0.0
 10
-21.7322
 20
7.271
 30
0.0
 10
-21.6875
 20
7.2362
 30
0.0
 10
-21.6424
 20
7.2084
 30
0.0
 10
-21.6424
 20
7.2084
 30
0.0
 10
-21.6424
 20
7.2084
 30
0.0
 10
-21.6424
 20
8.1995
 30
0.0
 10
-21.6424
 20
8.1995
 30
0.0
  0
SPLINE
  5
85
330
1F
100
AcDbEntity
  8
DEFAULT_1
 62
   250
100
AcDbSpline
210
0.0
220
0.0
230
1.0
 70
    11
 71
     3
 72
    52
 73
    48
 74
     0
 42
0.0000000001
 43
0.0000000001
 40
0.0
 40
0.0
 40
0.0
 40
0.0
 40
0.0769230769230769
 40
0.0769230769230769
 40
0.0769230769230769
 40
0.0769230769230769
 40
0.1538461538461539
 40
0.1538461538461539
 40
0.1538461538461539
 40
0.1538461538461539
 40
0.2307692307692308
 40
0.2307692307692308
 40
0.2307692307692308
 40
0.2307692307692308
 40
0.3076923076923077
 40
0.3076923076923077
 40
0.3076923076923077
 40
0.3076923076923077
 40
0.3846153846153846
 40
0.3846153846153846
 40
0.3846153846153846
 40
0.3846153846153846
 40
0.4615384615384616
 40
0.4615384615384616
 40
0.4615384615384616
 40
0.4615384615384616
 40
0.5384615384615384
 40
0.5384615384615384
 40
0.5384615384615384
 40
0.5384615384615384
 40
0.6153846153846154
 40
0.6153846153846154
 40
0.6153846153846154
 40
0.6153846153846154
 40
0.6923076923076923
 40
0.6923076923076923
 40
0.6923076923076923
 40
0.6923076923076923
 40
0.7692307692307693
 40
0.7692307692307693
 40
0.7692307692307693
 40
0.7692307692307693
 40
0.8461538461538461
 40
0.8461538461538461
 40
0.8461538461538461
 40
0.8461538461538461
 40
1.0
 40
1.0
 40
1.0
 40
1.0
 10
-22.4001
 20
8.4652
 30
0.0
 10
-22.6391
 20
8.4652
 30
0.0
 10
-22.8315
 20
8.4897
 30
0.0
 10
-22.9768
 20
8.5391
 30
0.0
 10
-22.9768
 20
8.5391
 30
0.0
 10
-23.1226
 20
8.588
 30
0.0
 10
-23.235
 20
8.6614
 30
0.0
 10
-23.3141
 20
8.7583
 30
0.0
 10
-23.3141
 20
8.7583
 30
0.0
 10
-23.3931
 20
8.8552
 30
0.0
 10
-23.4326
 20
8.977
 30
0.0
 10
-23.4326
 20
9.1237
 30
0.0
 10
-23.4326
 20
9.1237
 30
0.0
 10
-23.4326
 20
9.2324
 30
0.0
 10
-23.4105
 20
9.3274
 30
0.0
 10
-23.3667
 20
9.4092
 30
0.0
 10
-23.3667
 20
9.4092
 30
0.0
 10
-23.3235
 20
9.4911
 30
0.0
 10
-23.2604
 20
9.5584
 30
0.0
 10
-23.1781
 20
9.612
 30
0.0
 10
-23.1781
 20
9.612
 30
0.0
 10
-23.0958
 20
9.6651
 30
0.0
 10
-22.9956
 20
9.707
 30
0.0
 10
-22.8776
 20
9.7371
 30
0.0
 10
-22.8776
 20
9.7371
 30
0.0
 10
-22.7595
 20
9.7677
 30
0.0
 10
-22.6005
 20
9.7827
 30
0.0
 10
-22.4001
 20
9.7827
 30
0.0
 10
-22.4001
 20
9.7827
 30
0.0
 10
-22.1631
 20
9.7827
 30
0.0
 10
-21.9721
 20
9.7583
 30
0.0
 10
-21.8263
 20
9.7098
 30
0.0
 10
-21.8263
 20
9.7098
 30
0.0
 10
-21.6805
 20
9.6609
 30
0.0
 10
-21.5681
 20
9.588
 30
0.0
 10
-21.4886
 20
9.4911
 30
0.0
 10
-21.4886
 20
9.4911
 30
0.0
 10
-21.4091
 20
9.3942
 30
0.0
 10
-21.3696
 20
9.2719
 30
0.0
 10
-21.3696
 20
9.1237
 30
0.0
 10
-21.3696
 20
9.1237
 30
0.0
 10
-21.3696
 20
8.929
 30
0.0
 10
-21.4392
 20
8.7761
 30
0.0
 10
-21.5789
 20
8.6651
 30
0.0
 10
-21.5789
 20
8.6651
 30
0.0
 10
-21.7468
 20
8.532
 30
0.0
 10
-22.021
 20
8.4652
 30
0.0
 10
-22.4001
 20
8.4652
 30
0.0
  0
SPLINE
  5
86
330
1F
100
AcDbEntity
  8
DEFAULT_1
 62
   250
100
AcDbSpline
210
0.0
220
0.0
230
1.0
 70
    11
 71
     3
 72
    36
 73
    32
 74
     0
 42
0.0000000001
 43
0.0000000001
 40
0.0
 40
0.0
 40
0.0
 40
0.0
 40
0.1111111111111111
 40
0.1111111111111111
 40
0.1111111111111111
 40
0.1111111111111111
 40
0.2222222222222222
 40
0.2222222222222222
 40
0.2222222222222222
 40
0.2222222222222222
 40
0.3333333333333333
 40
0.3333333333333333
 40
0.3333333333333333
 40
0.3333333333333333
 40
0.4444444444444444
 40
0.4444444444444444
 40
0.4444444444444444
 40
0.4444444444444444
 40
0.5555555555555556
 40
0.5555555555555556
 40
0.5555555555555556
 40
0.5555555555555556
 40
0.6666666666666666
 40
0.6666666666666666
 40
0.6666666666666666
 40
0.6666666666666666
 40
0.7777777777777778
 40
0.7777777777777778
 40
0.7777777777777778
 40
0.7777777777777778
 40
1.0
 40
1.0
 40
1.0
 40
1.0
 10
-22.4001
 20
8.7202
 30
0.0
 10
-22.0685
 20
8.7202
 30
0.0
 10
-21.8479
 20
8.7592
 30
0.0
 10
-21.7379
 20
8.8368
 30
0.0
 10
-21.7379
 20
8.8368
 30
0.0
 10
-21.6283
 20
8.9144
 30
0.0
 10
-21.5732
 20
9.0099
 30
0.0
 10
-21.5732
 20
9.1237
 30
0.0
 10
-21.5732
 20
9.1237
 30
0.0
 10
-21.5732
 20
9.238
 30
0.0
 10
-21.6287
 20
9.3335
 30
0.0
 10
-21.7388
 20
9.4111
 30
0.0
 10
-21.7388
 20
9.4111
 30
0.0
 10
-21.8489
 20
9.4887
 30
0.0
 10
-22.0695
 20
9.5278
 30
0.0
 10
-22.4001
 20
9.5278
 30
0.0
 10
-22.4001
 20
9.5278
 30
0.0
 10
-22.7327
 20
9.5278
 30
0.0
 10
-22.9538
 20
9.4887
 30
0.0
 10
-23.0629
 20
9.4111
 30
0.0
 10
-23.0629
 20
9.4111
 30
0.0
 10
-23.1725
 20
9.3335
 30
0.0
 10
-23.227
 20
9.2371
 30
0.0
 10
-23.227
 20
9.1214
 30
0.0
 10
-23.227
 20
9.1214
 30
0.0
 10
-23.227
 20
9.0071
 30
0.0
 10
-23.1786
 20
8.9163
 30
0.0
 10
-23.0822
 20
8.8481
 30
0.0
 10
-23.0822
 20
8.8481
 30
0.0
 10
-22.9594
 20
8.763
 30
0.0
 10
-22.7317
 20
8.7202
 30
0.0
 10
-22.4001
 20
8.7202
 30
0.0
  0
SPLINE
  5
87
330
1F
100
AcDbEntity
  8
DEFAULT_1
 62
   250
100
AcDbSpline
210
0.0
220
0.0
230
1.0
 70
    11
 71
     3
 72
    20
 73
    16
 74
     0
 42
0.0000000001
 43
0.0000000001
 40
0.0
 40
0.0
 40
0.0
 40
0.0
 40
0.2
 40
0.2
 40
0.2
 40
0.2
 40
0.4
 40
0.4
 40
0.4
 40
0.4
 40
0.6
 40
0.6
 40
0.6
 40
0.6
 40
1.0
 40
1.0
 40
1.0
 40
1.0
 10
-22.0102
 20
10.7912
 30
0.0
 10
-22.0102
 20
10.7912
 30
0.0
 10
-22.2595
 20
10.7912
 30
0.0
 10
-22.2595
 20
10.7912
 30
0.0
 10
-22.2595
 20
10.7912
 30
0.0
 10
-22.2595
 20
10.7912
 30
0.0
 10
-22.2595
 20
11.5536
 30
0.0
 10
-22.2595
 20
11.5536
 30
0.0
 10
-22.2595
 20
11.5536
 30
0.0
 10
-22.2595
 20
11.5536
 30
0.0
 10
-22.0102
 20
11.5536
 30
0.0
 10
-22.0102
 20
11.5536
 30
0.0
 10
-22.0102
 20
11.5536
 30
0.0
 10
-22.0102
 20
11.5536
 30
0.0
 10
-22.0102
 20
10.7912
 30
0.0
 10
-22.0102
 20
10.7912
 30
0.0
  0
SPLINE
  5
88
330
1F
100
AcDbEntity
  8
DEFAULT_1
 62
   250
100
AcDbSpline
210
0.0
220
0.0
230
1.0
 70
    11
 71
     3
 72
    40
 73
    36
 74
     0
 42
0.0000000001
 43
0.0000000001
 40
0.0
 40
0.0
 40
0.0
 40
0.0
 40
0.1
 40
0.1
 40
0.1
 40
0.1
 40
0.2
 40
0.2
 40
0.2
 40
0.2
 40
0.3
 40
0.3
 40
0.3
 40
0.3
 40
0.4
 40
0.4
 40
0.4
 40
0.4
 40
0.5
 40
0.5
 40
0.5
 40
0.5
 40
0.6
 40
0.6
 40
0.6
 40
0.6
 40
0.7
 40
0.7
 40
0.7
 40
0.7
 40
0.8
 40
0.8
 40
0.8
 40
0.8
 40
1.0
 40
1.0
 40
1.0
 40
1.0
 10
-21.4039
 20
13.477
 30
0.0
 10
-21.4039
 20
13.477
 30
0.0
 10
-21.4039
 20
13.2291
 30
0.0
 10
-21.4039
 20
13.2291
 30
0.0
 10
-21.4039
 20
13.2291
 30
0.0
 10
-21.4039
 20
13.2291
 30
0.0
 10
-22.9843
 20
13.2291
 30
0.0
 10
-22.9843
 20
13.2291
 30
0.0
 10
-22.9843
 20
13.2291
 30
0.0
 10
-22.9274
 20
13.1693
 30
0.0
 10
-22.8705
 20
13.0913
 30
0.0
 10
-22.8136
 20
12.9944
 30
0.0
 10
-22.8136
 20
12.9944
 30
0.0
 10
-22.7567
 20
12.897
 30
0.0
 10
-22.7139
 20
12.81
 30
0.0
 10
-22.6856
 20
12.7328
 30
0.0
 10
-22.6856
 20
12.7328
 30
0.0
 10
-22.6856
 20
12.7328
 30
0.0
 10
-22.9251
 20
12.7328
 30
0.0
 10
-22.9251
 20
12.7328
 30
0.0
 10
-22.9251
 20
12.7328
 30
0.0
 10
-22.9904
 20
12.8716
 30
0.0
 10
-23.0695
 20
12.993
 30
0.0
 10
-23.1621
 20
13.0969
 30
0.0
 10
-23.1621
 20
13.0969
 30
0.0
 10
-23.2553
 20
13.2004
 30
0.0
 10
-23.3451
 20
13.2742
 30
0.0
 10
-23.4326
 20
13.3175
 30
0.0
 10
-23.4326
 20
13.3175
 30
0.0
 10
-23.4326
 20
13.3175
 30
0.0
 10
-23.4326
 20
13.477
 30
0.0
 10
-23.4326
 20
13.477
 30
0.0
 10
-23.4326
 20
13.477
 30
0.0
 10
-23.4326
 20
13.477
 30
0.0
 10
-21.4039
 20
13.477
 30
0.0
 10
-21.4039
 20
13.477
 30
0.0
  0
SPLINE
  5
89
330
1F
100
AcDbEntity
  8
DEFAULT_1
 62
   250
100
AcDbSpline
210
0.0
220
0.0
230
1.0
 70
    11
 71
     3
 72
    68
 73
    64
 74
     0
 42
0.0000000001
 43
0.0000000001
 40
0.0
 40
0.0
 40
0.0
 40
0.0
 40
0.0588235294117647
 40
0.0588235294117647
 40
0.0588235294117647
 40
0.0588235294117647
 40
0.1176470588235294
 40
0.1176470588235294
 40
0.1176470588235294
 40
0.1176470588235294
 40
0.1764705882352941
 40
0.1764705882352941
 40
0.1764705882352941
 40
0.1764705882352941
 40
0.2352941176470588
 40
0.2352941176470588
 40
0.2352941176470588
 40
0.2352941176470588
 40
0.2941176470588235
 40
0.2941176470588235
 40
0.2941176470588235
 40
0.2941176470588235
 40
0.3529411764705883
 40
0.3529411764705883
 40
0.3529411764705883
 40
0.3529411764705883
 40
0.4117647058823529
 40
0.4117647058823529
 40
0.4117647058823529
 40
0.4117647058823529
 40
0.4705882352941176
 40
0.4705882352941176
 40
0.4705882352941176
 40
0.4705882352941176
 40
0.5294117647058824
 40
0.5294117647058824
 40
0.5294117647058824
 40
0.5294117647058824
 40
0.5882352941176471
 40
0.5882352941176471
 40
0.5882352941176471
 40
0.5882352941176471
 40
0.6470588235294118
 40
0.6470588235294118
 40
0.6470588235294118
 40
0.6470588235294118
 40
0.7058823529411765
 40
0.7058823529411765
 40
0.7058823529411765
 40
0.7058823529411765
 40
0.7647058823529411
 40
0.7647058823529411
 40
0.7647058823529411
 40
0.7647058823529411
 40
0.8235294117647058
 40
0.8235294117647058
 40
0.8235294117647058
 40
0.8235294117647058
 40
0.8823529411764706
 40
0.8823529411764706
 40
0.8823529411764706
 40
0.8823529411764706
 40
1.0
 40
1.0
 40
1.0
 40
1.0
 10
-22.4994
 20
14.4944
 30
0.0
 10
-22.537
 20
14.3913
 30
0.0
 10
-22.5906
 20
14.3151
 30
0.0
 10
-22.6607
 20
14.2653
 30
0.0
 10
-22.6607
 20
14.2653
 30
0.0
 10
-22.7303
 20
14.2159
 30
0.0
 10
-22.8141
 20
14.191
 30
0.0
 10
-22.9114
 20
14.191
 30
0.0
 10
-22.9114
 20
14.191
 30
0.0
 10
-23.0586
 20
14.191
 30
0.0
 10
-23.1819
 20
14.2437
 30
0.0
 10
-23.2821
 20
14.3495
 30
0.0
 10
-23.2821
 20
14.3495
 30
0.0
 10
-23.3823
 20
14.4553
 30
0.0
 10
-23.4326
 20
14.5955
 30
0.0
 10
-23.4326
 20
14.7709
 30
0.0
 10
-23.4326
 20
14.7709
 30
0.0
 10
-23.4326
 20
14.9473
 30
0.0
 10
-23.3813
 20
15.0894
 30
0.0
 10
-23.2788
 20
15.1971
 30
0.0
 10
-23.2788
 20
15.1971
 30
0.0
 10
-23.1762
 20
15.3043
 30
0.0
 10
-23.0516
 20
15.358
 30
0.0
 10
-22.9044
 20
15.358
 30
0.0
 10
-22.9044
 20
15.358
 30
0.0
 10
-22.8108
 20
15.358
 30
0.0
 10
-22.7294
 20
15.3335
 30
0.0
 10
-22.6598
 20
15.2846
 30
0.0
 10
-22.6598
 20
15.2846
 30
0.0
 10
-22.5906
 20
15.2352
 30
0.0
 10
-22.537
 20
15.1609
 30
0.0
 10
-22.4994
 20
15.0607
 30
0.0
 10
-22.4994
 20
15.0607
 30
0.0
 10
-22.4589
 20
15.1844
 30
0.0
 10
-22.394
 20
15.2789
 30
0.0
 10
-22.3037
 20
15.3438
 30
0.0
 10
-22.3037
 20
15.3438
 30
0.0
 10
-22.2139
 20
15.4083
 30
0.0
 10
-22.1062
 20
15.4407
 30
0.0
 10
-21.9815
 20
15.4407
 30
0.0
 10
-21.9815
 20
15.4407
 30
0.0
 10
-21.8084
 20
15.4407
 30
0.0
 10
-21.6635
 20
15.3796
 30
0.0
 10
-21.546
 20
15.2578
 30
0.0
 10
-21.546
 20
15.2578
 30
0.0
 10
-21.4284
 20
15.1355
 30
0.0
 10
-21.3696
 20
14.9746
 30
0.0
 10
-21.3696
 20
14.7752
 30
0.0
 10
-21.3696
 20
14.7752
 30
0.0
 10
-21.3696
 20
14.5757
 30
0.0
 10
-21.4284
 20
14.4153
 30
0.0
 10
-21.5464
 20
14.293
 30
0.0
 10
-21.5464
 20
14.293
 30
0.0
 10
-21.6645
 20
14.1707
 30
0.0
 10
-21.8117
 20
14.1096
 30
0.0
 10
-21.9881
 20
14.1096
 30
0.0
 10
-21.9881
 20
14.1096
 30
0.0
 10
-22.1193
 20
14.1096
 30
0.0
 10
-22.2294
 20
14.143
 30
0.0
 10
-22.3183
 20
14.2098
 30
0.0
 10
-22.3183
 20
14.2098
 30
0.0
 10
-22.4067
 20
14.2761
 30
0.0
 10
-22.4674
 20
14.3711
 30
0.0
 10
-22.4994
 20
14.4944
 30
0.0
  0
SPLINE
  5
8A
330
1F
100
AcDbEntity
  8
DEFAULT_1
 62
   250
100
AcDbSpline
210
0.0
220
0.0
230
1.0
 70
    11
 71
     3
 72
    36
 73
    32
 74
     0
 42
0.0000000001
 43
0.0000000001
 40
0.0
 40
0.0
 40
0.0
 40
0.0
 40
0.1111111111111111
 40
0.1111111111111111
 40
0.1111111111111111
 40
0.1111111111111111
 40
0.2222222222222222
 40
0.2222222222222222
 40
0.2222222222222222
 40
0.2222222222222222
 40
0.3333333333333333
 40
0.3333333333333333
 40
0.3333333333333333
 40
0.3333333333333333
 40
0.4444444444444444
 40
0.4444444444444444
 40
0.4444444444444444
 40
0.4444444444444444
 40
0.5555555555555556
 40
0.5555555555555556
 40
0.5555555555555556
 40
0.5555555555555556
 40
0.6666666666666666
 40
0.6666666666666666
 40
0.6666666666666666
 40
0.6666666666666666
 40
0.7777777777777778
 40
0.7777777777777778
 40
0.7777777777777778
 40
0.7777777777777778
 40
1.0
 40
1.0
 40
1.0
 40
1.0
 10
-22.9199
 20
14.4445
 30
0.0
 10
-22.8244
 20
14.4445
 30
0.0
 10
-22.7463
 20
14.4755
 30
0.0
 10
-22.6856
 20
14.5367
 30
0.0
 10
-22.6856
 20
14.5367
 30
0.0
 10
-22.625
 20
14.5983
 30
0.0
 10
-22.5944
 20
14.6783
 30
0.0
 10
-22.5944
 20
14.7766
 30
0.0
 10
-22.5944
 20
14.7766
 30
0.0
 10
-22.5944
 20
14.8721
 30
0.0
 10
-22.6245
 20
14.9506
 30
0.0
 10
-22.6847
 20
15.0118
 30
0.0
 10
-22.6847
 20
15.0118
 30
0.0
 10
-22.7449
 20
15.0729
 30
0.0
 10
-22.8188
 20
15.103
 30
0.0
 10
-22.9058
 20
15.103
 30
0.0
 10
-22.9058
 20
15.103
 30
0.0
 10
-22.997
 20
15.103
 30
0.0
 10
-23.0732
 20
15.072
 30
0.0
 10
-23.1353
 20
15.0089
 30
0.0
 10
-23.1353
 20
15.0089
 30
0.0
 10
-23.1974
 20
14.9459
 30
0.0
 10
-23.2285
 20
14.8678
 30
0.0
 10
-23.2285
 20
14.7738
 30
0.0
 10
-23.2285
 20
14.7738
 30
0.0
 10
-23.2285
 20
14.6792
 30
0.0
 10
-23.1979
 20
14.6007
 30
0.0
 10
-23.1377
 20
14.5381
 30
0.0
 10
-23.1377
 20
14.5381
 30
0.0
 10
-23.077
 20
14.4755
 30
0.0
 10
-23.0041
 20
14.4445
 30
0.0
 10
-22.9199
 20
14.4445
 30
0.0
  0
SPLINE
  5
8B
330
1F
100
AcDbEntity
  8
DEFAULT_1
 62
   250
100
AcDbSpline
210
0.0
220
0.0
230
1.0
 70
    11
 71
     3
 72
    40
 73
    36
 74
     0
 42
0.0000000001
 43
0.0000000001
 40
0.0
 40
0.0
 40
0.0
 40
0.0
 40
0.1
 40
0.1
 40
0.1
 40
0.1
 40
0.2
 40
0.2
 40
0.2
 40
0.2
 40
0.3
 40
0.3
 40
0.3
 40
0.3
 40
0.4
 40
0.4
 40
0.4
 40
0.4
 40
0.5
 40
0.5
 40
0.5
 40
0.5
 40
0.6
 40
0.6
 40
0.6
 40
0.6
 40
0.7
 40
0.7
 40
0.7
 40
0.7
 40
0.8
 40
0.8
 40
0.8
 40
0.8
 40
1.0
 40
1.0
 40
1.0
 40
1.0
 10
-21.9867
 20
14.3645
 30
0.0
 10
-21.9161
 20
14.3645
 30
0.0
 10
-21.8475
 20
14.3815
 30
0.0
 10
-21.7816
 20
14.4149
 30
0.0
 10
-21.7816
 20
14.4149
 30
0.0
 10
-21.7153
 20
14.4483
 30
0.0
 10
-21.664
 20
14.4981
 30
0.0
 10
-21.6278
 20
14.5644
 30
0.0
 10
-21.6278
 20
14.5644
 30
0.0
 10
-21.5916
 20
14.6308
 30
0.0
 10
-21.5732
 20
14.7018
 30
0.0
 10
-21.5732
 20
14.778
 30
0.0
 10
-21.5732
 20
14.778
 30
0.0
 10
-21.5732
 20
14.8965
 30
0.0
 10
-21.6113
 20
14.9944
 30
0.0
 10
-21.688
 20
15.0715
 30
0.0
 10
-21.688
 20
15.0715
 30
0.0
 10
-21.7642
 20
15.1486
 30
0.0
 10
-21.8611
 20
15.1872
 30
0.0
 10
-21.9787
 20
15.1872
 30
0.0
 10
-21.9787
 20
15.1872
 30
0.0
 10
-22.0982
 20
15.1872
 30
0.0
 10
-22.1969
 20
15.1477
 30
0.0
 10
-22.275
 20
15.0682
 30
0.0
 10
-22.275
 20
15.0682
 30
0.0
 10
-22.3531
 20
14.9887
 30
0.0
 10
-22.3921
 20
14.889
 30
0.0
 10
-22.3921
 20
14.7695
 30
0.0
 10
-22.3921
 20
14.7695
 30
0.0
 10
-22.3921
 20
14.6529
 30
0.0
 10
-22.3536
 20
14.5564
 30
0.0
 10
-22.2764
 20
14.4798
 30
0.0
 10
-22.2764
 20
14.4798
 30
0.0
 10
-22.1988
 20
14.4031
 30
0.0
 10
-22.1024
 20
14.3645
 30
0.0
 10
-21.9867
 20
14.3645
 30
0.0
  0
SPLINE
  5
8C
330
1F
100
AcDbEntity
  8
DEFAULT_1
 62
   250
100
AcDbSpline
210
0.0
220
0.0
230
1.0
 70
    11
 71
     3
 72
    52
 73
    48
 74
     0
 42
0.0000000001
 43
0.0000000001
 40
0.0
 40
0.0
 40
0.0
 40
0.0
 40
0.0769230769230769
 40
0.0769230769230769
 40
0.0769230769230769
 40
0.0769230769230769
 40
0.1538461538461539
 40
0.1538461538461539
 40
0.1538461538461539
 40
0.1538461538461539
 40
0.2307692307692308
 40
0.2307692307692308
 40
0.2307692307692308
 40
0.2307692307692308
 40
0.3076923076923077
 40
0.3076923076923077
 40
0.3076923076923077
 40
0.3076923076923077
 40
0.3846153846153846
 40
0.3846153846153846
 40
0.3846153846153846
 40
0.3846153846153846
 40
0.4615384615384616
 40
0.4615384615384616
 40
0.4615384615384616
 40
0.4615384615384616
 40
0.5384615384615384
 40
0.5384615384615384
 40
0.5384615384615384
 40
0.5384615384615384
 40
0.6153846153846154
 40
0.6153846153846154
 40
0.6153846153846154
 40
0.6153846153846154
 40
0.6923076923076923
 40
0.6923076923076923
 40
0.6923076923076923
 40
0.6923076923076923
 40
0.7692307692307693
 40
0.7692307692307693
 40
0.7692307692307693
 40
0.7692307692307693
 40
0.8461538461538461
 40
0.8461538461538461
 40
0.8461538461538461
 40
0.8461538461538461
 40
1.0
 40
1.0
 40
1.0
 40
1.0
 10
-22.4001
 20
15.682
 30
0.0
 10
-22.6391
 20
15.682
 30
0.0
 10
-22.8315
 20
15.7065
 30
0.0
 10
-22.9768
 20
15.7559
 30
0.0
 10
-22.9768
 20
15.7559
 30
0.0
 10
-23.1226
 20
15.8048
 30
0.0
 10
-23.235
 20
15.8782
 30
0.0
 10
-23.3141
 20
15.9751
 30
0.0
 10
-23.3141
 20
15.9751
 30
0.0
 10
-23.3931
 20
16.072
 30
0.0
 10
-23.4326
 20
16.1938
 30
0.0
 10
-23.4326
 20
16.3405
 30
0.0
 10
-23.4326
 20
16.3405
 30
0.0
 10
-23.4326
 20
16.4492
 30
0.0
 10
-23.4105
 20
16.5442
 30
0.0
 10
-23.3667
 20
16.626
 30
0.0
 10
-23.3667
 20
16.626
 30
0.0
 10
-23.3235
 20
16.7079
 30
0.0
 10
-23.2604
 20
16.7752
 30
0.0
 10
-23.1781
 20
16.8288
 30
0.0
 10
-23.1781
 20
16.8288
 30
0.0
 10
-23.0958
 20
16.8819
 30
0.0
 10
-22.9956
 20
16.9238
 30
0.0
 10
-22.8776
 20
16.9539
 30
0.0
 10
-22.8776
 20
16.9539
 30
0.0
 10
-22.7595
 20
16.9845
 30
0.0
 10
-22.6005
 20
16.9995
 30
0.0
 10
-22.4001
 20
16.9995
 30
0.0
 10
-22.4001
 20
16.9995
 30
0.0
 10
-22.1631
 20
16.9995
 30
0.0
 10
-21.9721
 20
16.9751
 30
0.0
 10
-21.8263
 20
16.9266
 30
0.0
 10
-21.8263
 20
16.9266
 30
0.0
 10
-21.6805
 20
16.8777
 30
0.0
 10
-21.5681
 20
16.8048
 30
0.0
 10
-21.4886
 20
16.7079
 30
0.0
 10
-21.4886
 20
16.7079
 30
0.0
 10
-21.4091
 20
16.611
 30
0.0
 10
-21.3696
 20
16.4887
 30
0.0
 10
-21.3696
 20
16.3405
 30
0.0
 10
-21.3696
 20
16.3405
 30
0.0
 10
-21.3696
 20
16.1458
 30
0.0
 10
-21.4392
 20
15.9929
 30
0.0
 10
-21.5789
 20
15.8819
 30
0.0
 10
-21.5789
 20
15.8819
 30
0.0
 10
-21.7468
 20
15.7488
 30
0.0
 10
-22.021
 20
15.682
 30
0.0
 10
-22.4001
 20
15.682
 30
0.0
  0
SPLINE
  5
8D
330
1F
100
AcDbEntity
  8
DEFAULT_1
 62
   250
100
AcDbSpline
210
0.0
220
0.0
230
1.0
 70
    11
 71
     3
 72
    36
 73
    32
 74
     0
 42
0.0000000001
 43
0.0000000001
 40
0.0
 40
0.0
 40
0.0
 40
0.0
 40
0.1111111111111111
 40
0.1111111111111111
 40
0.1111111111111111
 40
0.1111111111111111
 40
0.2222222222222222
 40
0.2222222222222222
 40
0.2222222222222222
 40
0.2222222222222222
 40
0.3333333333333333
 40
0.3333333333333333
 40
0.3333333333333333
 40
0.3333333333333333
 40
0.4444444444444444
 40
0.4444444444444444
 40
0.4444444444444444
 40
0.4444444444444444
 40
0.5555555555555556
 40
0.5555555555555556
 40
0.5555555555555556
 40
0.5555555555555556
 40
0.6666666666666666
 40
0.6666666666666666
 40
0.6666666666666666
 40
0.6666666666666666
 40
0.7777777777777778
 40
0.7777777777777778
 40
0.7777777777777778
 40
0.7777777777777778
 40
1.0
 40
1.0
 40
1.0
 40
1.0
 10
-22.4001
 20
15.937
 30
0.0
 10
-22.0685
 20
15.937
 30
0.0
 10
-21.8479
 20
15.976
 30
0.0
 10
-21.7379
 20
16.0536
 30
0.0
 10
-21.7379
 20
16.0536
 30
0.0
 10
-21.6283
 20
16.1312
 30
0.0
 10
-21.5732
 20
16.2267
 30
0.0
 10
-21.5732
 20
16.3405
 30
0.0
 10
-21.5732
 20
16.3405
 30
0.0
 10
-21.5732
 20
16.4548
 30
0.0
 10
-21.6287
 20
16.5503
 30
0.0
 10
-21.7388
 20
16.6279
 30
0.0
 10
-21.7388
 20
16.6279
 30
0.0
 10
-21.8489
 20
16.7055
 30
0.0
 10
-22.0695
 20
16.7446
 30
0.0
 10
-22.4001
 20
16.7446
 30
0.0
 10
-22.4001
 20
16.7446
 30
0.0
 10
-22.7327
 20
16.7446
 30
0.0
 10
-22.9538
 20
16.7055
 30
0.0
 10
-23.0629
 20
16.6279
 30
0.0
 10
-23.0629
 20
16.6279
 30
0.0
 10
-23.1725
 20
16.5503
 30
0.0
 10
-23.227
 20
16.4539
 30
0.0
 10
-23.227
 20
16.3382
 30
0.0
 10
-23.227
 20
16.3382
 30
0.0
 10
-23.227
 20
16.2239
 30
0.0
 10
-23.1786
 20
16.1331
 30
0.0
 10
-23.0822
 20
16.0649
 30
0.0
 10
-23.0822
 20
16.0649
 30
0.0
 10
-22.9594
 20
15.9798
 30
0.0
 10
-22.7317
 20
15.937
 30
0.0
 10
-22.4001
 20
15.937
 30
0.0
  0
SPLINE
  5
8E
330
1F
100
AcDbEntity
  8
DEFAULT_1
 62
   250
100
AcDbSpline
210
0.0
220
0.0
230
1.0
 70
    11
 71
     3
 72
    20
 73
    16
 74
     0
 42
0.0000000001
 43
0.0000000001
 40
0.0
 40
0.0
 40
0.0
 40
0.0
 40
0.2
 40
0.2
 40
0.2
 40
0.2
 40
0.4
 40
0.4
 40
0.4
 40
0.4
 40
0.6
 40
0.6
 40
0.6
 40
0.6
 40
1.0
 40
1.0
 40
1.0
 40
1.0
 10
-20.9673
 20
27.7515
 30
0.0
 10
-20.9673
 20
27.7515
 30
0.0
 10
-20.544
 20
30.7514
 30
0.0
 10
-20.544
 20
30.7514
 30
0.0
 10
-20.544
 20
30.7514
 30
0.0
 10
-20.544
 20
30.7514
 30
0.0
 10
-20.4499
 20
30.7514
 30
0.0
 10
-20.4499
 20
30.7514
 30
0.0
 10
-20.4499
 20
30.7514
 30
0.0
 10
-20.4499
 20
30.7514
 30
0.0
 10
-19.9984
 20
27.7515
 30
0.0
 10
-19.9984
 20
27.7515
 30
0.0
 10
-19.9984
 20
27.7515
 30
0.0
 10
-19.9984
 20
27.7515
 30
0.0
 10
-20.9673
 20
27.7515
 30
0.0
 10
-20.9673
 20
27.7515
 30
0.0
  0
SPLINE
  5
8F
330
1F
100
AcDbEntity
  8
DEFAULT_1
 62
   250
100
AcDbSpline
210
0.0
220
0.0
230
1.0
 70
    11
 71
     3
 72
    20
 73
    16
 74
     0
 42
0.0000000001
 43
0.0000000001
 40
0.0
 40
0.0
 40
0.0
 40
0.0
 40
0.2
 40
0.2
 40
0.2
 40
0.2
 40
0.4
 40
0.4
 40
0.4
 40
0.4
 40
0.6
 40
0.6
 40
0.6
 40
0.6
 40
1.0
 40
1.0
 40
1.0
 40
1.0
 10
18.3551
 20
-9.6063
 30
0.0
 10
18.3551
 20
-9.6063
 30
0.0
 10
17.9317
 20
-12.6062
 30
0.0
 10
17.9317
 20
-12.6062
 30
0.0
 10
17.9317
 20
-12.6062
 30
0.0
 10
17.9317
 20
-12.6062
 30
0.0
 10
17.8377
 20
-12.6062
 30
0.0
 10
17.8377
 20
-12.6062
 30
0.0
 10
17.8377
 20
-12.6062
 30
0.0
 10
17.8377
 20
-12.6062
 30
0.0
 10
17.3862
 20
-9.6063
 30
0.0
 10
17.3862
 20
-9.6063
 30
0.0
 10
17.3862
 20
-9.6063
 30
0.0
 10
17.3862
 20
-9.6063
 30
0.0
 10
18.3551
 20
-9.6063
 30
0.0
 10
18.3551
 20
-9.6063
 30
0.0
  0
SPLINE
  5
90
330
1F
100
AcDbEntity
  8
DEFAULT_1
 62
   250
100
AcDbSpline
210
0.0
220
0.0
230
1.0
 70
    11
 71
     3
 72
    84
 73
    80
 74
     0
 42
0.0000000001
 43
0.0000000001
 40
0.0
 40
0.0
 40
0.0
 40
0.0
 40
0.0476190476190476
 40
0.0476190476190476
 40
0.0476190476190476
 40
0.0476190476190476
 40
0.0952380952380952
 40
0.0952380952380952
 40
0.0952380952380952
 40
0.0952380952380952
 40
0.1428571428571428
 40
0.1428571428571428
 40
0.1428571428571428
 40
0.1428571428571428
 40
0.1904761904761905
 40
0.1904761904761905
 40
0.1904761904761905
 40
0.1904761904761905
 40
0.2380952380952381
 40
0.2380952380952381
 40
0.2380952380952381
 40
0.2380952380952381
 40
0.2857142857142857
 40
0.2857142857142857
 40
0.2857142857142857
 40
0.2857142857142857
 40
0.3333333333333333
 40
0.3333333333333333
 40
0.3333333333333333
 40
0.3333333333333333
 40
0.3809523809523809
 40
0.3809523809523809
 40
0.3809523809523809
 40
0.3809523809523809
 40
0.4285714285714285
 40
0.4285714285714285
 40
0.4285714285714285
 40
0.4285714285714285
 40
0.4761904761904762
 40
0.4761904761904762
 40
0.4761904761904762
 40
0.4761904761904762
 40
0.5238095238095238
 40
0.5238095238095238
 40
0.5238095238095238
 40
0.5238095238095238
 40
0.5714285714285714
 40
0.5714285714285714
 40
0.5714285714285714
 40
0.5714285714285714
 40
0.6190476190476191
 40
0.6190476190476191
 40
0.6190476190476191
 40
0.6190476190476191
 40
0.6666666666666666
 40
0.6666666666666666
 40
0.6666666666666666
 40
0.6666666666666666
 40
0.7142857142857143
 40
0.7142857142857143
 40
0.7142857142857143
 40
0.7142857142857143
 40
0.7619047619047619
 40
0.7619047619047619
 40
0.7619047619047619
 40
0.7619047619047619
 40
0.8095238095238095
 40
0.8095238095238095
 40
0.8095238095238095
 40
0.8095238095238095
 40
0.8571428571428571
 40
0.8571428571428571
 40
0.8571428571428571
 40
0.8571428571428571
 40
0.9047619047619048
 40
0.9047619047619048
 40
0.9047619047619048
 40
0.9047619047619048
 40
1.0
 40
1.0
 40
1.0
 40
1.0
 10
20.4643
 20
-8.4696
 30
0.0
 10
20.4643
 20
-8.4696
 30
0.0
 10
20.2052
 20
-8.2382
 30
0.0
 10
20.2052
 20
-8.2382
 30
0.0
 10
20.2052
 20
-8.2382
 30
0.0
 10
20.2052
 20
-8.2382
 30
0.0
 10
20.3209
 20
-8.1018
 30
0.0
 10
20.3209
 20
-8.1018
 30
0.0
 10
20.3209
 20
-8.1018
 30
0.0
 10
20.3209
 20
-8.1018
 30
0.0
 10
20.5937
 20
-8.344
 30
0.0
 10
20.5937
 20
-8.344
 30
0.0
 10
20.5937
 20
-8.344
 30
0.0
 10
20.7113
 20
-8.265
 30
0.0
 10
20.8143
 20
-8.2119
 30
0.0
 10
20.9022
 20
-8.1841
 30
0.0
 10
20.9022
 20
-8.1841
 30
0.0
 10
21.018
 20
-8.1474
 30
0.0
 10
21.1478
 20
-8.1291
 30
0.0
 10
21.2908
 20
-8.1291
 30
0.0
 10
21.2908
 20
-8.1291
 30
0.0
 10
21.4977
 20
-8.1291
 30
0.0
 10
21.6821
 20
-8.1709
 30
0.0
 10
21.8434
 20
-8.2547
 30
0.0
 10
21.8434
 20
-8.2547
 30
0.0
 10
22.0053
 20
-8.3384
 30
0.0
 10
22.1275
 20
-8.4555
 30
0.0
 10
22.2103
 20
-8.6065
 30
0.0
 10
22.2103
 20
-8.6065
 30
0.0
 10
22.2926
 20
-8.758
 30
0.0
 10
22.334
 20
-8.9183
 30
0.0
 10
22.334
 20
-9.0881
 30
0.0
 10
22.334
 20
-9.0881
 30
0.0
 10
22.334
 20
-9.2151
 30
0.0
 10
22.3162
 20
-9.3299
 30
0.0
 10
22.2804
 20
-9.4329
 30
0.0
 10
22.2804
 20
-9.4329
 30
0.0
 10
22.2527
 20
-9.5119
 30
0.0
 10
22.2
 20
-9.6041
 30
0.0
 10
22.1219
 20
-9.71
 30
0.0
 10
22.1219
 20
-9.71
 30
0.0
 10
22.1219
 20
-9.71
 30
0.0
 10
22.3811
 20
-9.9414
 30
0.0
 10
22.3811
 20
-9.9414
 30
0.0
 10
22.3811
 20
-9.9414
 30
0.0
 10
22.3811
 20
-9.9414
 30
0.0
 10
22.2654
 20
-10.0778
 30
0.0
 10
22.2654
 20
-10.0778
 30
0.0
 10
22.2654
 20
-10.0778
 30
0.0
 10
22.2654
 20
-10.0778
 30
0.0
 10
21.994
 20
-9.8351
 30
0.0
 10
21.994
 20
-9.8351
 30
0.0
 10
21.994
 20
-9.8351
 30
0.0
 10
21.8571
 20
-9.9254
 30
0.0
 10
21.74
 20
-9.9856
 30
0.0
 10
21.6431
 20
-10.0157
 30
0.0
 10
21.6431
 20
-10.0157
 30
0.0
 10
21.5462
 20
-10.0458
 30
0.0
 10
21.4295
 20
-10.0613
 30
0.0
 10
21.2936
 20
-10.0613
 30
0.0
 10
21.2936
 20
-10.0613
 30
0.0
 10
21.0862
 20
-10.0613
 30
0.0
 10
20.9013
 20
-10.0199
 30
0.0
 10
20.739
 20
-9.9372
 30
0.0
 10
20.739
 20
-9.9372
 30
0.0
 10
20.5767
 20
-9.8544
 30
0.0
 10
20.454
 20
-9.7387
 30
0.0
 10
20.3703
 20
-9.5891
 30
0.0
 10
20.3703
 20
-9.5891
 30
0.0
 10
20.287
 20
-9.44
 30
0.0
 10
20.2451
 20
-9.2739
 30
0.0
 10
20.2451
 20
-9.091
 30
0.0
 10
20.2451
 20
-9.091
 30
0.0
 10
20.2451
 20
-8.9677
 30
0.0
 10
20.2611
 20
-8.86
 30
0.0
 10
20.2941
 20
-8.7678
 30
0.0
 10
20.2941
 20
-8.7678
 30
0.0
 10
20.3265
 20
-8.6756
 30
0.0
 10
20.3834
 20
-8.5759
 30
0.0
 10
20.4643
 20
-8.4696
 30
0.0
  0
SPLINE
  5
91
330
1F
100
AcDbEntity
  8
DEFAULT_1
 62
   250
100
AcDbSpline
210
0.0
220
0.0
230
1.0
 70
    11
 71
     3
 72
    32
 73
    28
 74
     0
 42
0.0000000001
 43
0.0000000001
 40
0.0
 40
0.0
 40
0.0
 40
0.0
 40
0.125
 40
0.125
 40
0.125
 40
0.125
 40
0.25
 40
0.25
 40
0.25
 40
0.25
 40
0.375
 40
0.375
 40
0.375
 40
0.375
 40
0.5
 40
0.5
 40
0.5
 40
0.5
 40
0.625
 40
0.625
 40
0.625
 40
0.625
 40
0.75
 40
0.75
 40
0.75
 40
0.75
 40
1.0
 40
1.0
 40
1.0
 40
1.0
 10
20.6501
 20
-8.6347
 30
0.0
 10
20.5824
 20
-8.7213
 30
0.0
 10
20.5358
 20
-8.797
 30
0.0
 10
20.5109
 20
-8.8614
 30
0.0
 10
20.5109
 20
-8.8614
 30
0.0
 10
20.4864
 20
-8.9263
 30
0.0
 10
20.4737
 20
-9.0025
 30
0.0
 10
20.4737
 20
-9.0896
 30
0.0
 10
20.4737
 20
-9.0896
 30
0.0
 10
20.4737
 20
-9.2909
 30
0.0
 10
20.5419
 20
-9.4569
 30
0.0
 10
20.6783
 20
-9.5886
 30
0.0
 10
20.6783
 20
-9.5886
 30
0.0
 10
20.8148
 20
-9.7199
 30
0.0
 10
21.0184
 20
-9.7857
 30
0.0
 10
21.2898
 20
-9.7857
 30
0.0
 10
21.2898
 20
-9.7857
 30
0.0
 10
21.3961
 20
-9.7857
 30
0.0
 10
21.4907
 20
-9.7754
 30
0.0
 10
21.5735
 20
-9.7551
 30
0.0
 10
21.5735
 20
-9.7551
 30
0.0
 10
21.6351
 20
-9.7405
 30
0.0
 10
21.7108
 20
-9.71
 30
0.0
 10
21.8006
 20
-9.6629
 30
0.0
 10
21.8006
 20
-9.6629
 30
0.0
 10
21.8006
 20
-9.6629
 30
0.0
 10
20.6501
 20
-8.6347
 30
0.0
 10
20.6501
 20
-8.6347
 30
0.0
  0
SPLINE
  5
92
330
1F
100
AcDbEntity
  8
DEFAULT_1
 62
   250
100
AcDbSpline
210
0.0
220
0.0
230
1.0
 70
    11
 71
     3
 72
    28
 73
    24
 74
     0
 42
0.0000000001
 43
0.0000000001
 40
0.0
 40
0.0
 40
0.0
 40
0.0
 40
0.1428571428571428
 40
0.1428571428571428
 40
0.1428571428571428
 40
0.1428571428571428
 40
0.2857142857142857
 40
0.2857142857142857
 40
0.2857142857142857
 40
0.2857142857142857
 40
0.4285714285714285
 40
0.4285714285714285
 40
0.4285714285714285
 40
0.4285714285714285
 40
0.5714285714285714
 40
0.5714285714285714
 40
0.5714285714285714
 40
0.5714285714285714
 40
0.7142857142857143
 40
0.7142857142857143
 40
0.7142857142857143
 40
0.7142857142857143
 40
1.0
 40
1.0
 40
1.0
 40
1.0
 10
20.7922
 20
-8.5218
 30
0.0
 10
20.7922
 20
-8.5218
 30
0.0
 10
21.9385
 20
-9.5458
 30
0.0
 10
21.9385
 20
-9.5458
 30
0.0
 10
21.9385
 20
-9.5458
 30
0.0
 10
21.9963
 20
-9.4753
 30
0.0
 10
22.0368
 20
-9.4099
 30
0.0
 10
22.0598
 20
-9.3501
 30
0.0
 10
22.0598
 20
-9.3501
 30
0.0
 10
22.0904
 20
-9.2721
 30
0.0
 10
22.1054
 20
-9.1874
 30
0.0
 10
22.1054
 20
-9.0966
 30
0.0
 10
22.1054
 20
-9.0966
 30
0.0
 10
22.1054
 20
-8.8962
 30
0.0
 10
22.0349
 20
-8.7311
 30
0.0
 10
21.8933
 20
-8.6004
 30
0.0
 10
21.8933
 20
-8.6004
 30
0.0
 10
21.7517
 20
-8.4701
 30
0.0
 10
21.5532
 20
-8.4047
 30
0.0
 10
21.2978
 20
-8.4047
 30
0.0
 10
21.2978
 20
-8.4047
 30
0.0
 10
21.1069
 20
-8.4047
 30
0.0
 10
20.938
 20
-8.4437
 30
0.0
 10
20.7922
 20
-8.5218
 30
0.0
  0
SPLINE
  5
93
330
1F
100
AcDbEntity
  8
DEFAULT_1
 62
   250
100
AcDbSpline
210
0.0
220
0.0
230
1.0
 70
    11
 71
     3
 72
    92
 73
    88
 74
     0
 42
0.0000000001
 43
0.0000000001
 40
0.0
 40
0.0
 40
0.0
 40
0.0
 40
0.0434782608695652
 40
0.0434782608695652
 40
0.0434782608695652
 40
0.0434782608695652
 40
0.0869565217391304
 40
0.0869565217391304
 40
0.0869565217391304
 40
0.0869565217391304
 40
0.1304347826086956
 40
0.1304347826086956
 40
0.1304347826086956
 40
0.1304347826086956
 40
0.1739130434782609
 40
0.1739130434782609
 40
0.1739130434782609
 40
0.1739130434782609
 40
0.2173913043478261
 40
0.2173913043478261
 40
0.2173913043478261
 40
0.2173913043478261
 40
0.2608695652173913
 40
0.2608695652173913
 40
0.2608695652173913
 40
0.2608695652173913
 40
0.3043478260869565
 40
0.3043478260869565
 40
0.3043478260869565
 40
0.3043478260869565
 40
0.3478260869565217
 40
0.3478260869565217
 40
0.3478260869565217
 40
0.3478260869565217
 40
0.391304347826087
 40
0.391304347826087
 40
0.391304347826087
 40
0.391304347826087
 40
0.4347826086956522
 40
0.4347826086956522
 40
0.4347826086956522
 40
0.4347826086956522
 40
0.4782608695652174
 40
0.4782608695652174
 40
0.4782608695652174
 40
0.4782608695652174
 40
0.5217391304347826
 40
0.5217391304347826
 40
0.5217391304347826
 40
0.5217391304347826
 40
0.5652173913043478
 40
0.5652173913043478
 40
0.5652173913043478
 40
0.5652173913043478
 40
0.6086956521739131
 40
0.6086956521739131
 40
0.6086956521739131
 40
0.6086956521739131
 40
0.6521739130434783
 40
0.6521739130434783
 40
0.6521739130434783
 40
0.6521739130434783
 40
0.6956521739130435
 40
0.6956521739130435
 40
0.6956521739130435
 40
0.6956521739130435
 40
0.7391304347826086
 40
0.7391304347826086
 40
0.7391304347826086
 40
0.7391304347826086
 40
0.782608695652174
 40
0.782608695652174
 40
0.782608695652174
 40
0.782608695652174
 40
0.8260869565217391
 40
0.8260869565217391
 40
0.8260869565217391
 40
0.8260869565217391
 40
0.8695652173913043
 40
0.8695652173913043
 40
0.8695652173913043
 40
0.8695652173913043
 40
0.9130434782608695
 40
0.9130434782608695
 40
0.9130434782608695
 40
0.9130434782608695
 40
1.0
 40
1.0
 40
1.0
 40
1.0
 10
21.7705
 20
-7.8798
 30
0.0
 10
21.7705
 20
-7.8798
 30
0.0
 10
21.7484
 20
-7.6192
 30
0.0
 10
21.7484
 20
-7.6192
 30
0.0
 10
21.7484
 20
-7.6192
 30
0.0
 10
21.8754
 20
-7.5999
 30
0.0
 10
21.9704
 20
-7.5552
 30
0.0
 10
22.0344
 20
-7.4851
 30
0.0
 10
22.0344
 20
-7.4851
 30
0.0
 10
22.0984
 20
-7.4146
 30
0.0
 10
22.1304
 20
-7.3299
 30
0.0
 10
22.1304
 20
-7.2307
 30
0.0
 10
22.1304
 20
-7.2307
 30
0.0
 10
22.1304
 20
-7.1112
 30
0.0
 10
22.0852
 20
-7.0101
 30
0.0
 10
21.9954
 20
-6.9278
 30
0.0
 10
21.9954
 20
-6.9278
 30
0.0
 10
21.9051
 20
-6.845
 30
0.0
 10
21.7856
 20
-6.8036
 30
0.0
 10
21.637
 20
-6.8036
 30
0.0
 10
21.637
 20
-6.8036
 30
0.0
 10
21.4954
 20
-6.8036
 30
0.0
 10
21.3839
 20
-6.8431
 30
0.0
 10
21.3021
 20
-6.9226
 30
0.0
 10
21.3021
 20
-6.9226
 30
0.0
 10
21.2202
 20
-7.0021
 30
0.0
 10
21.1793
 20
-7.106
 30
0.0
 10
21.1793
 20
-7.2349
 30
0.0
 10
21.1793
 20
-7.2349
 30
0.0
 10
21.1793
 20
-7.3149
 30
0.0
 10
21.1976
 20
-7.3868
 30
0.0
 10
21.2338
 20
-7.4513
 30
0.0
 10
21.2338
 20
-7.4513
 30
0.0
 10
21.2701
 20
-7.5157
 30
0.0
 10
21.3171
 20
-7.566
 30
0.0
 10
21.375
 20
-7.6027
 30
0.0
 10
21.375
 20
-7.6027
 30
0.0
 10
21.375
 20
-7.6027
 30
0.0
 10
21.3449
 20
-7.8356
 30
0.0
 10
21.3449
 20
-7.8356
 30
0.0
 10
21.3449
 20
-7.8356
 30
0.0
 10
21.3449
 20
-7.8356
 30
0.0
 10
20.3072
 20
-7.6399
 30
0.0
 10
20.3072
 20
-7.6399
 30
0.0
 10
20.3072
 20
-7.6399
 30
0.0
 10
20.3072
 20
-7.6399
 30
0.0
 10
20.3072
 20
-6.6352
 30
0.0
 10
20.3072
 20
-6.6352
 30
0.0
 10
20.3072
 20
-6.6352
 30
0.0
 10
20.3072
 20
-6.6352
 30
0.0
 10
20.5443
 20
-6.6352
 30
0.0
 10
20.5443
 20
-6.6352
 30
0.0
 10
20.5443
 20
-6.6352
 30
0.0
 10
20.5443
 20
-6.6352
 30
0.0
 10
20.5443
 20
-7.4414
 30
0.0
 10
20.5443
 20
-7.4414
 30
0.0
 10
20.5443
 20
-7.4414
 30
0.0
 10
20.5443
 20
-7.4414
 30
0.0
 10
21.0871
 20
-7.5505
 30
0.0
 10
21.0871
 20
-7.5505
 30
0.0
 10
21.0871
 20
-7.5505
 30
0.0
 10
21.0024
 20
-7.4292
 30
0.0
 10
20.9601
 20
-7.3017
 30
0.0
 10
20.9601
 20
-7.1686
 30
0.0
 10
20.9601
 20
-7.1686
 30
0.0
 10
20.9601
 20
-6.9922
 30
0.0
 10
21.0212
 20
-6.8436
 30
0.0
 10
21.1435
 20
-6.7222
 30
0.0
 10
21.1435
 20
-6.7222
 30
0.0
 10
21.2658
 20
-6.6009
 30
0.0
 10
21.4229
 20
-6.5402
 30
0.0
 10
21.6148
 20
-6.5402
 30
0.0
 10
21.6148
 20
-6.5402
 30
0.0
 10
21.7978
 20
-6.5402
 30
0.0
 10
21.9559
 20
-6.5938
 30
0.0
 10
22.089
 20
-6.7001
 30
0.0
 10
22.089
 20
-6.7001
 30
0.0
 10
22.2522
 20
-6.8299
 30
0.0
 10
22.334
 20
-7.0068
 30
0.0
 10
22.334
 20
-7.2307
 30
0.0
 10
22.334
 20
-7.2307
 30
0.0
 10
22.334
 20
-7.4146
 30
0.0
 10
22.2828
 20
-7.5646
 30
0.0
 10
22.1798
 20
-7.6808
 30
0.0
 10
22.1798
 20
-7.6808
 30
0.0
 10
22.0767
 20
-7.797
 30
0.0
 10
21.9403
 20
-7.8633
 30
0.0
 10
21.7705
 20
-7.8798
 30
0.0
  0
SPLINE
  5
94
330
1F
100
AcDbEntity
  8
DEFAULT_1
 62
   250
100
AcDbSpline
210
0.0
220
0.0
230
1.0
 70
    11
 71
     3
 72
    52
 73
    48
 74
     0
 42
0.0000000001
 43
0.0000000001
 40
0.0
 40
0.0
 40
0.0
 40
0.0
 40
0.0769230769230769
 40
0.0769230769230769
 40
0.0769230769230769
 40
0.0769230769230769
 40
0.1538461538461539
 40
0.1538461538461539
 40
0.1538461538461539
 40
0.1538461538461539
 40
0.2307692307692308
 40
0.2307692307692308
 40
0.2307692307692308
 40
0.2307692307692308
 40
0.3076923076923077
 40
0.3076923076923077
 40
0.3076923076923077
 40
0.3076923076923077
 40
0.3846153846153846
 40
0.3846153846153846
 40
0.3846153846153846
 40
0.3846153846153846
 40
0.4615384615384616
 40
0.4615384615384616
 40
0.4615384615384616
 40
0.4615384615384616
 40
0.5384615384615384
 40
0.5384615384615384
 40
0.5384615384615384
 40
0.5384615384615384
 40
0.6153846153846154
 40
0.6153846153846154
 40
0.6153846153846154
 40
0.6153846153846154
 40
0.6923076923076923
 40
0.6923076923076923
 40
0.6923076923076923
 40
0.6923076923076923
 40
0.7692307692307693
 40
0.7692307692307693
 40
0.7692307692307693
 40
0.7692307692307693
 40
0.8461538461538461
 40
0.8461538461538461
 40
0.8461538461538461
 40
0.8461538461538461
 40
1.0
 40
1.0
 40
1.0
 40
1.0
 10
21.3035
 20
-6.3102
 30
0.0
 10
21.0645
 20
-6.3102
 30
0.0
 10
20.8721
 20
-6.2857
 30
0.0
 10
20.7268
 20
-6.2363
 30
0.0
 10
20.7268
 20
-6.2363
 30
0.0
 10
20.581
 20
-6.1874
 30
0.0
 10
20.4686
 20
-6.114
 30
0.0
 10
20.3895
 20
-6.0171
 30
0.0
 10
20.3895
 20
-6.0171
 30
0.0
 10
20.3105
 20
-5.9202
 30
0.0
 10
20.271
 20
-5.7984
 30
0.0
 10
20.271
 20
-5.6517
 30
0.0
 10
20.271
 20
-5.6517
 30
0.0
 10
20.271
 20
-5.543
 30
0.0
 10
20.2931
 20
-5.448
 30
0.0
 10
20.3369
 20
-5.3662
 30
0.0
 10
20.3369
 20
-5.3662
 30
0.0
 10
20.3801
 20
-5.2843
 30
0.0
 10
20.4432
 20
-5.217
 30
0.0
 10
20.5255
 20
-5.1634
 30
0.0
 10
20.5255
 20
-5.1634
 30
0.0
 10
20.6078
 20
-5.1103
 30
0.0
 10
20.708
 20
-5.0684
 30
0.0
 10
20.826
 20
-5.0383
 30
0.0
 10
20.826
 20
-5.0383
 30
0.0
 10
20.9441
 20
-5.0077
 30
0.0
 10
21.1031
 20
-4.9927
 30
0.0
 10
21.3035
 20
-4.9927
 30
0.0
 10
21.3035
 20
-4.9927
 30
0.0
 10
21.5405
 20
-4.9927
 30
0.0
 10
21.7315
 20
-5.0171
 30
0.0
 10
21.8773
 20
-5.0656
 30
0.0
 10
21.8773
 20
-5.0656
 30
0.0
 10
22.0231
 20
-5.1145
 30
0.0
 10
22.1355
 20
-5.1874
 30
0.0
 10
22.215
 20
-5.2843
 30
0.0
 10
22.215
 20
-5.2843
 30
0.0
 10
22.2945
 20
-5.3812
 30
0.0
 10
22.334
 20
-5.5035
 30
0.0
 10
22.334
 20
-5.6517
 30
0.0
 10
22.334
 20
-5.6517
 30
0.0
 10
22.334
 20
-5.8464
 30
0.0
 10
22.2644
 20
-5.9993
 30
0.0
 10
22.1247
 20
-6.1103
 30
0.0
 10
22.1247
 20
-6.1103
 30
0.0
 10
21.9568
 20
-6.2434
 30
0.0
 10
21.6826
 20
-6.3102
 30
0.0
 10
21.3035
 20
-6.3102
 30
0.0
  0
SPLINE
  5
95
330
1F
100
AcDbEntity
  8
DEFAULT_1
 62
   250
100
AcDbSpline
210
0.0
220
0.0
230
1.0
 70
    11
 71
     3
 72
    36
 73
    32
 74
     0
 42
0.0000000001
 43
0.0000000001
 40
0.0
 40
0.0
 40
0.0
 40
0.0
 40
0.1111111111111111
 40
0.1111111111111111
 40
0.1111111111111111
 40
0.1111111111111111
 40
0.2222222222222222
 40
0.2222222222222222
 40
0.2222222222222222
 40
0.2222222222222222
 40
0.3333333333333333
 40
0.3333333333333333
 40
0.3333333333333333
 40
0.3333333333333333
 40
0.4444444444444444
 40
0.4444444444444444
 40
0.4444444444444444
 40
0.4444444444444444
 40
0.5555555555555556
 40
0.5555555555555556
 40
0.5555555555555556
 40
0.5555555555555556
 40
0.6666666666666666
 40
0.6666666666666666
 40
0.6666666666666666
 40
0.6666666666666666
 40
0.7777777777777778
 40
0.7777777777777778
 40
0.7777777777777778
 40
0.7777777777777778
 40
1.0
 40
1.0
 40
1.0
 40
1.0
 10
21.3035
 20
-6.0552
 30
0.0
 10
21.6351
 20
-6.0552
 30
0.0
 10
21.8557
 20
-6.0162
 30
0.0
 10
21.9657
 20
-5.9386
 30
0.0
 10
21.9657
 20
-5.9386
 30
0.0
 10
22.0753
 20
-5.861
 30
0.0
 10
22.1304
 20
-5.7655
 30
0.0
 10
22.1304
 20
-5.6517
 30
0.0
 10
22.1304
 20
-5.6517
 30
0.0
 10
22.1304
 20
-5.5374
 30
0.0
 10
22.0749
 20
-5.4419
 30
0.0
 10
21.9648
 20
-5.3643
 30
0.0
 10
21.9648
 20
-5.3643
 30
0.0
 10
21.8547
 20
-5.2867
 30
0.0
 10
21.6341
 20
-5.2476
 30
0.0
 10
21.3035
 20
-5.2476
 30
0.0
 10
21.3035
 20
-5.2476
 30
0.0
 10
20.9709
 20
-5.2476
 30
0.0
 10
20.7498
 20
-5.2867
 30
0.0
 10
20.6407
 20
-5.3643
 30
0.0
 10
20.6407
 20
-5.3643
 30
0.0
 10
20.5311
 20
-5.4419
 30
0.0
 10
20.4766
 20
-5.5383
 30
0.0
 10
20.4766
 20
-5.654
 30
0.0
 10
20.4766
 20
-5.654
 30
0.0
 10
20.4766
 20
-5.7683
 30
0.0
 10
20.525
 20
-5.8591
 30
0.0
 10
20.6214
 20
-5.9273
 30
0.0
 10
20.6214
 20
-5.9273
 30
0.0
 10
20.7442
 20
-6.0124
 30
0.0
 10
20.9719
 20
-6.0552
 30
0.0
 10
21.3035
 20
-6.0552
 30
0.0
  0
SPLINE
  5
96
330
1F
100
AcDbEntity
  8
DEFAULT_1
 62
   250
100
AcDbSpline
210
0.0
220
0.0
230
1.0
 70
    11
 71
     3
 72
    20
 73
    16
 74
     0
 42
0.0000000001
 43
0.0000000001
 40
0.0
 40
0.0
 40
0.0
 40
0.0
 40
0.2
 40
0.2
 40
0.2
 40
0.2
 40
0.4
 40
0.4
 40
0.4
 40
0.4
 40
0.6
 40
0.6
 40
0.6
 40
0.6
 40
1.0
 40
1.0
 40
1.0
 40
1.0
 10
17.4594
 20
-5.9293
 30
0.0
 10
17.4594
 20
-5.9293
 30
0.0
 10
17.8827
 20
-2.9294
 30
0.0
 10
17.8827
 20
-2.9294
 30
0.0
 10
17.8827
 20
-2.9294
 30
0.0
 10
17.8827
 20
-2.9294
 30
0.0
 10
17.9768
 20
-2.9294
 30
0.0
 10
17.9768
 20
-2.9294
 30
0.0
 10
17.9768
 20
-2.9294
 30
0.0
 10
17.9768
 20
-2.9294
 30
0.0
 10
18.4283
 20
-5.9293
 30
0.0
 10
18.4283
 20
-5.9293
 30
0.0
 10
18.4283
 20
-5.9293
 30
0.0
 10
18.4283
 20
-5.9293
 30
0.0
 10
17.4594
 20
-5.9293
 30
0.0
 10
17.4594
 20
-5.9293
 30
0.0
  0
SPLINE
  5
97
330
1F
100
AcDbEntity
  8
DEFAULT_1
 62
   250
100
AcDbSpline
210
0.0
220
0.0
230
1.0
 70
    11
 71
     3
 72
    84
 73
    80
 74
     0
 42
0.0000000001
 43
0.0000000001
 40
0.0
 40
0.0
 40
0.0
 40
0.0
 40
0.0476190476190476
 40
0.0476190476190476
 40
0.0476190476190476
 40
0.0476190476190476
 40
0.0952380952380952
 40
0.0952380952380952
 40
0.0952380952380952
 40
0.0952380952380952
 40
0.1428571428571428
 40
0.1428571428571428
 40
0.1428571428571428
 40
0.1428571428571428
 40
0.1904761904761905
 40
0.1904761904761905
 40
0.1904761904761905
 40
0.1904761904761905
 40
0.2380952380952381
 40
0.2380952380952381
 40
0.2380952380952381
 40
0.2380952380952381
 40
0.2857142857142857
 40
0.2857142857142857
 40
0.2857142857142857
 40
0.2857142857142857
 40
0.3333333333333333
 40
0.3333333333333333
 40
0.3333333333333333
 40
0.3333333333333333
 40
0.3809523809523809
 40
0.3809523809523809
 40
0.3809523809523809
 40
0.3809523809523809
 40
0.4285714285714285
 40
0.4285714285714285
 40
0.4285714285714285
 40
0.4285714285714285
 40
0.4761904761904762
 40
0.4761904761904762
 40
0.4761904761904762
 40
0.4761904761904762
 40
0.5238095238095238
 40
0.5238095238095238
 40
0.5238095238095238
 40
0.5238095238095238
 40
0.5714285714285714
 40
0.5714285714285714
 40
0.5714285714285714
 40
0.5714285714285714
 40
0.6190476190476191
 40
0.6190476190476191
 40
0.6190476190476191
 40
0.6190476190476191
 40
0.6666666666666666
 40
0.6666666666666666
 40
0.6666666666666666
 40
0.6666666666666666
 40
0.7142857142857143
 40
0.7142857142857143
 40
0.7142857142857143
 40
0.7142857142857143
 40
0.7619047619047619
 40
0.7619047619047619
 40
0.7619047619047619
 40
0.7619047619047619
 40
0.8095238095238095
 40
0.8095238095238095
 40
0.8095238095238095
 40
0.8095238095238095
 40
0.8571428571428571
 40
0.8571428571428571
 40
0.8571428571428571
 40
0.8571428571428571
 40
0.9047619047619048
 40
0.9047619047619048
 40
0.9047619047619048
 40
0.9047619047619048
 40
1.0
 40
1.0
 40
1.0
 40
1.0
 10
14.7403
 20
-8.406
 30
0.0
 10
14.7403
 20
-8.406
 30
0.0
 10
14.4812
 20
-8.1746
 30
0.0
 10
14.4812
 20
-8.1746
 30
0.0
 10
14.4812
 20
-8.1746
 30
0.0
 10
14.4812
 20
-8.1746
 30
0.0
 10
14.5969
 20
-8.0382
 30
0.0
 10
14.5969
 20
-8.0382
 30
0.0
 10
14.5969
 20
-8.0382
 30
0.0
 10
14.5969
 20
-8.0382
 30
0.0
 10
14.8697
 20
-8.2804
 30
0.0
 10
14.8697
 20
-8.2804
 30
0.0
 10
14.8697
 20
-8.2804
 30
0.0
 10
14.9873
 20
-8.2014
 30
0.0
 10
15.0903
 20
-8.1483
 30
0.0
 10
15.1782
 20
-8.1205
 30
0.0
 10
15.1782
 20
-8.1205
 30
0.0
 10
15.294
 20
-8.0838
 30
0.0
 10
15.4238
 20
-8.0655
 30
0.0
 10
15.5668
 20
-8.0655
 30
0.0
 10
15.5668
 20
-8.0655
 30
0.0
 10
15.7737
 20
-8.0655
 30
0.0
 10
15.9581
 20
-8.1073
 30
0.0
 10
16.1194
 20
-8.1911
 30
0.0
 10
16.1194
 20
-8.1911
 30
0.0
 10
16.2813
 20
-8.2748
 30
0.0
 10
16.4035
 20
-8.3919
 30
0.0
 10
16.4863
 20
-8.5429
 30
0.0
 10
16.4863
 20
-8.5429
 30
0.0
 10
16.5686
 20
-8.6944
 30
0.0
 10
16.61
 20
-8.8547
 30
0.0
 10
16.61
 20
-9.0245
 30
0.0
 10
16.61
 20
-9.0245
 30
0.0
 10
16.61
 20
-9.1515
 30
0.0
 10
16.5922
 20
-9.2663
 30
0.0
 10
16.5564
 20
-9.3693
 30
0.0
 10
16.5564
 20
-9.3693
 30
0.0
 10
16.5287
 20
-9.4483
 30
0.0
 10
16.476
 20
-9.5405
 30
0.0
 10
16.3979
 20
-9.6464
 30
0.0
 10
16.3979
 20
-9.6464
 30
0.0
 10
16.3979
 20
-9.6464
 30
0.0
 10
16.6571
 20
-9.8778
 30
0.0
 10
16.6571
 20
-9.8778
 30
0.0
 10
16.6571
 20
-9.8778
 30
0.0
 10
16.6571
 20
-9.8778
 30
0.0
 10
16.5414
 20
-10.0142
 30
0.0
 10
16.5414
 20
-10.0142
 30
0.0
 10
16.5414
 20
-10.0142
 30
0.0
 10
16.5414
 20
-10.0142
 30
0.0
 10
16.27
 20
-9.7715
 30
0.0
 10
16.27
 20
-9.7715
 30
0.0
 10
16.27
 20
-9.7715
 30
0.0
 10
16.1331
 20
-9.8618
 30
0.0
 10
16.016
 20
-9.922
 30
0.0
 10
15.9191
 20
-9.9521
 30
0.0
 10
15.9191
 20
-9.9521
 30
0.0
 10
15.8222
 20
-9.9822
 30
0.0
 10
15.7055
 20
-9.9977
 30
0.0
 10
15.5696
 20
-9.9977
 30
0.0
 10
15.5696
 20
-9.9977
 30
0.0
 10
15.3622
 20
-9.9977
 30
0.0
 10
15.1773
 20
-9.9563
 30
0.0
 10
15.015
 20
-9.8736
 30
0.0
 10
15.015
 20
-9.8736
 30
0.0
 10
14.8527
 20
-9.7908
 30
0.0
 10
14.73
 20
-9.6751
 30
0.0
 10
14.6463
 20
-9.5255
 30
0.0
 10
14.6463
 20
-9.5255
 30
0.0
 10
14.563
 20
-9.3764
 30
0.0
 10
14.5211
 20
-9.2103
 30
0.0
 10
14.5211
 20
-9.0274
 30
0.0
 10
14.5211
 20
-9.0274
 30
0.0
 10
14.5211
 20
-8.9041
 30
0.0
 10
14.5371
 20
-8.7964
 30
0.0
 10
14.5701
 20
-8.7042
 30
0.0
 10
14.5701
 20
-8.7042
 30
0.0
 10
14.6025
 20
-8.612
 30
0.0
 10
14.6594
 20
-8.5123
 30
0.0
 10
14.7403
 20
-8.406
 30
0.0
  0
SPLINE
  5
98
330
1F
100
AcDbEntity
  8
DEFAULT_1
 62
   250
100
AcDbSpline
210
0.0
220
0.0
230
1.0
 70
    11
 71
     3
 72
    32
 73
    28
 74
     0
 42
0.0000000001
 43
0.0000000001
 40
0.0
 40
0.0
 40
0.0
 40
0.0
 40
0.125
 40
0.125
 40
0.125
 40
0.125
 40
0.25
 40
0.25
 40
0.25
 40
0.25
 40
0.375
 40
0.375
 40
0.375
 40
0.375
 40
0.5
 40
0.5
 40
0.5
 40
0.5
 40
0.625
 40
0.625
 40
0.625
 40
0.625
 40
0.75
 40
0.75
 40
0.75
 40
0.75
 40
1.0
 40
1.0
 40
1.0
 40
1.0
 10
14.9261
 20
-8.5711
 30
0.0
 10
14.8584
 20
-8.6577
 30
0.0
 10
14.8118
 20
-8.7334
 30
0.0
 10
14.7869
 20
-8.7978
 30
0.0
 10
14.7869
 20
-8.7978
 30
0.0
 10
14.7624
 20
-8.8627
 30
0.0
 10
14.7497
 20
-8.9389
 30
0.0
 10
14.7497
 20
-9.026
 30
0.0
 10
14.7497
 20
-9.026
 30
0.0
 10
14.7497
 20
-9.2273
 30
0.0
 10
14.8179
 20
-9.3933
 30
0.0
 10
14.9543
 20
-9.525
 30
0.0
 10
14.9543
 20
-9.525
 30
0.0
 10
15.0908
 20
-9.6563
 30
0.0
 10
15.2944
 20
-9.7221
 30
0.0
 10
15.5658
 20
-9.7221
 30
0.0
 10
15.5658
 20
-9.7221
 30
0.0
 10
15.6721
 20
-9.7221
 30
0.0
 10
15.7667
 20
-9.7118
 30
0.0
 10
15.8495
 20
-9.6915
 30
0.0
 10
15.8495
 20
-9.6915
 30
0.0
 10
15.9111
 20
-9.6769
 30
0.0
 10
15.9868
 20
-9.6464
 30
0.0
 10
16.0766
 20
-9.5993
 30
0.0
 10
16.0766
 20
-9.5993
 30
0.0
 10
16.0766
 20
-9.5993
 30
0.0
 10
14.9261
 20
-8.5711
 30
0.0
 10
14.9261
 20
-8.5711
 30
0.0
  0
SPLINE
  5
99
330
1F
100
AcDbEntity
  8
DEFAULT_1
 62
   250
100
AcDbSpline
210
0.0
220
0.0
230
1.0
 70
    11
 71
     3
 72
    28
 73
    24
 74
     0
 42
0.0000000001
 43
0.0000000001
 40
0.0
 40
0.0
 40
0.0
 40
0.0
 40
0.1428571428571428
 40
0.1428571428571428
 40
0.1428571428571428
 40
0.1428571428571428
 40
0.2857142857142857
 40
0.2857142857142857
 40
0.2857142857142857
 40
0.2857142857142857
 40
0.4285714285714285
 40
0.4285714285714285
 40
0.4285714285714285
 40
0.4285714285714285
 40
0.5714285714285714
 40
0.5714285714285714
 40
0.5714285714285714
 40
0.5714285714285714
 40
0.7142857142857143
 40
0.7142857142857143
 40
0.7142857142857143
 40
0.7142857142857143
 40
1.0
 40
1.0
 40
1.0
 40
1.0
 10
15.0682
 20
-8.4582
 30
0.0
 10
15.0682
 20
-8.4582
 30
0.0
 10
16.2145
 20
-9.4822
 30
0.0
 10
16.2145
 20
-9.4822
 30
0.0
 10
16.2145
 20
-9.4822
 30
0.0
 10
16.2723
 20
-9.4117
 30
0.0
 10
16.3128
 20
-9.3463
 30
0.0
 10
16.3358
 20
-9.2865
 30
0.0
 10
16.3358
 20
-9.2865
 30
0.0
 10
16.3664
 20
-9.2085
 30
0.0
 10
16.3814
 20
-9.1238
 30
0.0
 10
16.3814
 20
-9.033
 30
0.0
 10
16.3814
 20
-9.033
 30
0.0
 10
16.3814
 20
-8.8326
 30
0.0
 10
16.3109
 20
-8.6675
 30
0.0
 10
16.1693
 20
-8.5368
 30
0.0
 10
16.1693
 20
-8.5368
 30
0.0
 10
16.0277
 20
-8.4065
 30
0.0
 10
15.8292
 20
-8.3411
 30
0.0
 10
15.5738
 20
-8.3411
 30
0.0
 10
15.5738
 20
-8.3411
 30
0.0
 10
15.3829
 20
-8.3411
 30
0.0
 10
15.214
 20
-8.3801
 30
0.0
 10
15.0682
 20
-8.4582
 30
0.0
  0
SPLINE
  5
9A
330
1F
100
AcDbEntity
  8
DEFAULT_1
 62
   250
100
AcDbSpline
210
0.0
220
0.0
230
1.0
 70
    11
 71
     3
 72
    48
 73
    44
 74
     0
 42
0.0000000001
 43
0.0000000001
 40
0.0
 40
0.0
 40
0.0
 40
0.0
 40
0.0833333333333333
 40
0.0833333333333333
 40
0.0833333333333333
 40
0.0833333333333333
 40
0.1666666666666667
 40
0.1666666666666667
 40
0.1666666666666667
 40
0.1666666666666667
 40
0.25
 40
0.25
 40
0.25
 40
0.25
 40
0.3333333333333333
 40
0.3333333333333333
 40
0.3333333333333333
 40
0.3333333333333333
 40
0.4166666666666667
 40
0.4166666666666667
 40
0.4166666666666667
 40
0.4166666666666667
 40
0.5
 40
0.5
 40
0.5
 40
0.5
 40
0.5833333333333334
 40
0.5833333333333334
 40
0.5833333333333334
 40
0.5833333333333334
 40
0.6666666666666666
 40
0.6666666666666666
 40
0.6666666666666666
 40
0.6666666666666666
 40
0.75
 40
0.75
 40
0.75
 40
0.75
 40
0.8333333333333334
 40
0.8333333333333334
 40
0.8333333333333334
 40
0.8333333333333334
 40
1.0
 40
1.0
 40
1.0
 40
1.0
 10
16.5757
 20
-7.0213
 30
0.0
 10
16.5757
 20
-7.0213
 30
0.0
 10
16.0922
 20
-7.0213
 30
0.0
 10
16.0922
 20
-7.0213
 30
0.0
 10
16.0922
 20
-7.0213
 30
0.0
 10
16.0922
 20
-7.0213
 30
0.0
 10
16.0922
 20
-7.8976
 30
0.0
 10
16.0922
 20
-7.8976
 30
0.0
 10
16.0922
 20
-7.8976
 30
0.0
 10
16.0922
 20
-7.8976
 30
0.0
 10
15.8645
 20
-7.8976
 30
0.0
 10
15.8645
 20
-7.8976
 30
0.0
 10
15.8645
 20
-7.8976
 30
0.0
 10
15.8645
 20
-7.8976
 30
0.0
 10
14.5555
 20
-6.9756
 30
0.0
 10
14.5555
 20
-6.9756
 30
0.0
 10
14.5555
 20
-6.9756
 30
0.0
 10
14.5555
 20
-6.9756
 30
0.0
 10
14.5555
 20
-6.7729
 30
0.0
 10
14.5555
 20
-6.7729
 30
0.0
 10
14.5555
 20
-6.7729
 30
0.0
 10
14.5555
 20
-6.7729
 30
0.0
 10
15.8645
 20
-6.7729
 30
0.0
 10
15.8645
 20
-6.7729
 30
0.0
 10
15.8645
 20
-6.7729
 30
0.0
 10
15.8645
 20
-6.7729
 30
0.0
 10
15.8645
 20
-6.5001
 30
0.0
 10
15.8645
 20
-6.5001
 30
0.0
 10
15.8645
 20
-6.5001
 30
0.0
 10
15.8645
 20
-6.5001
 30
0.0
 10
16.0922
 20
-6.5001
 30
0.0
 10
16.0922
 20
-6.5001
 30
0.0
 10
16.0922
 20
-6.5001
 30
0.0
 10
16.0922
 20
-6.5001
 30
0.0
 10
16.0922
 20
-6.7729
 30
0.0
 10
16.0922
 20
-6.7729
 30
0.0
 10
16.0922
 20
-6.7729
 30
0.0
 10
16.0922
 20
-6.7729
 30
0.0
 10
16.5757
 20
-6.7729
 30
0.0
 10
16.5757
 20
-6.7729
 30
0.0
 10
16.5757
 20
-6.7729
 30
0.0
 10
16.5757
 20
-6.7729
 30
0.0
 10
16.5757
 20
-7.0213
 30
0.0
 10
16.5757
 20
-7.0213
 30
0.0
  0
SPLINE
  5
9B
330
1F
100
AcDbEntity
  8
DEFAULT_1
 62
   250
100
AcDbSpline
210
0.0
220
0.0
230
1.0
 70
    11
 71
     3
 72
    16
 73
    12
 74
     0
 42
0.0000000001
 43
0.0000000001
 40
0.0
 40
0.0
 40
0.0
 40
0.0
 40
0.25
 40
0.25
 40
0.25
 40
0.25
 40
0.5
 40
0.5
 40
0.5
 40
0.5
 40
1.0
 40
1.0
 40
1.0
 40
1.0
 10
15.8645
 20
-7.0213
 30
0.0
 10
15.8645
 20
-7.0213
 30
0.0
 10
14.9539
 20
-7.0213
 30
0.0
 10
14.9539
 20
-7.0213
 30
0.0
 10
14.9539
 20
-7.0213
 30
0.0
 10
14.9539
 20
-7.0213
 30
0.0
 10
15.8645
 20
-7.6534
 30
0.0
 10
15.8645
 20
-7.6534
 30
0.0
 10
15.8645
 20
-7.6534
 30
0.0
 10
15.8645
 20
-7.6534
 30
0.0
 10
15.8645
 20
-7.0213
 30
0.0
 10
15.8645
 20
-7.0213
 30
0.0
  0
SPLINE
  5
9C
330
1F
100
AcDbEntity
  8
DEFAULT_1
 62
   250
100
AcDbSpline
210
0.0
220
0.0
230
1.0
 70
    11
 71
     3
 72
    52
 73
    48
 74
     0
 42
0.0000000001
 43
0.0000000001
 40
0.0
 40
0.0
 40
0.0
 40
0.0
 40
0.0769230769230769
 40
0.0769230769230769
 40
0.0769230769230769
 40
0.0769230769230769
 40
0.1538461538461539
 40
0.1538461538461539
 40
0.1538461538461539
 40
0.1538461538461539
 40
0.2307692307692308
 40
0.2307692307692308
 40
0.2307692307692308
 40
0.2307692307692308
 40
0.3076923076923077
 40
0.3076923076923077
 40
0.3076923076923077
 40
0.3076923076923077
 40
0.3846153846153846
 40
0.3846153846153846
 40
0.3846153846153846
 40
0.3846153846153846
 40
0.4615384615384616
 40
0.4615384615384616
 40
0.4615384615384616
 40
0.4615384615384616
 40
0.5384615384615384
 40
0.5384615384615384
 40
0.5384615384615384
 40
0.5384615384615384
 40
0.6153846153846154
 40
0.6153846153846154
 40
0.6153846153846154
 40
0.6153846153846154
 40
0.6923076923076923
 40
0.6923076923076923
 40
0.6923076923076923
 40
0.6923076923076923
 40
0.7692307692307693
 40
0.7692307692307693
 40
0.7692307692307693
 40
0.7692307692307693
 40
0.8461538461538461
 40
0.8461538461538461
 40
0.8461538461538461
 40
0.8461538461538461
 40
1.0
 40
1.0
 40
1.0
 40
1.0
 10
15.5795
 20
-6.2466
 30
0.0
 10
15.3405
 20
-6.2466
 30
0.0
 10
15.1481
 20
-6.2221
 30
0.0
 10
15.0028
 20
-6.1727
 30
0.0
 10
15.0028
 20
-6.1727
 30
0.0
 10
14.857
 20
-6.1238
 30
0.0
 10
14.7446
 20
-6.0504
 30
0.0
 10
14.6655
 20
-5.9535
 30
0.0
 10
14.6655
 20
-5.9535
 30
0.0
 10
14.5865
 20
-5.8566
 30
0.0
 10
14.547
 20
-5.7348
 30
0.0
 10
14.547
 20
-5.5881
 30
0.0
 10
14.547
 20
-5.5881
 30
0.0
 10
14.547
 20
-5.4794
 30
0.0
 10
14.5691
 20
-5.3844
 30
0.0
 10
14.6129
 20
-5.3026
 30
0.0
 10
14.6129
 20
-5.3026
 30
0.0
 10
14.6561
 20
-5.2207
 30
0.0
 10
14.7192
 20
-5.1534
 30
0.0
 10
14.8015
 20
-5.0998
 30
0.0
 10
14.8015
 20
-5.0998
 30
0.0
 10
14.8838
 20
-5.0467
 30
0.0
 10
14.984
 20
-5.0048
 30
0.0
 10
15.102
 20
-4.9747
 30
0.0
 10
15.102
 20
-4.9747
 30
0.0
 10
15.2201
 20
-4.9441
 30
0.0
 10
15.3791
 20
-4.9291
 30
0.0
 10
15.5795
 20
-4.9291
 30
0.0
 10
15.5795
 20
-4.9291
 30
0.0
 10
15.8165
 20
-4.9291
 30
0.0
 10
16.0075
 20
-4.9535
 30
0.0
 10
16.1533
 20
-5.002
 30
0.0
 10
16.1533
 20
-5.002
 30
0.0
 10
16.2991
 20
-5.0509
 30
0.0
 10
16.4115
 20
-5.1238
 30
0.0
 10
16.491
 20
-5.2207
 30
0.0
 10
16.491
 20
-5.2207
 30
0.0
 10
16.5705
 20
-5.3176
 30
0.0
 10
16.61
 20
-5.4399
 30
0.0
 10
16.61
 20
-5.5881
 30
0.0
 10
16.61
 20
-5.5881
 30
0.0
 10
16.61
 20
-5.7828
 30
0.0
 10
16.5404
 20
-5.9357
 30
0.0
 10
16.4007
 20
-6.0467
 30
0.0
 10
16.4007
 20
-6.0467
 30
0.0
 10
16.2328
 20
-6.1798
 30
0.0
 10
15.9586
 20
-6.2466
 30
0.0
 10
15.5795
 20
-6.2466
 30
0.0
  0
SPLINE
  5
9D
330
1F
100
AcDbEntity
  8
DEFAULT_1
 62
   250
100
AcDbSpline
210
0.0
220
0.0
230
1.0
 70
    11
 71
     3
 72
    36
 73
    32
 74
     0
 42
0.0000000001
 43
0.0000000001
 40
0.0
 40
0.0
 40
0.0
 40
0.0
 40
0.1111111111111111
 40
0.1111111111111111
 40
0.1111111111111111
 40
0.1111111111111111
 40
0.2222222222222222
 40
0.2222222222222222
 40
0.2222222222222222
 40
0.2222222222222222
 40
0.3333333333333333
 40
0.3333333333333333
 40
0.3333333333333333
 40
0.3333333333333333
 40
0.4444444444444444
 40
0.4444444444444444
 40
0.4444444444444444
 40
0.4444444444444444
 40
0.5555555555555556
 40
0.5555555555555556
 40
0.5555555555555556
 40
0.5555555555555556
 40
0.6666666666666666
 40
0.6666666666666666
 40
0.6666666666666666
 40
0.6666666666666666
 40
0.7777777777777778
 40
0.7777777777777778
 40
0.7777777777777778
 40
0.7777777777777778
 40
1.0
 40
1.0
 40
1.0
 40
1.0
 10
15.5795
 20
-5.9916
 30
0.0
 10
15.9111
 20
-5.9916
 30
0.0
 10
16.1317
 20
-5.9526
 30
0.0
 10
16.2417
 20
-5.875
 30
0.0
 10
16.2417
 20
-5.875
 30
0.0
 10
16.3513
 20
-5.7974
 30
0.0
 10
16.4064
 20
-5.7019
 30
0.0
 10
16.4064
 20
-5.5881
 30
0.0
 10
16.4064
 20
-5.5881
 30
0.0
 10
16.4064
 20
-5.4738
 30
0.0
 10
16.3509
 20
-5.3783
 30
0.0
 10
16.2408
 20
-5.3007
 30
0.0
 10
16.2408
 20
-5.3007
 30
0.0
 10
16.1307
 20
-5.2231
 30
0.0
 10
15.9101
 20
-5.184
 30
0.0
 10
15.5795
 20
-5.184
 30
0.0
 10
15.5795
 20
-5.184
 30
0.0
 10
15.2469
 20
-5.184
 30
0.0
 10
15.0258
 20
-5.2231
 30
0.0
 10
14.9167
 20
-5.3007
 30
0.0
 10
14.9167
 20
-5.3007
 30
0.0
 10
14.8071
 20
-5.3783
 30
0.0
 10
14.7526
 20
-5.4747
 30
0.0
 10
14.7526
 20
-5.5904
 30
0.0
 10
14.7526
 20
-5.5904
 30
0.0
 10
14.7526
 20
-5.7047
 30
0.0
 10
14.801
 20
-5.7955
 30
0.0
 10
14.8974
 20
-5.8637
 30
0.0
 10
14.8974
 20
-5.8637
 30
0.0
 10
15.0202
 20
-5.9488
 30
0.0
 10
15.2479
 20
-5.9916
 30
0.0
 10
15.5795
 20
-5.9916
 30
0.0
  0
SPLINE
  5
9E
330
1F
100
AcDbEntity
  8
DEFAULT_1
 62
   250
100
AcDbSpline
210
0.0
220
0.0
230
1.0
 70
    11
 71
     3
 72
    20
 73
    16
 74
     0
 42
0.0000000001
 43
0.0000000001
 40
0.0
 40
0.0
 40
0.0
 40
0.0
 40
0.2
 40
0.2
 40
0.2
 40
0.2
 40
0.4
 40
0.4
 40
0.4
 40
0.4
 40
0.6
 40
0.6
 40
0.6
 40
0.6
 40
1.0
 40
1.0
 40
1.0
 40
1.0
 10
23.3159
 20
-10.8465
 30
0.0
 10
23.3159
 20
-10.8465
 30
0.0
 10
22.8925
 20
-13.8464
 30
0.0
 10
22.8925
 20
-13.8464
 30
0.0
 10
22.8925
 20
-13.8464
 30
0.0
 10
22.8925
 20
-13.8464
 30
0.0
 10
22.7985
 20
-13.8464
 30
0.0
 10
22.7985
 20
-13.8464
 30
0.0
 10
22.7985
 20
-13.8464
 30
0.0
 10
22.7985
 20
-13.8464
 30
0.0
 10
22.347
 20
-10.8465
 30
0.0
 10
22.347
 20
-10.8465
 30
0.0
 10
22.347
 20
-10.8465
 30
0.0
 10
22.347
 20
-10.8465
 30
0.0
 10
23.3159
 20
-10.8465
 30
0.0
 10
23.3159
 20
-10.8465
 30
0.0
  0
SPLINE
  5
9F
330
1F
100
AcDbEntity
  8
DEFAULT_1
 62
   250
100
AcDbSpline
210
0.0
220
0.0
230
1.0
 70
    11
 71
     3
 72
    20
 73
    16
 74
     0
 42
0.0000000001
 43
0.0000000001
 40
0.0
 40
0.0
 40
0.0
 40
0.0
 40
0.2
 40
0.2
 40
0.2
 40
0.2
 40
0.4
 40
0.4
 40
0.4
 40
0.4
 40
0.6
 40
0.6
 40
0.6
 40
0.6
 40
1.0
 40
1.0
 40
1.0
 40
1.0
 10
22.3884
 20
-4.5937
 30
0.0
 10
22.3884
 20
-4.5937
 30
0.0
 10
22.8117
 20
-1.5938
 30
0.0
 10
22.8117
 20
-1.5938
 30
0.0
 10
22.8117
 20
-1.5938
 30
0.0
 10
22.8117
 20
-1.5938
 30
0.0
 10
22.9058
 20
-1.5938
 30
0.0
 10
22.9058
 20
-1.5938
 30
0.0
 10
22.9058
 20
-1.5938
 30
0.0
 10
22.9058
 20
-1.5938
 30
0.0
 10
23.3573
 20
-4.5937
 30
0.0
 10
23.3573
 20
-4.5937
 30
0.0
 10
23.3573
 20
-4.5937
 30
0.0
 10
23.3573
 20
-4.5937
 30
0.0
 10
22.3884
 20
-4.5937
 30
0.0
 10
22.3884
 20
-4.5937
 30
0.0
  0
SPLINE
  5
A0
330
1F
100
AcDbEntity
  8
DEFAULT_1
 62
   250
100
AcDbSpline
210
0.0
220
0.0
230
1.0
 70
    11
 71
     3
 72
    24
 73
    20
 74
     0
 42
0.0000000001
 43
0.0000000001
 40
0.0
 40
0.0
 40
0.0
 40
0.0
 40
0.1666666666666667
 40
0.1666666666666667
 40
0.1666666666666667
 40
0.1666666666666667
 40
0.3333333333333333
 40
0.3333333333333333
 40
0.3333333333333333
 40
0.3333333333333333
 40
0.5
 40
0.5
 40
0.5
 40
0.5
 40
0.6666666666666666
 40
0.6666666666666666
 40
0.6666666666666666
 40
0.6666666666666666
 40
1.0
 40
1.0
 40
1.0
 40
1.0
 10
16.9039
 20
8.9464
 30
0.0
 10
16.9039
 20
8.9464
 30
0.0
 10
16.8094
 20
9.2911
 30
0.0
 10
16.8094
 20
9.2911
 30
0.0
 10
16.8094
 20
9.2911
 30
0.0
 10
16.8094
 20
9.2911
 30
0.0
 10
21.0152
 20
10.4331
 30
0.0
 10
21.0152
 20
10.4331
 30
0.0
 10
21.0152
 20
10.4331
 30
0.0
 10
21.0152
 20
10.4331
 30
0.0
 10
21.194
 20
10.4816
 30
0.0
 10
21.194
 20
10.4816
 30
0.0
 10
21.194
 20
10.4816
 30
0.0
 10
21.194
 20
10.4816
 30
0.0
 10
21.2947
 20
10.1229
 30
0.0
 10
21.2947
 20
10.1229
 30
0.0
 10
21.2947
 20
10.1229
 30
0.0
 10
21.2947
 20
10.1229
 30
0.0
 10
16.9039
 20
8.9464
 30
0.0
 10
16.9039
 20
8.9464
 30
0.0
  0
SPLINE
  5
A1
330
1F
100
AcDbEntity
  8
DEFAULT_1
 62
   250
100
AcDbSpline
210
0.0
220
0.0
230
1.0
 70
    11
 71
     3
 72
   140
 73
   136
 74
     0
 42
0.0000000001
 43
0.0000000001
 40
0.0
 40
0.0
 40
0.0
 40
0.0
 40
0.0285714285714286
 40
0.0285714285714286
 40
0.0285714285714286
 40
0.0285714285714286
 40
0.0571428571428571
 40
0.0571428571428571
 40
0.0571428571428571
 40
0.0571428571428571
 40
0.0857142857142857
 40
0.0857142857142857
 40
0.0857142857142857
 40
0.0857142857142857
 40
0.1142857142857143
 40
0.1142857142857143
 40
0.1142857142857143
 40
0.1142857142857143
 40
0.1428571428571428
 40
0.1428571428571428
 40
0.1428571428571428
 40
0.1428571428571428
 40
0.1714285714285714
 40
0.1714285714285714
 40
0.1714285714285714
 40
0.1714285714285714
 40
0.2
 40
0.2
 40
0.2
 40
0.2
 40
0.2285714285714286
 40
0.2285714285714286
 40
0.2285714285714286
 40
0.2285714285714286
 40
0.2571428571428571
 40
0.2571428571428571
 40
0.2571428571428571
 40
0.2571428571428571
 40
0.2857142857142857
 40
0.2857142857142857
 40
0.2857142857142857
 40
0.2857142857142857
 40
0.3142857142857143
 40
0.3142857142857143
 40
0.3142857142857143
 40
0.3142857142857143
 40
0.3428571428571429
 40
0.3428571428571429
 40
0.3428571428571429
 40
0.3428571428571429
 40
0.3714285714285714
 40
0.3714285714285714
 40
0.3714285714285714
 40
0.3714285714285714
 40
0.4
 40
0.4
 40
0.4
 40
0.4
 40
0.4285714285714285
 40
0.4285714285714285
 40
0.4285714285714285
 40
0.4285714285714285
 40
0.4571428571428571
 40
0.4571428571428571
 40
0.4571428571428571
 40
0.4571428571428571
 40
0.4857142857142857
 40
0.4857142857142857
 40
0.4857142857142857
 40
0.4857142857142857
 40
0.5142857142857142
 40
0.5142857142857142
 40
0.5142857142857142
 40
0.5142857142857142
 40
0.5428571428571428
 40
0.5428571428571428
 40
0.5428571428571428
 40
0.5428571428571428
 40
0.5714285714285714
 40
0.5714285714285714
 40
0.5714285714285714
 40
0.5714285714285714
 40
0.6
 40
0.6
 40
0.6
 40
0.6
 40
0.6285714285714286
 40
0.6285714285714286
 40
0.6285714285714286
 40
0.6285714285714286
 40
0.6571428571428571
 40
0.6571428571428571
 40
0.6571428571428571
 40
0.6571428571428571
 40
0.6857142857142857
 40
0.6857142857142857
 40
0.6857142857142857
 40
0.6857142857142857
 40
0.7142857142857143
 40
0.7142857142857143
 40
0.7142857142857143
 40
0.7142857142857143
 40
0.7428571428571429
 40
0.7428571428571429
 40
0.7428571428571429
 40
0.7428571428571429
 40
0.7714285714285715
 40
0.7714285714285715
 40
0.7714285714285715
 40
0.7714285714285715
 40
0.8
 40
0.8
 40
0.8
 40
0.8
 40
0.8285714285714286
 40
0.8285714285714286
 40
0.8285714285714286
 40
0.8285714285714286
 40
0.8571428571428571
 40
0.8571428571428571
 40
0.8571428571428571
 40
0.8571428571428571
 40
0.8857142857142857
 40
0.8857142857142857
 40
0.8857142857142857
 40
0.8857142857142857
 40
0.9142857142857143
 40
0.9142857142857143
 40
0.9142857142857143
 40
0.9142857142857143
 40
0.9428571428571428
 40
0.9428571428571428
 40
0.9428571428571428
 40
0.9428571428571428
 40
1.0
 40
1.0
 40
1.0
 40
1.0
 10
14.1433
 20
18.5954
 30
0.0
 10
14.1433
 20
18.5954
 30
0.0
 10
14.1598
 20
18.62
 30
0.0
 10
14.1598
 20
18.62
 30
0.0
 10
14.1598
 20
18.62
 30
0.0
 10
14.1598
 20
18.62
 30
0.0
 10
14.2101
 20
18.695
 30
0.0
 10
14.2101
 20
18.695
 30
0.0
 10
14.2101
 20
18.695
 30
0.0
 10
14.2101
 20
18.695
 30
0.0
 10
14.2901
 20
18.8132
 30
0.0
 10
14.2901
 20
18.8132
 30
0.0
 10
14.2901
 20
18.8132
 30
0.0
 10
14.2901
 20
18.8132
 30
0.0
 10
14.3931
 20
18.9628
 30
0.0
 10
14.3931
 20
18.9628
 30
0.0
 10
14.3931
 20
18.9628
 30
0.0
 10
14.3931
 20
18.9628
 30
0.0
 10
14.5084
 20
19.1266
 30
0.0
 10
14.5084
 20
19.1266
 30
0.0
 10
14.5084
 20
19.1266
 30
0.0
 10
14.5084
 20
19.1266
 30
0.0
 10
14.6264
 20
19.2905
 30
0.0
 10
14.6264
 20
19.2905
 30
0.0
 10
14.6264
 20
19.2905
 30
0.0
 10
14.6264
 20
19.2905
 30
0.0
 10
14.7415
 20
19.4451
 30
0.0
 10
14.7415
 20
19.4451
 30
0.0
 10
14.7415
 20
19.4451
 30
0.0
 10
14.7415
 20
19.4451
 30
0.0
 10
14.8514
 20
19.5876
 30
0.0
 10
14.8514
 20
19.5876
 30
0.0
 10
14.8514
 20
19.5876
 30
0.0
 10
14.8514
 20
19.5876
 30
0.0
 10
14.955
 20
19.7167
 30
0.0
 10
14.955
 20
19.7167
 30
0.0
 10
14.955
 20
19.7167
 30
0.0
 10
14.955
 20
19.7167
 30
0.0
 10
15.0526
 20
19.833
 30
0.0
 10
15.0526
 20
19.833
 30
0.0
 10
15.0526
 20
19.833
 30
0.0
 10
15.0526
 20
19.833
 30
0.0
 10
15.1454
 20
19.9385
 30
0.0
 10
15.1454
 20
19.9385
 30
0.0
 10
15.1454
 20
19.9385
 30
0.0
 10
15.1454
 20
19.9385
 30
0.0
 10
15.2346
 20
20.0346
 30
0.0
 10
15.2346
 20
20.0346
 30
0.0
 10
15.2346
 20
20.0346
 30
0.0
 10
15.2346
 20
20.0346
 30
0.0
 10
15.3225
 20
20.1234
 30
0.0
 10
15.3225
 20
20.1234
 30
0.0
 10
15.3225
 20
20.1234
 30
0.0
 10
15.3225
 20
20.1234
 30
0.0
 10
15.4109
 20
20.207
 30
0.0
 10
15.4109
 20
20.207
 30
0.0
 10
15.4109
 20
20.207
 30
0.0
 10
15.4109
 20
20.207
 30
0.0
 10
15.503
 20
20.2872
 30
0.0
 10
15.503
 20
20.2872
 30
0.0
 10
15.503
 20
20.2872
 30
0.0
 10
15.503
 20
20.2872
 30
0.0
 10
15.6003
 20
20.364
 30
0.0
 10
15.6003
 20
20.364
 30
0.0
 10
15.6003
 20
20.364
 30
0.0
 10
15.6003
 20
20.364
 30
0.0
 10
15.7029
 20
20.4357
 30
0.0
 10
15.7029
 20
20.4357
 30
0.0
 10
15.7029
 20
20.4357
 30
0.0
 10
15.7029
 20
20.4357
 30
0.0
 10
15.8107
 20
20.5004
 30
0.0
 10
15.8107
 20
20.5004
 30
0.0
 10
15.8107
 20
20.5004
 30
0.0
 10
15.8107
 20
20.5004
 30
0.0
 10
16.498
 20
20.86
 30
0.0
 10
16.498
 20
20.86
 30
0.0
 10
16.498
 20
20.86
 30
0.0
 10
16.498
 20
20.86
 30
0.0
 10
17.3168
 20
21.4173
 30
0.0
 10
17.3168
 20
21.4173
 30
0.0
 10
17.3168
 20
21.4173
 30
0.0
 10
17.3168
 20
21.4173
 30
0.0
 10
17.7958
 20
21.8353
 30
0.0
 10
17.7958
 20
21.8353
 30
0.0
 10
17.7958
 20
21.8353
 30
0.0
 10
17.7958
 20
21.8353
 30
0.0
 10
18.1048
 20
22.1914
 30
0.0
 10
18.1048
 20
22.1914
 30
0.0
 10
18.1048
 20
22.1914
 30
0.0
 10
18.1048
 20
22.1914
 30
0.0
 10
18.1904
 20
22.3629
 30
0.0
 10
18.1904
 20
22.3629
 30
0.0
 10
18.1904
 20
22.3629
 30
0.0
 10
18.1904
 20
22.3629
 30
0.0
 10
18.213
 20
22.4082
 30
0.0
 10
18.213
 20
22.4082
 30
0.0
 10
18.213
 20
22.4082
 30
0.0
 10
18.213
 20
22.4082
 30
0.0
 10
17.9348
 20
23.1049
 30
0.0
 10
17.9348
 20
23.1049
 30
0.0
 10
17.9348
 20
23.1049
 30
0.0
 10
17.9348
 20
23.1049
 30
0.0
 10
17.4867
 20
23.7241
 30
0.0
 10
17.4867
 20
23.7241
 30
0.0
 10
17.4867
 20
23.7241
 30
0.0
 10
17.4867
 20
23.7241
 30
0.0
 10
16.9306
 20
24.1732
 30
0.0
 10
16.9306
 20
24.1732
 30
0.0
 10
16.9306
 20
24.1732
 30
0.0
 10
16.9306
 20
24.1732
 30
0.0
 10
16.3745
 20
24.4673
 30
0.0
 10
16.3745
 20
24.4673
 30
0.0
 10
16.3745
 20
24.4673
 30
0.0
 10
16.3745
 20
24.4673
 30
0.0
 10
15.6638
 20
24.6221
 30
0.0
 10
15.6638
 20
24.6221
 30
0.0
 10
15.6638
 20
24.6221
 30
0.0
 10
15.6638
 20
24.6221
 30
0.0
 10
15.2312
 20
24.6066
 30
0.0
 10
15.2312
 20
24.6066
 30
0.0
 10
15.2312
 20
24.6066
 30
0.0
 10
15.2312
 20
24.6066
 30
0.0
 10
11.446
 20
23.6002
 30
0.0
 10
11.446
 20
23.6002
 30
0.0
 10
11.446
 20
23.6002
 30
0.0
 10
11.446
 20
23.6002
 30
0.0
 10
11.4704
 20
23.5116
 30
0.0
 10
11.4704
 20
23.5116
 30
0.0
 10
11.4704
 20
23.5116
 30
0.0
 10
11.4704
 20
23.5116
 30
0.0
 10
12.9291
 20
18.2281
 30
0.0
 10
12.9291
 20
18.2281
 30
0.0
 10
12.9291
 20
18.2281
 30
0.0
 10
12.9291
 20
18.2281
 30
0.0
 10
14.1433
 20
18.5954
 30
0.0
 10
14.1433
 20
18.5954
 30
0.0
  0
SPLINE
  5
A2
330
1F
100
AcDbEntity
  8
DEFAULT_1
 62
   250
100
AcDbSpline
210
0.0
220
0.0
230
1.0
 70
    11
 71
     3
 72
    44
 73
    40
 74
     0
 42
0.0000000001
 43
0.0000000001
 40
0.0
 40
0.0
 40
0.0
 40
0.0
 40
0.0909090909090909
 40
0.0909090909090909
 40
0.0909090909090909
 40
0.0909090909090909
 40
0.1818181818181818
 40
0.1818181818181818
 40
0.1818181818181818
 40
0.1818181818181818
 40
0.2727272727272727
 40
0.2727272727272727
 40
0.2727272727272727
 40
0.2727272727272727
 40
0.3636363636363636
 40
0.3636363636363636
 40
0.3636363636363636
 40
0.3636363636363636
 40
0.4545454545454545
 40
0.4545454545454545
 40
0.4545454545454545
 40
0.4545454545454545
 40
0.5454545454545454
 40
0.5454545454545454
 40
0.5454545454545454
 40
0.5454545454545454
 40
0.6363636363636364
 40
0.6363636363636364
 40
0.6363636363636364
 40
0.6363636363636364
 40
0.7272727272727273
 40
0.7272727272727273
 40
0.7272727272727273
 40
0.7272727272727273
 40
0.8181818181818182
 40
0.8181818181818182
 40
0.8181818181818182
 40
0.8181818181818182
 40
1.0
 40
1.0
 40
1.0
 40
1.0
 10
14.6097
 20
15.9667
 30
0.0
 10
14.6097
 20
15.9667
 30
0.0
 10
14.8527
 20
16.0318
 30
0.0
 10
14.8527
 20
16.0318
 30
0.0
 10
14.8527
 20
16.0318
 30
0.0
 10
14.8527
 20
16.0318
 30
0.0
 10
14.0938
 20
17.5202
 30
0.0
 10
14.0938
 20
17.5202
 30
0.0
 10
14.0938
 20
17.5202
 30
0.0
 10
14.0938
 20
17.5202
 30
0.0
 10
14.8527
 20
16.0318
 30
0.0
 10
14.8527
 20
16.0318
 30
0.0
 10
14.8527
 20
16.0318
 30
0.0
 10
14.8527
 20
16.0318
 30
0.0
 10
19.5286
 20
17.2846
 30
0.0
 10
19.5286
 20
17.2846
 30
0.0
 10
19.5286
 20
17.2846
 30
0.0
 10
19.5286
 20
17.2846
 30
0.0
 10
19.4415
 20
18.9532
 30
0.0
 10
19.4415
 20
18.9532
 30
0.0
 10
19.4415
 20
18.9532
 30
0.0
 10
19.4415
 20
18.9532
 30
0.0
 10
19.5286
 20
17.2846
 30
0.0
 10
19.5286
 20
17.2846
 30
0.0
 10
19.5286
 20
17.2846
 30
0.0
 10
19.5286
 20
17.2846
 30
0.0
 10
19.7716
 20
17.3499
 30
0.0
 10
19.7716
 20
17.3499
 30
0.0
 10
19.7716
 20
17.3499
 30
0.0
 10
19.7716
 20
17.3499
 30
0.0
 10
19.5286
 20
17.2846
 30
0.0
 10
19.5286
 20
17.2846
 30
0.0
 10
19.5286
 20
17.2846
 30
0.0
 10
19.5286
 20
17.2846
 30
0.0
 10
14.8527
 20
16.0318
 30
0.0
 10
14.8527
 20
16.0318
 30
0.0
 10
14.8527
 20
16.0318
 30
0.0
 10
14.8527
 20
16.0318
 30
0.0
 10
14.6097
 20
15.9667
 30
0.0
 10
14.6097
 20
15.9667
 30
0.0
  0
SPLINE
  5
A3
330
1F
100
AcDbEntity
  8
DEFAULT_1
 62
   250
100
AcDbSpline
210
0.0
220
0.0
230
1.0
 70
    11
 71
     3
 72
    16
 73
    12
 74
     0
 42
0.0000000001
 43
0.0000000001
 40
0.0
 40
0.0
 40
0.0
 40
0.0
 40
0.25
 40
0.25
 40
0.25
 40
0.25
 40
0.5
 40
0.5
 40
0.5
 40
0.5
 40
1.0
 40
1.0
 40
1.0
 40
1.0
 10
11.4974
 20
23.5189
 30
0.0
 10
11.4974
 20
23.5189
 30
0.0
 10
11.4704
 20
23.5116
 30
0.0
 10
11.4704
 20
23.5116
 30
0.0
 10
11.4704
 20
23.5116
 30
0.0
 10
11.4704
 20
23.5116
 30
0.0
 10
11.0303
 20
23.3936
 30
0.0
 10
11.0303
 20
23.3936
 30
0.0
 10
11.0303
 20
23.3936
 30
0.0
 10
11.0303
 20
23.3936
 30
0.0
 10
11.4974
 20
23.5189
 30
0.0
 10
11.4974
 20
23.5189
 30
0.0
  0
SPLINE
  5
A4
330
1F
100
AcDbEntity
  8
DEFAULT_1
 62
   250
100
AcDbSpline
210
0.0
220
0.0
230
1.0
 70
    11
 71
     3
 72
    28
 73
    24
 74
     0
 42
0.0000000001
 43
0.0000000001
 40
0.0
 40
0.0
 40
0.0
 40
0.0
 40
0.1428571428571428
 40
0.1428571428571428
 40
0.1428571428571428
 40
0.1428571428571428
 40
0.2857142857142857
 40
0.2857142857142857
 40
0.2857142857142857
 40
0.2857142857142857
 40
0.4285714285714285
 40
0.4285714285714285
 40
0.4285714285714285
 40
0.4285714285714285
 40
0.5714285714285714
 40
0.5714285714285714
 40
0.5714285714285714
 40
0.5714285714285714
 40
0.7142857142857143
 40
0.7142857142857143
 40
0.7142857142857143
 40
0.7142857142857143
 40
1.0
 40
1.0
 40
1.0
 40
1.0
 10
19.1115
 20
18.9254
 30
0.0
 10
19.1115
 20
18.9254
 30
0.0
 10
18.1904
 20
22.3629
 30
0.0
 10
18.1904
 20
22.3629
 30
0.0
 10
18.1904
 20
22.3629
 30
0.0
 10
18.1904
 20
22.3629
 30
0.0
 10
18.1414
 20
22.5455
 30
0.0
 10
18.1414
 20
22.5455
 30
0.0
 10
18.1414
 20
22.5455
 30
0.0
 10
18.1414
 20
22.5455
 30
0.0
 10
18.1904
 20
22.3629
 30
0.0
 10
18.1904
 20
22.3629
 30
0.0
 10
18.1904
 20
22.3629
 30
0.0
 10
18.1904
 20
22.3629
 30
0.0
 10
19.1115
 20
18.9254
 30
0.0
 10
19.1115
 20
18.9254
 30
0.0
 10
19.1115
 20
18.9254
 30
0.0
 10
19.1115
 20
18.9254
 30
0.0
 10
19.3807
 20
18.9975
 30
0.0
 10
19.3807
 20
18.9975
 30
0.0
 10
19.3807
 20
18.9975
 30
0.0
 10
19.3807
 20
18.9975
 30
0.0
 10
19.1115
 20
18.9254
 30
0.0
 10
19.1115
 20
18.9254
 30
0.0
  0
SPLINE
  5
A5
330
1F
100
AcDbEntity
  8
DEFAULT_1
 62
   250
100
AcDbSpline
210
0.0
220
0.0
230
1.0
 70
    27
 71
     3
 72
    12
 73
     8
 74
     0
 42
0.0000000001
 43
0.0000000001
 40
0.0
 40
0.0
 40
0.0
 40
0.0
 40
0.3333333333333333
 40
0.3333333333333333
 40
0.3333333333333333
 40
0.3333333333333333
 40
1.0
 40
1.0
 40
1.0
 40
1.0
 10
14.3937
 20
17.6612
 30
0.0
 10
14.3937
 20
17.6612
 30
0.0
 10
14.1433
 20
18.5954
 30
0.0
 10
14.1433
 20
18.5954
 30
0.0
 10
14.1433
 20
18.5954
 30
0.0
 10
14.1433
 20
18.5954
 30
0.0
 10
14.3937
 20
17.6612
 30
0.0
 10
14.3937
 20
17.6612
 30
0.0
  0
SPLINE
  5
A6
330
1F
100
AcDbEntity
  8
DEFAULT_1
 62
   250
100
AcDbSpline
210
0.0
220
0.0
230
1.0
 70
    27
 71
     3
 72
    12
 73
     8
 74
     0
 42
0.0000000001
 43
0.0000000001
 40
0.0
 40
0.0
 40
0.0
 40
0.0
 40
0.3333333333333333
 40
0.3333333333333333
 40
0.3333333333333333
 40
0.3333333333333333
 40
1.0
 40
1.0
 40
1.0
 40
1.0
 10
12.8742
 20
18.3804
 30
0.0
 10
12.8742
 20
18.3804
 30
0.0
 10
12.4071
 20
18.2553
 30
0.0
 10
12.4071
 20
18.2553
 30
0.0
 10
12.4071
 20
18.2553
 30
0.0
 10
12.4071
 20
18.2553
 30
0.0
 10
12.8742
 20
18.3804
 30
0.0
 10
12.8742
 20
18.3804
 30
0.0
  0
SPLINE
  5
A7
330
1F
100
AcDbEntity
  8
DEFAULT_1
 62
   250
100
AcDbSpline
210
0.0
220
0.0
230
1.0
 70
    11
 71
     3
 72
    68
 73
    64
 74
     0
 42
0.0000000001
 43
0.0000000001
 40
0.0
 40
0.0
 40
0.0
 40
0.0
 40
0.0588235294117647
 40
0.0588235294117647
 40
0.0588235294117647
 40
0.0588235294117647
 40
0.1176470588235294
 40
0.1176470588235294
 40
0.1176470588235294
 40
0.1176470588235294
 40
0.1764705882352941
 40
0.1764705882352941
 40
0.1764705882352941
 40
0.1764705882352941
 40
0.2352941176470588
 40
0.2352941176470588
 40
0.2352941176470588
 40
0.2352941176470588
 40
0.2941176470588235
 40
0.2941176470588235
 40
0.2941176470588235
 40
0.2941176470588235
 40
0.3529411764705883
 40
0.3529411764705883
 40
0.3529411764705883
 40
0.3529411764705883
 40
0.4117647058823529
 40
0.4117647058823529
 40
0.4117647058823529
 40
0.4117647058823529
 40
0.4705882352941176
 40
0.4705882352941176
 40
0.4705882352941176
 40
0.4705882352941176
 40
0.5294117647058824
 40
0.5294117647058824
 40
0.5294117647058824
 40
0.5294117647058824
 40
0.5882352941176471
 40
0.5882352941176471
 40
0.5882352941176471
 40
0.5882352941176471
 40
0.6470588235294118
 40
0.6470588235294118
 40
0.6470588235294118
 40
0.6470588235294118
 40
0.7058823529411765
 40
0.7058823529411765
 40
0.7058823529411765
 40
0.7058823529411765
 40
0.7647058823529411
 40
0.7647058823529411
 40
0.7647058823529411
 40
0.7647058823529411
 40
0.8235294117647058
 40
0.8235294117647058
 40
0.8235294117647058
 40
0.8235294117647058
 40
0.8823529411764706
 40
0.8823529411764706
 40
0.8823529411764706
 40
0.8823529411764706
 40
1.0
 40
1.0
 40
1.0
 40
1.0
 10
21.0185
 20
10.4187
 30
0.0
 10
21.0185
 20
10.4187
 30
0.0
 10
21.0152
 20
10.4331
 30
0.0
 10
21.0152
 20
10.4331
 30
0.0
 10
21.0152
 20
10.4331
 30
0.0
 10
21.0152
 20
10.4331
 30
0.0
 10
20.5834
 20
12.3106
 30
0.0
 10
20.5834
 20
12.3106
 30
0.0
 10
20.5834
 20
12.3106
 30
0.0
 10
20.5834
 20
12.3106
 30
0.0
 10
20.5508
 20
12.3017
 30
0.0
 10
20.5508
 20
12.3017
 30
0.0
 10
20.5508
 20
12.3017
 30
0.0
 10
20.5508
 20
12.3017
 30
0.0
 10
20.2855
 20
13.983
 30
0.0
 10
20.2855
 20
13.983
 30
0.0
 10
20.2855
 20
13.983
 30
0.0
 10
20.2855
 20
13.983
 30
0.0
 10
20.171
 20
13.9523
 30
0.0
 10
20.171
 20
13.9523
 30
0.0
 10
20.171
 20
13.9523
 30
0.0
 10
20.171
 20
13.9523
 30
0.0
 10
20.0225
 20
15.6648
 30
0.0
 10
20.0225
 20
15.6648
 30
0.0
 10
20.0225
 20
15.6648
 30
0.0
 10
20.0225
 20
15.6648
 30
0.0
 10
19.9059
 20
15.6335
 30
0.0
 10
19.9059
 20
15.6335
 30
0.0
 10
19.9059
 20
15.6335
 30
0.0
 10
19.9059
 20
15.6335
 30
0.0
 10
19.8324
 20
17.3054
 30
0.0
 10
19.8324
 20
17.3054
 30
0.0
 10
19.8324
 20
17.3054
 30
0.0
 10
19.8324
 20
17.3054
 30
0.0
 10
19.9059
 20
15.6335
 30
0.0
 10
19.9059
 20
15.6335
 30
0.0
 10
19.9059
 20
15.6335
 30
0.0
 10
19.9059
 20
15.6335
 30
0.0
 10
20.0225
 20
15.6648
 30
0.0
 10
20.0225
 20
15.6648
 30
0.0
 10
20.0225
 20
15.6648
 30
0.0
 10
20.0225
 20
15.6648
 30
0.0
 10
20.171
 20
13.9523
 30
0.0
 10
20.171
 20
13.9523
 30
0.0
 10
20.171
 20
13.9523
 30
0.0
 10
20.171
 20
13.9523
 30
0.0
 10
20.2855
 20
13.983
 30
0.0
 10
20.2855
 20
13.983
 30
0.0
 10
20.2855
 20
13.983
 30
0.0
 10
20.2855
 20
13.983
 30
0.0
 10
20.5508
 20
12.3017
 30
0.0
 10
20.5508
 20
12.3017
 30
0.0
 10
20.5508
 20
12.3017
 30
0.0
 10
20.5508
 20
12.3017
 30
0.0
 10
20.5834
 20
12.3106
 30
0.0
 10
20.5834
 20
12.3106
 30
0.0
 10
20.5834
 20
12.3106
 30
0.0
 10
20.5834
 20
12.3106
 30
0.0
 10
21.0152
 20
10.4331
 30
0.0
 10
21.0152
 20
10.4331
 30
0.0
 10
21.0152
 20
10.4331
 30
0.0
 10
21.0152
 20
10.4331
 30
0.0
 10
21.0185
 20
10.4187
 30
0.0
 10
21.0185
 20
10.4187
 30
0.0
  0
SPLINE
  5
A8
330
1F
100
AcDbEntity
  8
DEFAULT_1
 62
   250
100
AcDbSpline
210
0.0
220
0.0
230
1.0
 70
    27
 71
     3
 72
    12
 73
     8
 74
     0
 42
0.0000000001
 43
0.0000000001
 40
0.0
 40
0.0
 40
0.0
 40
0.0
 40
0.3333333333333333
 40
0.3333333333333333
 40
0.3333333333333333
 40
0.3333333333333333
 40
1.0
 40
1.0
 40
1.0
 40
1.0
 10
14.1243
 20
17.5889
 30
0.0
 10
14.1243
 20
17.5889
 30
0.0
 10
19.1115
 20
18.9254
 30
0.0
 10
19.1115
 20
18.9254
 30
0.0
 10
19.1115
 20
18.9254
 30
0.0
 10
19.1115
 20
18.9254
 30
0.0
 10
14.1243
 20
17.5889
 30
0.0
 10
14.1243
 20
17.5889
 30
0.0
  0
SPLINE
  5
A9
330
1F
100
AcDbEntity
  8
DEFAULT_1
 62
   250
100
AcDbSpline
210
0.0
220
0.0
230
1.0
 70
    11
 71
     3
 72
    20
 73
    16
 74
     0
 42
0.0000000001
 43
0.0000000001
 40
0.0
 40
0.0
 40
0.0
 40
0.0
 40
0.2
 40
0.2
 40
0.2
 40
0.2
 40
0.4
 40
0.4
 40
0.4
 40
0.4
 40
0.6
 40
0.6
 40
0.6
 40
0.6
 40
1.0
 40
1.0
 40
1.0
 40
1.0
 10
15.3515
 20
14.4131
 30
0.0
 10
15.3515
 20
14.4131
 30
0.0
 10
14.5792
 20
15.8977
 30
0.0
 10
14.5792
 20
15.8977
 30
0.0
 10
14.5792
 20
15.8977
 30
0.0
 10
14.5792
 20
15.8977
 30
0.0
 10
15.3515
 20
14.4131
 30
0.0
 10
15.3515
 20
14.4131
 30
0.0
 10
15.3515
 20
14.4131
 30
0.0
 10
15.3515
 20
14.4131
 30
0.0
 10
19.9059
 20
15.6335
 30
0.0
 10
19.9059
 20
15.6335
 30
0.0
 10
19.9059
 20
15.6335
 30
0.0
 10
19.9059
 20
15.6335
 30
0.0
 10
15.3515
 20
14.4131
 30
0.0
 10
15.3515
 20
14.4131
 30
0.0
  0
SPLINE
  5
AA
330
1F
100
AcDbEntity
  8
DEFAULT_1
 62
   250
100
AcDbSpline
210
0.0
220
0.0
230
1.0
 70
    11
 71
     3
 72
    20
 73
    16
 74
     0
 42
0.0000000001
 43
0.0000000001
 40
0.0
 40
0.0
 40
0.0
 40
0.0
 40
0.2
 40
0.2
 40
0.2
 40
0.2
 40
0.4
 40
0.4
 40
0.4
 40
0.4
 40
0.6
 40
0.6
 40
0.6
 40
0.6
 40
1.0
 40
1.0
 40
1.0
 40
1.0
 10
15.9624
 20
12.8247
 30
0.0
 10
15.9624
 20
12.8247
 30
0.0
 10
15.2346
 20
14.3818
 30
0.0
 10
15.2346
 20
14.3818
 30
0.0
 10
15.2346
 20
14.3818
 30
0.0
 10
15.2346
 20
14.3818
 30
0.0
 10
15.3515
 20
14.4131
 30
0.0
 10
15.3515
 20
14.4131
 30
0.0
 10
15.3515
 20
14.4131
 30
0.0
 10
15.3515
 20
14.4131
 30
0.0
 10
15.2346
 20
14.3818
 30
0.0
 10
15.2346
 20
14.3818
 30
0.0
 10
15.2346
 20
14.3818
 30
0.0
 10
15.2346
 20
14.3818
 30
0.0
 10
15.9624
 20
12.8247
 30
0.0
 10
15.9624
 20
12.8247
 30
0.0
  0
SPLINE
  5
AB
330
1F
100
AcDbEntity
  8
DEFAULT_1
 62
   250
100
AcDbSpline
210
0.0
220
0.0
230
1.0
 70
    11
 71
     3
 72
    20
 73
    16
 74
     0
 42
0.0000000001
 43
0.0000000001
 40
0.0
 40
0.0
 40
0.0
 40
0.0
 40
0.2
 40
0.2
 40
0.2
 40
0.2
 40
0.4
 40
0.4
 40
0.4
 40
0.4
 40
0.6
 40
0.6
 40
0.6
 40
0.6
 40
1.0
 40
1.0
 40
1.0
 40
1.0
 10
16.4589
 20
11.2054
 30
0.0
 10
16.4589
 20
11.2054
 30
0.0
 10
15.8479
 20
12.794
 30
0.0
 10
15.8479
 20
12.794
 30
0.0
 10
15.8479
 20
12.794
 30
0.0
 10
15.8479
 20
12.794
 30
0.0
 10
20.171
 20
13.9523
 30
0.0
 10
20.171
 20
13.9523
 30
0.0
 10
20.171
 20
13.9523
 30
0.0
 10
20.171
 20
13.9523
 30
0.0
 10
15.8479
 20
12.794
 30
0.0
 10
15.8479
 20
12.794
 30
0.0
 10
15.8479
 20
12.794
 30
0.0
 10
15.8479
 20
12.794
 30
0.0
 10
16.4589
 20
11.2054
 30
0.0
 10
16.4589
 20
11.2054
 30
0.0
  0
SPLINE
  5
AC
330
1F
100
AcDbEntity
  8
DEFAULT_1
 62
   250
100
AcDbSpline
210
0.0
220
0.0
230
1.0
 70
    11
 71
     3
 72
    20
 73
    16
 74
     0
 42
0.0000000001
 43
0.0000000001
 40
0.0
 40
0.0
 40
0.0
 40
0.0
 40
0.2
 40
0.2
 40
0.2
 40
0.2
 40
0.4
 40
0.4
 40
0.4
 40
0.4
 40
0.6
 40
0.6
 40
0.6
 40
0.6
 40
1.0
 40
1.0
 40
1.0
 40
1.0
 10
16.9805
 20
9.3885
 30
0.0
 10
16.9805
 20
9.3885
 30
0.0
 10
16.4261
 20
11.1966
 30
0.0
 10
16.4261
 20
11.1966
 30
0.0
 10
16.4261
 20
11.1966
 30
0.0
 10
16.4261
 20
11.1966
 30
0.0
 10
20.5508
 20
12.3017
 30
0.0
 10
20.5508
 20
12.3017
 30
0.0
 10
20.5508
 20
12.3017
 30
0.0
 10
20.5508
 20
12.3017
 30
0.0
 10
16.4261
 20
11.1966
 30
0.0
 10
16.4261
 20
11.1966
 30
0.0
 10
16.4261
 20
11.1966
 30
0.0
 10
16.4261
 20
11.1966
 30
0.0
 10
16.9805
 20
9.3885
 30
0.0
 10
16.9805
 20
9.3885
 30
0.0
  0
SPLINE
  5
AD
330
1F
100
AcDbEntity
  8
DEFAULT_1
 62
   250
100
AcDbSpline
210
0.0
220
0.0
230
1.0
 70
     8
 71
     3
 72
    48
 73
    44
 74
     0
 42
0.0000000001
 43
0.0000000001
 40
0.0
 40
0.0
 40
0.0
 40
0.0
 40
0.0833333333333333
 40
0.0833333333333333
 40
0.0833333333333333
 40
0.0833333333333333
 40
0.1666666666666667
 40
0.1666666666666667
 40
0.1666666666666667
 40
0.1666666666666667
 40
0.25
 40
0.25
 40
0.25
 40
0.25
 40
0.3333333333333333
 40
0.3333333333333333
 40
0.3333333333333333
 40
0.3333333333333333
 40
0.4166666666666667
 40
0.4166666666666667
 40
0.4166666666666667
 40
0.4166666666666667
 40
0.5
 40
0.5
 40
0.5
 40
0.5
 40
0.5833333333333334
 40
0.5833333333333334
 40
0.5833333333333334
 40
0.5833333333333334
 40
0.6666666666666666
 40
0.6666666666666666
 40
0.6666666666666666
 40
0.6666666666666666
 40
0.75
 40
0.75
 40
0.75
 40
0.75
 40
0.8333333333333334
 40
0.8333333333333334
 40
0.8333333333333334
 40
0.8333333333333334
 40
1.0
 40
1.0
 40
1.0
 40
1.0
 10
10.0625
 20
25.137
 30
0.0
 10
10.3206
 20
25.2061
 30
0.0
 10
10.5857
 20
25.053
 30
0.0
 10
10.6547
 20
24.795
 30
0.0
 10
10.6547
 20
24.795
 30
0.0
 10
10.6547
 20
24.795
 30
0.0
 10
12.762
 20
16.8033
 30
0.0
 10
12.762
 20
16.8033
 30
0.0
 10
12.762
 20
16.8033
 30
0.0
 10
12.762
 20
16.8033
 30
0.0
 10
12.762
 20
16.6412
 30
0.0
 10
12.762
 20
16.6412
 30
0.0
 10
12.762
 20
16.6412
 30
0.0
 10
12.762
 20
16.6412
 30
0.0
 10
12.7031
 20
16.5087
 30
0.0
 10
12.7031
 20
16.5087
 30
0.0
 10
12.7031
 20
16.5087
 30
0.0
 10
12.7031
 20
16.5087
 30
0.0
 10
12.5707
 20
16.3466
 30
0.0
 10
12.5707
 20
16.3466
 30
0.0
 10
12.5707
 20
16.3466
 30
0.0
 10
12.5707
 20
16.3466
 30
0.0
 10
12.4825
 20
16.3318
 30
0.0
 10
12.4825
 20
16.3318
 30
0.0
 10
12.4825
 20
16.3318
 30
0.0
 10
12.4825
 20
16.3318
 30
0.0
 10
12.5707
 20
16.1549
 30
0.0
 10
12.5707
 20
16.1549
 30
0.0
 10
12.5707
 20
16.1549
 30
0.0
 10
12.5707
 20
16.1549
 30
0.0
 10
9.0263
 20
15.1675
 30
0.0
 10
9.0263
 20
15.1675
 30
0.0
 10
9.0263
 20
15.1675
 30
0.0
 10
9.0263
 20
15.1675
 30
0.0
 10
6.5262
 20
24.3196
 30
0.0
 10
6.5262
 20
24.3196
 30
0.0
 10
6.5262
 20
24.3196
 30
0.0
 10
6.5262
 20
24.3196
 30
0.0
 10
10.1588
 20
25.2628
 30
0.0
 10
10.1588
 20
25.2628
 30
0.0
 10
10.1588
 20
25.2628
 30
0.0
 10
10.1588
 20
25.2628
 30
0.0
 10
10.203
 20
25.086
 30
0.0
 10
10.203
 20
25.086
 30
0.0
  0
SPLINE
  5
AE
330
1F
100
AcDbEntity
  8
DEFAULT_1
 62
   250
100
AcDbSpline
210
0.0
220
0.0
230
1.0
 70
     8
 71
     3
 72
   132
 73
   128
 74
     0
 42
0.0000000001
 43
0.0000000001
 40
0.0
 40
0.0
 40
0.0
 40
0.0
 40
0.0303030303030303
 40
0.0303030303030303
 40
0.0303030303030303
 40
0.0303030303030303
 40
0.0606060606060606
 40
0.0606060606060606
 40
0.0606060606060606
 40
0.0606060606060606
 40
0.0909090909090909
 40
0.0909090909090909
 40
0.0909090909090909
 40
0.0909090909090909
 40
0.1212121212121212
 40
0.1212121212121212
 40
0.1212121212121212
 40
0.1212121212121212
 40
0.1515151515151515
 40
0.1515151515151515
 40
0.1515151515151515
 40
0.1515151515151515
 40
0.1818181818181818
 40
0.1818181818181818
 40
0.1818181818181818
 40
0.1818181818181818
 40
0.2121212121212121
 40
0.2121212121212121
 40
0.2121212121212121
 40
0.2121212121212121
 40
0.2424242424242424
 40
0.2424242424242424
 40
0.2424242424242424
 40
0.2424242424242424
 40
0.2727272727272727
 40
0.2727272727272727
 40
0.2727272727272727
 40
0.2727272727272727
 40
0.303030303030303
 40
0.303030303030303
 40
0.303030303030303
 40
0.303030303030303
 40
0.3333333333333333
 40
0.3333333333333333
 40
0.3333333333333333
 40
0.3333333333333333
 40
0.3636363636363636
 40
0.3636363636363636
 40
0.3636363636363636
 40
0.3636363636363636
 40
0.3939393939393939
 40
0.3939393939393939
 40
0.3939393939393939
 40
0.3939393939393939
 40
0.4242424242424243
 40
0.4242424242424243
 40
0.4242424242424243
 40
0.4242424242424243
 40
0.4545454545454545
 40
0.4545454545454545
 40
0.4545454545454545
 40
0.4545454545454545
 40
0.4848484848484849
 40
0.4848484848484849
 40
0.4848484848484849
 40
0.4848484848484849
 40
0.5151515151515151
 40
0.5151515151515151
 40
0.5151515151515151
 40
0.5151515151515151
 40
0.5454545454545454
 40
0.5454545454545454
 40
0.5454545454545454
 40
0.5454545454545454
 40
0.5757575757575758
 40
0.5757575757575758
 40
0.5757575757575758
 40
0.5757575757575758
 40
0.6060606060606061
 40
0.6060606060606061
 40
0.6060606060606061
 40
0.6060606060606061
 40
0.6363636363636364
 40
0.6363636363636364
 40
0.6363636363636364
 40
0.6363636363636364
 40
0.6666666666666666
 40
0.6666666666666666
 40
0.6666666666666666
 40
0.6666666666666666
 40
0.696969696969697
 40
0.696969696969697
 40
0.696969696969697
 40
0.696969696969697
 40
0.7272727272727273
 40
0.7272727272727273
 40
0.7272727272727273
 40
0.7272727272727273
 40
0.7575757575757576
 40
0.7575757575757576
 40
0.7575757575757576
 40
0.7575757575757576
 40
0.7878787878787878
 40
0.7878787878787878
 40
0.7878787878787878
 40
0.7878787878787878
 40
0.8181818181818182
 40
0.8181818181818182
 40
0.8181818181818182
 40
0.8181818181818182
 40
0.8484848484848485
 40
0.8484848484848485
 40
0.8484848484848485
 40
0.8484848484848485
 40
0.8787878787878788
 40
0.8787878787878788
 40
0.8787878787878788
 40
0.8787878787878788
 40
0.9090909090909091
 40
0.9090909090909091
 40
0.9090909090909091
 40
0.9090909090909091
 40
0.9393939393939394
 40
0.9393939393939394
 40
0.9393939393939394
 40
0.9393939393939394
 40
1.0
 40
1.0
 40
1.0
 40
1.0
 10
7.2267
 20
24.5149
 30
0.0
 10
7.2267
 20
24.5149
 30
0.0
 10
7.5009
 20
23.4577
 30
0.0
 10
7.5009
 20
23.4577
 30
0.0
 10
7.5009
 20
23.4577
 30
0.0
 10
7.5009
 20
23.4577
 30
0.0
 10
9.8375
 20
24.108
 30
0.0
 10
9.8375
 20
24.108
 30
0.0
 10
9.8375
 20
24.108
 30
0.0
 10
9.8375
 20
24.108
 30
0.0
 10
9.9515
 20
24.1293
 30
0.0
 10
9.9515
 20
24.1293
 30
0.0
 10
9.9515
 20
24.1293
 30
0.0
 10
9.9515
 20
24.1293
 30
0.0
 10
10.0635
 20
24.132
 30
0.0
 10
10.0635
 20
24.132
 30
0.0
 10
10.0635
 20
24.132
 30
0.0
 10
10.0635
 20
24.132
 30
0.0
 10
10.1675
 20
24.1155
 30
0.0
 10
10.1675
 20
24.1155
 30
0.0
 10
10.1675
 20
24.1155
 30
0.0
 10
10.1675
 20
24.1155
 30
0.0
 10
10.2573
 20
24.0798
 30
0.0
 10
10.2573
 20
24.0798
 30
0.0
 10
10.2573
 20
24.0798
 30
0.0
 10
10.2573
 20
24.0798
 30
0.0
 10
10.3277
 20
24.0265
 30
0.0
 10
10.3277
 20
24.0265
 30
0.0
 10
10.3277
 20
24.0265
 30
0.0
 10
10.3277
 20
24.0265
 30
0.0
 10
10.3747
 20
23.9584
 30
0.0
 10
10.3747
 20
23.9584
 30
0.0
 10
10.3747
 20
23.9584
 30
0.0
 10
10.3747
 20
23.9584
 30
0.0
 10
10.3887
 20
23.9198
 30
0.0
 10
10.3887
 20
23.9198
 30
0.0
 10
10.3887
 20
23.9198
 30
0.0
 10
10.3887
 20
23.9198
 30
0.0
 10
10.3785
 20
23.7186
 30
0.0
 10
10.3785
 20
23.7186
 30
0.0
 10
10.3785
 20
23.7186
 30
0.0
 10
10.3785
 20
23.7186
 30
0.0
 10
10.2551
 20
23.5948
 30
0.0
 10
10.2551
 20
23.5948
 30
0.0
 10
10.2551
 20
23.5948
 30
0.0
 10
10.2551
 20
23.5948
 30
0.0
 10
10.0771
 20
23.4713
 30
0.0
 10
10.0771
 20
23.4713
 30
0.0
 10
10.0771
 20
23.4713
 30
0.0
 10
10.0771
 20
23.4713
 30
0.0
 10
7.6791
 20
22.826
 30
0.0
 10
7.6791
 20
22.826
 30
0.0
 10
7.6791
 20
22.826
 30
0.0
 10
7.6791
 20
22.826
 30
0.0
 10
8.323
 20
20.3816
 30
0.0
 10
8.323
 20
20.3816
 30
0.0
 10
8.323
 20
20.3816
 30
0.0
 10
8.323
 20
20.3816
 30
0.0
 10
10.8034
 20
21.0546
 30
0.0
 10
10.8034
 20
21.0546
 30
0.0
 10
10.8034
 20
21.0546
 30
0.0
 10
10.8034
 20
21.0546
 30
0.0
 10
11.1048
 20
20.9446
 30
0.0
 10
11.1048
 20
20.9446
 30
0.0
 10
11.1048
 20
20.9446
 30
0.0
 10
11.1048
 20
20.9446
 30
0.0
 10
11.2281
 20
20.7799
 30
0.0
 10
11.2281
 20
20.7799
 30
0.0
 10
11.2281
 20
20.7799
 30
0.0
 10
11.2281
 20
20.7799
 30
0.0
 10
11.2693
 20
20.5876
 30
0.0
 10
11.2693
 20
20.5876
 30
0.0
 10
11.2693
 20
20.5876
 30
0.0
 10
11.2693
 20
20.5876
 30
0.0
 10
11.2281
 20
20.409
 30
0.0
 10
11.2281
 20
20.409
 30
0.0
 10
11.2281
 20
20.409
 30
0.0
 10
11.2281
 20
20.409
 30
0.0
 10
11.2145
 20
20.2443
 30
0.0
 10
11.2145
 20
20.2443
 30
0.0
 10
11.2145
 20
20.2443
 30
0.0
 10
11.2145
 20
20.2443
 30
0.0
 10
11.1048
 20
20.1481
 30
0.0
 10
11.1048
 20
20.1481
 30
0.0
 10
11.1048
 20
20.1481
 30
0.0
 10
11.1048
 20
20.1481
 30
0.0
 10
8.5834
 20
19.4616
 30
0.0
 10
8.5834
 20
19.4616
 30
0.0
 10
8.5834
 20
19.4616
 30
0.0
 10
8.5834
 20
19.4616
 30
0.0
 10
9.2275
 20
17.0446
 30
0.0
 10
9.2275
 20
17.0446
 30
0.0
 10
9.2275
 20
17.0446
 30
0.0
 10
9.2275
 20
17.0446
 30
0.0
 10
11.6256
 20
17.7314
 30
0.0
 10
11.6256
 20
17.7314
 30
0.0
 10
11.6256
 20
17.7314
 30
0.0
 10
11.6256
 20
17.7314
 30
0.0
 10
11.8448
 20
17.7176
 30
0.0
 10
11.8448
 20
17.7176
 30
0.0
 10
11.8448
 20
17.7176
 30
0.0
 10
11.8448
 20
17.7176
 30
0.0
 10
12.023
 20
17.6627
 30
0.0
 10
12.023
 20
17.6627
 30
0.0
 10
12.023
 20
17.6627
 30
0.0
 10
12.023
 20
17.6627
 30
0.0
 10
12.1464
 20
17.5528
 30
0.0
 10
12.1464
 20
17.5528
 30
0.0
 10
12.1464
 20
17.5528
 30
0.0
 10
12.1464
 20
17.5528
 30
0.0
 10
12.1464
 20
17.3742
 30
0.0
 10
12.1464
 20
17.3742
 30
0.0
 10
12.1464
 20
17.3742
 30
0.0
 10
12.1464
 20
17.3742
 30
0.0
 10
12.0641
 20
17.182
 30
0.0
 10
12.0641
 20
17.182
 30
0.0
 10
12.0641
 20
17.182
 30
0.0
 10
12.0641
 20
17.182
 30
0.0
 10
11.7215
 20
17.031
 30
0.0
 10
11.7215
 20
17.031
 30
0.0
 10
11.7215
 20
17.031
 30
0.0
 10
11.7215
 20
17.031
 30
0.0
 10
9.3783
 20
16.3855
 30
0.0
 10
9.3783
 20
16.3855
 30
0.0
 10
9.3783
 20
16.3855
 30
0.0
 10
9.3783
 20
16.3855
 30
0.0
 10
9.644
 20
15.4033
 30
0.0
 10
9.644
 20
15.4033
 30
0.0
  0
SPLINE
  5
AF
330
1F
100
AcDbEntity
  8
DEFAULT_1
 62
   250
100
AcDbSpline
210
0.0
220
0.0
230
1.0
 70
     8
 71
     3
 72
    92
 73
    88
 74
     0
 42
0.0000000001
 43
0.0000000001
 40
0.0
 40
0.0
 40
0.0
 40
0.0
 40
0.0434782608695652
 40
0.0434782608695652
 40
0.0434782608695652
 40
0.0434782608695652
 40
0.0869565217391304
 40
0.0869565217391304
 40
0.0869565217391304
 40
0.0869565217391304
 40
0.1304347826086956
 40
0.1304347826086956
 40
0.1304347826086956
 40
0.1304347826086956
 40
0.1739130434782609
 40
0.1739130434782609
 40
0.1739130434782609
 40
0.1739130434782609
 40
0.2173913043478261
 40
0.2173913043478261
 40
0.2173913043478261
 40
0.2173913043478261
 40
0.2608695652173913
 40
0.2608695652173913
 40
0.2608695652173913
 40
0.2608695652173913
 40
0.3043478260869565
 40
0.3043478260869565
 40
0.3043478260869565
 40
0.3043478260869565
 40
0.3478260869565217
 40
0.3478260869565217
 40
0.3478260869565217
 40
0.3478260869565217
 40
0.391304347826087
 40
0.391304347826087
 40
0.391304347826087
 40
0.391304347826087
 40
0.4347826086956522
 40
0.4347826086956522
 40
0.4347826086956522
 40
0.4347826086956522
 40
0.4782608695652174
 40
0.4782608695652174
 40
0.4782608695652174
 40
0.4782608695652174
 40
0.5217391304347826
 40
0.5217391304347826
 40
0.5217391304347826
 40
0.5217391304347826
 40
0.5652173913043478
 40
0.5652173913043478
 40
0.5652173913043478
 40
0.5652173913043478
 40
0.6086956521739131
 40
0.6086956521739131
 40
0.6086956521739131
 40
0.6086956521739131
 40
0.6521739130434783
 40
0.6521739130434783
 40
0.6521739130434783
 40
0.6521739130434783
 40
0.6956521739130435
 40
0.6956521739130435
 40
0.6956521739130435
 40
0.6956521739130435
 40
0.7391304347826086
 40
0.7391304347826086
 40
0.7391304347826086
 40
0.7391304347826086
 40
0.782608695652174
 40
0.782608695652174
 40
0.782608695652174
 40
0.782608695652174
 40
0.8260869565217391
 40
0.8260869565217391
 40
0.8260869565217391
 40
0.8260869565217391
 40
0.8695652173913043
 40
0.8695652173913043
 40
0.8695652173913043
 40
0.8695652173913043
 40
0.9130434782608695
 40
0.9130434782608695
 40
0.9130434782608695
 40
0.9130434782608695
 40
1.0
 40
1.0
 40
1.0
 40
1.0
 10
6.1977
 20
22.9097
 30
0.0
 10
6.1977
 20
22.9097
 30
0.0
 10
2.5474
 20
21.9653
 30
0.0
 10
2.5474
 20
21.9653
 30
0.0
 10
2.5474
 20
21.9653
 30
0.0
 10
2.5474
 20
21.9653
 30
0.0
 10
2.5221
 20
21.9223
 30
0.0
 10
2.5221
 20
21.9223
 30
0.0
 10
2.5221
 20
21.9223
 30
0.0
 10
2.5221
 20
21.9223
 30
0.0
 10
2.465
 20
21.8232
 30
0.0
 10
2.465
 20
21.8232
 30
0.0
 10
2.465
 20
21.8232
 30
0.0
 10
2.465
 20
21.8232
 30
0.0
 10
2.4361
 20
21.7732
 30
0.0
 10
2.4361
 20
21.7732
 30
0.0
 10
2.4361
 20
21.7732
 30
0.0
 10
2.4361
 20
21.7732
 30
0.0
 10
2.2902
 20
21.5146
 30
0.0
 10
2.2902
 20
21.5146
 30
0.0
 10
2.2902
 20
21.5146
 30
0.0
 10
2.2902
 20
21.5146
 30
0.0
 10
2.0963
 20
21.1585
 30
0.0
 10
2.0963
 20
21.1585
 30
0.0
 10
2.0963
 20
21.1585
 30
0.0
 10
2.0963
 20
21.1585
 30
0.0
 10
1.8774
 20
20.7321
 30
0.0
 10
1.8774
 20
20.7321
 30
0.0
 10
1.8774
 20
20.7321
 30
0.0
 10
1.8774
 20
20.7321
 30
0.0
 10
1.6564
 20
20.2622
 30
0.0
 10
1.6564
 20
20.2622
 30
0.0
 10
1.6564
 20
20.2622
 30
0.0
 10
1.6564
 20
20.2622
 30
0.0
 10
1.4438
 20
19.7484
 30
0.0
 10
1.4438
 20
19.7484
 30
0.0
 10
1.4438
 20
19.7484
 30
0.0
 10
1.4438
 20
19.7484
 30
0.0
 10
1.2589
 20
19.1996
 30
0.0
 10
1.2589
 20
19.1996
 30
0.0
 10
1.2589
 20
19.1996
 30
0.0
 10
1.2589
 20
19.1996
 30
0.0
 10
1.1247
 20
18.6337
 30
0.0
 10
1.1247
 20
18.6337
 30
0.0
 10
1.1247
 20
18.6337
 30
0.0
 10
1.1247
 20
18.6337
 30
0.0
 10
1.061
 20
18.0693
 30
0.0
 10
1.061
 20
18.0693
 30
0.0
 10
1.061
 20
18.0693
 30
0.0
 10
1.061
 20
18.0693
 30
0.0
 10
1.0767
 20
17.5319
 30
0.0
 10
1.0767
 20
17.5319
 30
0.0
 10
1.0767
 20
17.5319
 30
0.0
 10
1.0767
 20
17.5319
 30
0.0
 10
1.1665
 20
17.0272
 30
0.0
 10
1.1665
 20
17.0272
 30
0.0
 10
1.1665
 20
17.0272
 30
0.0
 10
1.1665
 20
17.0272
 30
0.0
 10
1.3174
 20
16.5589
 30
0.0
 10
1.3174
 20
16.5589
 30
0.0
 10
1.3174
 20
16.5589
 30
0.0
 10
1.3174
 20
16.5589
 30
0.0
 10
1.5115
 20
16.1305
 30
0.0
 10
1.5115
 20
16.1305
 30
0.0
 10
1.5115
 20
16.1305
 30
0.0
 10
1.5115
 20
16.1305
 30
0.0
 10
1.7219
 20
15.7576
 30
0.0
 10
1.7219
 20
15.7576
 30
0.0
 10
1.7219
 20
15.7576
 30
0.0
 10
1.7219
 20
15.7576
 30
0.0
 10
1.9198
 20
15.4525
 30
0.0
 10
1.9198
 20
15.4525
 30
0.0
 10
1.9198
 20
15.4525
 30
0.0
 10
1.9198
 20
15.4525
 30
0.0
 10
2.0868
 20
15.2178
 30
0.0
 10
2.0868
 20
15.2178
 30
0.0
 10
2.0868
 20
15.2178
 30
0.0
 10
2.0868
 20
15.2178
 30
0.0
 10
2.465
 20
14.6341
 30
0.0
 10
2.465
 20
14.6341
 30
0.0
 10
2.465
 20
14.6341
 30
0.0
 10
2.465
 20
14.6341
 30
0.0
 10
2.4978
 20
14.5836
 30
0.0
 10
2.4978
 20
14.5836
 30
0.0
 10
2.4978
 20
14.5836
 30
0.0
 10
2.4978
 20
14.5836
 30
0.0
 10
8.1081
 20
16.1333
 30
0.0
 10
8.1081
 20
16.1333
 30
0.0
  0
SPLINE
  5
B0
330
1F
100
AcDbEntity
  8
DEFAULT_1
 62
   250
100
AcDbSpline
210
0.0
220
0.0
230
1.0
 70
    24
 71
     3
 72
     8
 73
     4
 74
     0
 42
0.0000000001
 43
0.0000000001
 40
0.0
 40
0.0
 40
0.0
 40
0.0
 40
1.0
 40
1.0
 40
1.0
 40
1.0
 10
-7.5899
 20
26.3994
 30
0.0
 10
-7.5899
 20
26.3994
 30
0.0
 10
-7.5899
 20
6.0111
 30
0.0
 10
-7.5899
 20
6.0111
 30
0.0
  0
SPLINE
  5
B1
330
1F
100
AcDbEntity
  8
DEFAULT_1
 62
   250
100
AcDbSpline
210
0.0
220
0.0
230
1.0
 70
     8
 71
     3
 72
    16
 73
    12
 74
     0
 42
0.0000000001
 43
0.0000000001
 40
0.0
 40
0.0
 40
0.0
 40
0.0
 40
0.25
 40
0.25
 40
0.25
 40
0.25
 40
0.5
 40
0.5
 40
0.5
 40
0.5
 40
1.0
 40
1.0
 40
1.0
 40
1.0
 10
6.6293
 20
23.5666
 30
0.0
 10
6.6293
 20
23.5666
 30
0.0
 10
6.151
 20
23.4396
 30
0.0
 10
6.151
 20
23.4396
 30
0.0
 10
6.151
 20
23.4396
 30
0.0
 10
6.151
 20
23.4396
 30
0.0
 10
8.2516
 20
15.6444
 30
0.0
 10
8.2516
 20
15.6444
 30
0.0
 10
8.2516
 20
15.6444
 30
0.0
 10
8.2516
 20
15.6444
 30
0.0
 10
8.7636
 20
15.7921
 30
0.0
 10
8.7636
 20
15.7921
 30
0.0
  0
SPLINE
  5
B2
330
1F
100
AcDbEntity
  8
DEFAULT_1
 62
   250
100
AcDbSpline
210
0.0
220
0.0
230
1.0
 70
    24
 71
     3
 72
     8
 73
     4
 74
     0
 42
0.0000000001
 43
0.0000000001
 40
0.0
 40
0.0
 40
0.0
 40
0.0
 40
1.0
 40
1.0
 40
1.0
 40
1.0
 10
2.0872
 20
15.218
 30
0.0
 10
2.0872
 20
15.218
 30
0.0
 10
2.0901
 20
15.214
 30
0.0
 10
2.0901
 20
15.214
 30
0.0
  0
SPLINE
  5
B3
330
1F
100
AcDbEntity
  8
DEFAULT_1
 62
   250
100
AcDbSpline
210
0.0
220
0.0
230
1.0
 70
    27
 71
     3
 72
    20
 73
    16
 74
     0
 42
0.0000000001
 43
0.0000000001
 40
0.0
 40
0.0
 40
0.0
 40
0.0
 40
0.2
 40
0.2
 40
0.2
 40
0.2
 40
0.4
 40
0.4
 40
0.4
 40
0.4
 40
0.6
 40
0.6
 40
0.6
 40
0.6
 40
1.0
 40
1.0
 40
1.0
 40
1.0
 10
2.465
 20
26.4832
 30
0.0
 10
2.465
 20
26.4832
 30
0.0
 10
2.465
 20
21.8232
 30
0.0
 10
2.465
 20
21.8232
 30
0.0
 10
2.465
 20
21.8232
 30
0.0
 10
2.465
 20
21.8232
 30
0.0
 10
2.465
 20
21.812
 30
0.0
 10
2.465
 20
21.812
 30
0.0
 10
2.465
 20
21.812
 30
0.0
 10
2.465
 20
21.812
 30
0.0
 10
2.465
 20
21.8232
 30
0.0
 10
2.465
 20
21.8232
 30
0.0
 10
2.465
 20
21.8232
 30
0.0
 10
2.465
 20
21.8232
 30
0.0
 10
2.465
 20
26.4832
 30
0.0
 10
2.465
 20
26.4832
 30
0.0
  0
SPLINE
  5
B4
330
1F
100
AcDbEntity
  8
DEFAULT_1
 62
   250
100
AcDbSpline
210
0.0
220
0.0
230
1.0
 70
    27
 71
     3
 72
    16
 73
    12
 74
     0
 42
0.0000000001
 43
0.0000000001
 40
0.0
 40
0.0
 40
0.0
 40
0.0
 40
0.25
 40
0.25
 40
0.25
 40
0.25
 40
0.5
 40
0.5
 40
0.5
 40
0.5
 40
1.0
 40
1.0
 40
1.0
 40
1.0
 10
2.465
 20
14.709
 30
0.0
 10
2.465
 20
14.709
 30
0.0
 10
2.465
 20
14.6341
 30
0.0
 10
2.465
 20
14.6341
 30
0.0
 10
2.465
 20
14.6341
 30
0.0
 10
2.465
 20
14.6341
 30
0.0
 10
2.465
 20
5.9113
 30
0.0
 10
2.465
 20
5.9113
 30
0.0
 10
2.465
 20
5.9113
 30
0.0
 10
2.465
 20
5.9113
 30
0.0
 10
2.465
 20
14.709
 30
0.0
 10
2.465
 20
14.709
 30
0.0
  0
ENDSEC
  0
SECTION
  2
OBJECTS
  0
DICTIONARY
  5
C
330
0
100
AcDbDictionary
  3
ACAD_GROUP
350
D
  3
ACAD_LAYOUT
350
1A
  3
ACAD_MATERIAL
350
3B
  3
ACAD_MLEADERSTYLE
350
D7
  3
ACAD_MLINESTYLE
350
17
  3
ACAD_PLOTSETTINGS
350
19
  3
ACAD_VISUALSTYLE
350
2A
  3
ACDBHEADERROUNDTRIPXREC
350
B5
  3
ACDBVARIABLEDICTIONARY
350
D5
  0
DICTIONARY
  5
D
102
{ACAD_REACTORS
330
C
102
}
330
C
100
AcDbDictionary
  0
DICTIONARY
  5
1A
102
{ACAD_REACTORS
330
C
102
}
330
C
100
AcDbDictionary
  0
DICTIONARY
  5
3B
102
{ACAD_REACTORS
330
C
102
}
330
C
100
AcDbDictionary
  3
BYBLOCK
350
3D
  3
BYLAYER
350
3C
  3
GLOBAL
350
3E
  0
DICTIONARY
  5
D7
102
{ACAD_REACTORS
330
C
102
}
330
C
100
AcDbDictionary
  0
DICTIONARY
  5
17
102
{ACAD_REACTORS
330
C
102
}
330
C
100
AcDbDictionary
  3
STANDARD
350
18
  0
DICTIONARY
  5
19
102
{ACAD_REACTORS
330
C
102
}
330
C
100
AcDbDictionary
  0
DICTIONARY
  5
2A
102
{ACAD_REACTORS
330
C
102
}
330
C
100
AcDbDictionary
  3
2DWIREFRAME
350
2F
  3
3D_HIDDEN
350
31
  3
3DWIREFRAME
350
30
  3
BASIC
350
32
  3
BRIGHTEN
350
36
  3
COLORCHANGE
350
3A
  3
CONCEPTUAL
350
34
  3
DIM
350
35
  3
FACEPATTERN
350
39
  3
FLAT
350
2B
  3
FLATWITHEDGES
350
2C
  3
GOURAUD
350
2D
  3
GOURAUDWITHEDGES
350
2E
  3
LINEPATTERN
350
38
  3
REALISTIC
350
33
  3
THICKEN
350
37
  0
DICTIONARY
  5
B5
102
{ACAD_REACTORS
330
C
102
}
330
C
100
AcDbDictionary
  3
CEPSNTYPE
350
BE
  3
DIMSTYLEDATA
350
D4
  3
FINGERPRINTGUID
350
BF
  3
HYPERLINKBASE
350
B8
  3
INSUNITS
350
BD
  3
LAYOUTDICT
350
BA
  3
LWETCUNION
350
BC
  3
PLOTSETDICT
350
BB
  3
PSVPSCALE
350
C1
  3
PUCSBASE
350
C4
  3
PUCSORGBACK
350
CA
  3
PUCSORGBOTTOM
350
C6
  3
PUCSORGFRONT
350
C9
  3
PUCSORGLEFT
350
C7
  3
PUCSORGRIGHT
350
C8
  3
PUCSORGTOP
350
C5
  3
PUCSORTHOREF
350
C2
  3
PUCSORTHOVIEW
350
C3
  3
STYLESHEET
350
B9
  3
TSTACKALIGN
350
B6
  3
TSTACKSIZE
350
B7
  3
UCSBASE
350
CD
  3
UCSORGBACK
350
D3
  3
UCSORGBOTTOM
350
CF
  3
UCSORGFRONT
350
D2
  3
UCSORGLEFT
350
D0
  3
UCSORGRIGHT
350
D1
  3
UCSORGTOP
350
CE
  3
UCSORTHOREF
350
CB
  3
UCSORTHOVIEW
350
CC
  3
VERSIONGUID
350
C0
  0
DICTIONARY
  5
D5
102
{ACAD_REACTORS
330
C
102
}
330
C
100
AcDbDictionary
  3
DIMASSOC
350
D8
  3
HIDETEXT
350
D9
  0
MATERIAL
  5
3D
102
{ACAD_REACTORS
330
3B
102
}
102
{ACAD_XDICTIONARY
360
DC
102
}
330
3B
100
AcDbMaterial
  1
ByBlock
  0
MATERIAL
  5
3C
102
{ACAD_REACTORS
330
3B
102
}
102
{ACAD_XDICTIONARY
360
DA
102
}
330
3B
100
AcDbMaterial
  1
ByLayer
  0
MATERIAL
  5
3E
102
{ACAD_REACTORS
330
3B
102
}
102
{ACAD_XDICTIONARY
360
DE
102
}
330
3B
100
AcDbMaterial
  1
Global
  0
MLINESTYLE
  5
18
102
{ACAD_REACTORS
330
17
102
}
330
17
100
AcDbMlineStyle
  2
Standard
 70
     0
  3

 62
   256
 51
90.0
 52
90.0
 71
     2
 49
0.5
 62
   256
  6
BYLAYER
 49
-0.5
 62
   256
  6
BYLAYER
  0
ACAD_PROXY_OBJECT
  5
2F
102
{ACAD_REACTORS
330
2A
102
}
330
2A
100
AcDbProxyObject
 90
      499
 91
      501
 93
      436
310
42CC9915DA5C99599C985B595049028333333333333E3BF0000000000000FB0107901411070040501600405405064090741402480A0340
1001
ACAD
1000
AcDbSavedByObjectVersion
1070
     0
  0
ACAD_PROXY_OBJECT
  5
31
102
{ACAD_REACTORS
330
2A
102
}
330
2A
100
AcDbProxyObject
 90
      499
 91
      501
 93
      500
310
424CD108121A5919195B90640502408333333333333E3BF0000000000000FB01079024090700405020000000000001110200405405064090740C02480A0340
1001
ACAD
1000
AcDbSavedByObjectVersion
1070
     0
  0
ACAD_PROXY_OBJECT
  5
30
102
{ACAD_REACTORS
330
2A
102
}
330
2A
100
AcDbProxyObject
 90
      499
 91
      501
 93
      436
310
42CCD915DA5C99599C985B595059028333333333333E3BF0000000000000FB0107901411070040501600405405064090741402480A0340
1001
ACAD
1000
AcDbSavedByObjectVersion
1070
     0
  0
ACAD_PROXY_OBJECT
  5
32
102
{ACAD_REACTORS
330
2A
102
}
330
2A
100
AcDbProxyObject
 90
      499
 91
      501
 93
      388
310
4150985CDA58D07406404333333333333E3BF0000000000000FB0107A41107004050150841D405064090741402480A0350
1001
ACAD
1000
AcDbSavedByObjectVersion
1070
     0
  0
ACAD_PROXY_OBJECT
  5
36
102
{ACAD_REACTORS
330
2A
102
}
330
2A
100
AcDbProxyObject
 90
      499
 91
      501
 93
      428
310
42109C9A59DA1D195B90C409028333333333333E3BF0000000000000FB010790141107004050150841D405064090741402480A029950
1001
ACAD
1000
AcDbSavedByObjectVersion
1070
     0
  0
ACAD_PROXY_OBJECT
  5
3A
102
{ACAD_REACTORS
330
2A
102
}
330
2A
100
AcDbProxyObject
 90
      499
 91
      501
 93
      452
310
42D0DBDB1BDC90DA185B99D95104090240C333333333333E3BF0000000000000FB0108901411070040501508421405064090741402480A0350
1001
ACAD
1000
AcDbSavedByObjectVersion
1070
     0
  0
ACAD_PROXY_OBJECT
  5
34
102
{ACAD_REACTORS
330
2A
102
}
330
2A
100
AcDbProxyObject
 90
      499
 91
      501
 93
      500
310
4290DBDB98D95C1D1D585B10940D028333333333333E3BF0000000000000FB0107902409070040501000000000000111010841D405064090740C02480A0340
1001
ACAD
1000
AcDbSavedByObjectVersion
1070
     0
  0
ACAD_PROXY_OBJECT
  5
35
102
{ACAD_REACTORS
330
2A
102
}
330
2A
100
AcDbProxyObject
 90
      499
 91
      501
 93
      412
310
40D11A5B50B409028333333333333E3BF0000000000000FB010790141107004050150841D405064090741402480A02677FFFFFD0
1001
ACAD
1000
AcDbSavedByObjectVersion
1070
     0
  0
ACAD_PROXY_OBJECT
  5
39
102
{ACAD_REACTORS
330
2A
102
}
330
2A
100
AcDbProxyObject
 90
      499
 91
      501
 93
      444
310
42D19858D95C185D1D195C9B90F409028333333333333E3BF0000000000000FB010790141107004050150841D405064090741402480A0350
1001
ACAD
1000
AcDbSavedByObjectVersion
1070
     0
  0
ACAD_PROXY_OBJECT
  5
2B
102
{ACAD_REACTORS
330
2A
102
}
330
2A
100
AcDbProxyObject
 90
      499
 91
      501
 93
      388
310
41119B185D240901404333333333333E3BF0000000000000F9010740A41107004050150841D405064090741402480A1B50
1001
ACAD
1000
AcDbSavedByObjectVersion
1070
     0
  0
ACAD_PROXY_OBJECT
  5
2C
102
{ACAD_REACTORS
330
2A
102
}
330
2A
100
AcDbProxyObject
 90
      499
 91
      501
 93
      476
310
43519B185D15DA5D1A115919D95CD0140901404333333333333E3BF0000000000000F9010740901411070040501600405405064090741402480A1B50
1001
ACAD
1000
AcDbSavedByObjectVersion
1070
     0
  0
ACAD_PROXY_OBJECT
  5
2D
102
{ACAD_REACTORS
330
2A
102
}
330
2A
100
AcDbProxyObject
 90
      499
 91
      501
 93
      412
310
41D1DBDD5C985D5910240902404333333333333E3BF0000000000000F9010740A411070040501641D405064090741402480A1B50
1001
ACAD
1000
AcDbSavedByObjectVersion
1070
     0
  0
ACAD_PROXY_OBJECT
  5
2E
102
{ACAD_REACTORS
330
2A
102
}
330
2A
100
AcDbProxyObject
 90
      499
 91
      501
 93
      500
310
4411DBDD5C985D5915DA5D1A115919D95CD0340902404333333333333E3BF0000000000000F9010740901411070040501600405405064090741402480A1B50
1001
ACAD
1000
AcDbSavedByObjectVersion
1070
     0
  0
ACAD_PROXY_OBJECT
  5
38
102
{ACAD_REACTORS
330
2A
102
}
330
2A
100
AcDbProxyObject
 90
      499
 91
      501
 93
      444
310
42D31A5B995C185D1D195C9B90E409028333333333333E3BF0000000000000FB010790141107004050750841D405064090741402483A0350
1001
ACAD
1000
AcDbSavedByObjectVersion
1070
     0
  0
ACAD_PROXY_OBJECT
  5
33
102
{ACAD_REACTORS
330
2A
102
}
330
2A
100
AcDbProxyObject
 90
      499
 91
      501
 93
      420
310
425499585B1A5CDD1A58D08409028333333333333E3BF0000000000000FB01079019070040501508421405064090741402480A1B40
1001
ACAD
1000
AcDbSavedByObjectVersion
1070
     0
  0
ACAD_PROXY_OBJECT
  5
37
102
{ACAD_REACTORS
330
2A
102
}
330
2A
100
AcDbProxyObject
 90
      499
 91
      501
 93
      412
310
41D51A1A58DAD95B90D409028333333333333E3BF0000000000000FB010790141107004050150C41D405064090741402480A0350
1001
ACAD
1000
AcDbSavedByObjectVersion
1070
     0
  0
XRECORD
  5
BE
102
{ACAD_REACTORS
330
B5
102
}
330
B5
100
AcDbXrecord
 90
        0
  0
XRECORD
  5
D4
102
{ACAD_REACTORS
330
B5
102
}
330
B5
100
AcDbXrecord
1000
DSTYLE
1002
{
1070
   340
340
11
1002
}
  0
XRECORD
  5
BF
102
{ACAD_REACTORS
330
B5
102
}
330
B5
100
AcDbXrecord
  1
{6DD40ADF-5712-409A-A05A-0EC2E75965F9}
  0
XRECORD
  5
B8
102
{ACAD_REACTORS
330
B5
102
}
330
B5
100
AcDbXrecord
  1

  0
XRECORD
  5
BD
102
{ACAD_REACTORS
330
B5
102
}
330
B5
100
AcDbXrecord
 90
        4
  0
XRECORD
  5
BA
102
{ACAD_REACTORS
330
B5
102
}
330
B5
100
AcDbXrecord
340
1A
  0
XRECORD
  5
BC
102
{ACAD_REACTORS
330
B5
102
}
330
B5
100
AcDbXrecord
 90
    10781
  0
XRECORD
  5
BB
102
{ACAD_REACTORS
330
B5
102
}
330
B5
100
AcDbXrecord
340
19
  0
XRECORD
  5
C1
102
{ACAD_REACTORS
330
B5
102
}
330
B5
100
AcDbXrecord
 40
0.0
  0
XRECORD
  5
C4
102
{ACAD_REACTORS
330
B5
102
}
330
B5
100
AcDbXrecord
340
0
  0
XRECORD
  5
CA
102
{ACAD_REACTORS
330
B5
102
}
330
B5
100
AcDbXrecord
 10
0.0
 20
0.0
 30
0.0
  0
XRECORD
  5
C6
102
{ACAD_REACTORS
330
B5
102
}
330
B5
100
AcDbXrecord
 10
0.0
 20
0.0
 30
0.0
  0
XRECORD
  5
C9
102
{ACAD_REACTORS
330
B5
102
}
330
B5
100
AcDbXrecord
 10
0.0
 20
0.0
 30
0.0
  0
XRECORD
  5
C7
102
{ACAD_REACTORS
330
B5
102
}
330
B5
100
AcDbXrecord
 10
0.0
 20
0.0
 30
0.0
  0
XRECORD
  5
C8
102
{ACAD_REACTORS
330
B5
102
}
330
B5
100
AcDbXrecord
 10
0.0
 20
0.0
 30
0.0
  0
XRECORD
  5
C5
102
{ACAD_REACTORS
330
B5
102
}
330
B5
100
AcDbXrecord
 10
0.0
 20
0.0
 30
0.0
  0
XRECORD
  5
C2
102
{ACAD_REACTORS
330
B5
102
}
330
B5
100
AcDbXrecord
340
0
  0
XRECORD
  5
C3
102
{ACAD_REACTORS
330
B5
102
}
330
B5
100
AcDbXrecord
 70
     0
  0
XRECORD
  5
B9
102
{ACAD_REACTORS
330
B5
102
}
330
B5
100
AcDbXrecord
  1

  0
XRECORD
  5
B6
102
{ACAD_REACTORS
330
B5
102
}
330
B5
100
AcDbXrecord
 90
        1
  0
XRECORD
  5
B7
102
{ACAD_REACTORS
330
B5
102
}
330
B5
100
AcDbXrecord
 90
       70
  0
XRECORD
  5
CD
102
{ACAD_REACTORS
330
B5
102
}
330
B5
100
AcDbXrecord
340
0
  0
XRECORD
  5
D3
102
{ACAD_REACTORS
330
B5
102
}
330
B5
100
AcDbXrecord
 10
0.0
 20
0.0
 30
0.0
  0
XRECORD
  5
CF
102
{ACAD_REACTORS
330
B5
102
}
330
B5
100
AcDbXrecord
 10
0.0
 20
0.0
 30
0.0
  0
XRECORD
  5
D2
102
{ACAD_REACTORS
330
B5
102
}
330
B5
100
AcDbXrecord
 10
0.0
 20
0.0
 30
0.0
  0
XRECORD
  5
D0
102
{ACAD_REACTORS
330
B5
102
}
330
B5
100
AcDbXrecord
 10
0.0
 20
0.0
 30
0.0
  0
XRECORD
  5
D1
102
{ACAD_REACTORS
330
B5
102
}
330
B5
100
AcDbXrecord
 10
0.0
 20
0.0
 30
0.0
  0
XRECORD
  5
CE
102
{ACAD_REACTORS
330
B5
102
}
330
B5
100
AcDbXrecord
 10
0.0
 20
0.0
 30
0.0
  0
XRECORD
  5
CB
102
{ACAD_REACTORS
330
B5
102
}
330
B5
100
AcDbXrecord
340
0
  0
XRECORD
  5
CC
102
{ACAD_REACTORS
330
B5
102
}
330
B5
100
AcDbXrecord
 70
     0
  0
XRECORD
  5
C0
102
{ACAD_REACTORS
330
B5
102
}
330
B5
100
AcDbXrecord
  1
{FAEB1C32-E019-11D5-929B-00C0DF256EC4}
  0
DICTIONARYVAR
  5
D8
102
{ACAD_REACTORS
330
D5
102
}
330
D5
100
DictionaryVariables
280
     0
  1
2
  0
DICTIONARYVAR
  5
D9
102
{ACAD_REACTORS
330
D5
102
}
330
D5
100
DictionaryVariables
280
     0
  1
1
  0
DICTIONARY
  5
DC
330
3D
100
AcDbDictionary
280
     1
  3
ACAD_XREC_ROUNDTRIP
360
DD
  0
DICTIONARY
  5
DA
330
3C
100
AcDbDictionary
280
     1
  3
ACAD_XREC_ROUNDTRIP
360
DB
  0
DICTIONARY
  5
DE
330
3E
100
AcDbDictionary
280
     1
  3
ACAD_XREC_ROUNDTRIP
360
DF
  0
XRECORD
  5
DD
102
{ACAD_REACTORS
330
DC
102
}
330
DC
100
AcDbXrecord
102
MATERIAL
148
0.0
149
0.0
149
0.0
 93
        0
 94
      127
282
     0
 72
     1
 77
     1
171
     1
175
     1
179
     1
273
     0
  0
XRECORD
  5
DB
102
{ACAD_REACTORS
330
DA
102
}
330
DA
100
AcDbXrecord
102
MATERIAL
148
0.0
149
0.0
149
0.0
 93
        0
 94
      127
282
     0
 72
     1
 77
     1
171
     1
175
     1
179
     1
273
     0
  0
XRECORD
  5
DF
102
{ACAD_REACTORS
330
DE
102
}
330
DE
100
AcDbXrecord
102
MATERIAL
148
0.0
149
0.0
149
0.0
 93
        0
 94
      127
282
     0
 72
     1
 77
     1
171
     1
175
     1
179
     1
273
     0
  0
ENDSEC
  0
EOF
