  0
SECTION
  2
HEADER
  9
$ACADVER
  1
AC1014
  9
$ACADMAINTVER
 70
     9
  9
$DWGCODEPAGE
  3
ANSI_1250
  9
$INSBASE
 10
0.0
 20
0.0
 30
0.0
  9
$EXTMIN
 10
-37.0769
 20
-30.0708
 30
0.0
  9
$EXTMAX
 10
37.239
 20
30.0707
 30
0.0
  9
$LIMMIN
 10
0.0
 20
0.0
  9
$LIMMAX
 10
12.0
 20
9.0
  9
$ORTHOMODE
 70
     0
  9
$REGENMODE
 70
     1
  9
$FILLMODE
 70
     1
  9
$QTEXTMODE
 70
     0
  9
$MIRRTEXT
 70
     1
  9
$DRAGMODE
 70
     2
  9
$LTSCALE
 40
1.0
  9
$OSMODE
 70
    37
  9
$ATTMODE
 70
     1
  9
$TEXTSIZE
 40
0.2
  9
$TRACEWID
 40
0.05
  9
$TEXTSTYLE
  7
STANDARD
  9
$CLAYER
  8
0
  9
$CELTYPE
  6
BYLAYER
  9
$CECOLOR
 62
   256
  9
$CELTSCALE
 40
1.0
  9
$DELOBJ
 70
     1
  9
$DISPSILH
 70
     0
  9
$DIMSCALE
 40
1.0
  9
$DIMASZ
 40
0.18
  9
$DIMEXO
 40
0.0625
  9
$DIMDLI
 40
0.38
  9
$DIMRND
 40
0.0
  9
$DIMDLE
 40
0.0
  9
$DIMEXE
 40
0.18
  9
$DIMTP
 40
0.0
  9
$DIMTM
 40
0.0
  9
$DIMTXT
 40
0.18
  9
$DIMCEN
 40
0.09
  9
$DIMTSZ
 40
0.0
  9
$DIMTOL
 70
     0
  9
$DIMLIM
 70
     0
  9
$DIMTIH
 70
     1
  9
$DIMTOH
 70
     1
  9
$DIMSE1
 70
     0
  9
$DIMSE2
 70
     0
  9
$DIMTAD
 70
     0
  9
$DIMZIN
 70
     0
  9
$DIMBLK
  1

  9
$DIMASO
 70
     1
  9
$DIMSHO
 70
     1
  9
$DIMPOST
  1

  9
$DIMAPOST
  1

  9
$DIMALT
 70
     0
  9
$DIMALTD
 70
     2
  9
$DIMALTF
 40
25.4
  9
$DIMLFAC
 40
1.0
  9
$DIMTOFL
 70
     0
  9
$DIMTVP
 40
0.0
  9
$DIMTIX
 70
     0
  9
$DIMSOXD
 70
     0
  9
$DIMSAH
 70
     0
  9
$DIMBLK1
  1

  9
$DIMBLK2
  1

  9
$DIMSTYLE
  2
STANDARD
  9
$DIMCLRD
 70
     0
  9
$DIMCLRE
 70
     0
  9
$DIMCLRT
 70
     0
  9
$DIMTFAC
 40
1.0
  9
$DIMGAP
 40
0.09
  9
$DIMJUST
 70
     0
  9
$DIMSD1
 70
     0
  9
$DIMSD2
 70
     0
  9
$DIMTOLJ
 70
     1
  9
$DIMTZIN
 70
     0
  9
$DIMALTZ
 70
     0
  9
$DIMALTTZ
 70
     0
  9
$DIMFIT
 70
     3
  9
$DIMUPT
 70
     0
  9
$DIMUNIT
 70
     2
  9
$DIMDEC
 70
     4
  9
$DIMTDEC
 70
     4
  9
$DIMALTU
 70
     2
  9
$DIMALTTD
 70
     2
  9
$DIMTXSTY
  7
STANDARD
  9
$DIMAUNIT
 70
     0
  9
$LUNITS
 70
     2
  9
$LUPREC
 70
     4
  9
$SKETCHINC
 40
0.1
  9
$FILLETRAD
 40
0.5
  9
$AUNITS
 70
     0
  9
$AUPREC
 70
     0
  9
$MENU
  1
.
  9
$ELEVATION
 40
0.0
  9
$PELEVATION
 40
0.0
  9
$THICKNESS
 40
0.0
  9
$LIMCHECK
 70
     0
  9
$CHAMFERA
 40
0.5
  9
$CHAMFERB
 40
0.5
  9
$CHAMFERC
 40
1.0
  9
$CHAMFERD
 40
0.0
  9
$SKPOLY
 70
     0
  9
$TDCREATE
 40
2456247.439804815
  9
$TDUPDATE
 40
2456247.439804826
  9
$TDINDWG
 40
0.0000000116
  9
$TDUSRTIMER
 40
0.0000000116
  9
$USRTIMER
 70
     1
  9
$ANGBASE
 50
0.0
  9
$ANGDIR
 70
     0
  9
$PDMODE
 70
     0
  9
$PDSIZE
 40
0.0
  9
$PLINEWID
 40
0.0
  9
$COORDS
 70
     1
  9
$SPLFRAME
 70
     0
  9
$SPLINETYPE
 70
     6
  9
$SPLINESEGS
 70
     8
  9
$ATTDIA
 70
     0
  9
$ATTREQ
 70
     1
  9
$HANDLING
 70
     1
  9
$HANDSEED
  5
EF
  9
$SURFTAB1
 70
     6
  9
$SURFTAB2
 70
     6
  9
$SURFTYPE
 70
     6
  9
$SURFU
 70
     6
  9
$SURFV
 70
     6
  9
$UCSNAME
  2

  9
$UCSORG
 10
0.0
 20
0.0
 30
0.0
  9
$UCSXDIR
 10
1.0
 20
0.0
 30
0.0
  9
$UCSYDIR
 10
0.0
 20
1.0
 30
0.0
  9
$PUCSNAME
  2

  9
$PUCSORG
 10
0.0
 20
0.0
 30
0.0
  9
$PUCSXDIR
 10
1.0
 20
0.0
 30
0.0
  9
$PUCSYDIR
 10
0.0
 20
1.0
 30
0.0
  9
$USERI1
 70
     0
  9
$USERI2
 70
     0
  9
$USERI3
 70
     0
  9
$USERI4
 70
     0
  9
$USERI5
 70
     0
  9
$USERR1
 40
0.0
  9
$USERR2
 40
0.0
  9
$USERR3
 40
0.0
  9
$USERR4
 40
0.0
  9
$USERR5
 40
0.0
  9
$WORLDVIEW
 70
     1
  9
$SHADEDGE
 70
     3
  9
$SHADEDIF
 70
    70
  9
$TILEMODE
 70
     1
  9
$MAXACTVP
 70
    64
  9
$PINSBASE
 10
0.0
 20
0.0
 30
0.0
  9
$PLIMCHECK
 70
     0
  9
$PEXTMIN
 10
1.000000000000000E+20
 20
1.000000000000000E+20
 30
1.000000000000000E+20
  9
$PEXTMAX
 10
-1.000000000000000E+20
 20
-1.000000000000000E+20
 30
-1.000000000000000E+20
  9
$PLIMMIN
 10
0.0
 20
0.0
  9
$PLIMMAX
 10
12.0
 20
9.0
  9
$UNITMODE
 70
     0
  9
$VISRETAIN
 70
     1
  9
$PLINEGEN
 70
     0
  9
$PSLTSCALE
 70
     1
  9
$TREEDEPTH
 70
  3020
  9
$PICKSTYLE
 70
     1
  9
$CMLSTYLE
  2
STANDARD
  9
$CMLJUST
 70
     0
  9
$CMLSCALE
 40
1.0
  9
$PROXYGRAPHICS
 70
     1
  9
$MEASUREMENT
 70
     0
  0
ENDSEC
  0
SECTION
  2
CLASSES
  0
CLASS
  1
ACDBDICTIONARYWDFLT
  2
AcDbDictionaryWithDefault
  3
ObjectDBX Classes
 90
        0
280
     0
281
     0
  0
CLASS
  1
VISUALSTYLE
  2
AcDbVisualStyle
  3
ObjectDBX Classes
 90
     4095
280
     0
281
     0
  0
CLASS
  1
MATERIAL
  2
AcDbMaterial
  3
ObjectDBX Classes
 90
     1153
280
     0
281
     0
  0
CLASS
  1
DICTIONARYVAR
  2
AcDbDictionaryVar
  3
ObjectDBX Classes
 90
        0
280
     0
281
     0
  0
CLASS
  1
XRECORD
  2
AcDbXrecord
  3
AutoCAD 2000
 90
        0
280
     0
281
     0
  0
CLASS
  1
LWPOLYLINE
  2
AcDbPolyline
  3
AutoCAD 2000
 90
        0
280
     0
281
     1
  0
CLASS
  1
HATCH
  2
AcDbHatch
  3
AutoCAD 2000
 90
        0
280
     0
281
     1
  0
CLASS
  1
ACDBPLACEHOLDER
  2
AcDbPlaceHolder
  3
ObjectDBX Classes
 90
        0
280
     0
281
     0
  0
CLASS
  1
LAYOUT
  2
AcDbLayout
  3
ObjectDBX Classes
 90
        0
280
     0
281
     0
  0
ENDSEC
  0
SECTION
  2
TABLES
  0
TABLE
  2
VPORT
  5
8
330
0
100
AcDbSymbolTable
 70
     1
  0
VPORT
  5
29
330
8
100
AcDbSymbolTableRecord
100
AcDbViewportTableRecord
  2
*ACTIVE
 70
     0
 10
0.0
 20
0.0
 11
1.0
 21
1.0
 12
10.42990654205607
 22
4.5
 13
0.0
 23
0.0
 14
0.5
 24
0.5
 15
0.5
 25
0.5
 16
0.0
 26
0.0
 36
1.0
 17
0.0
 27
0.0
 37
0.0
 40
9.0
 41
1.972972972850329
 42
50.0
 43
0.0
 44
0.0
 50
0.0
 51
0.0
 71
     0
 72
   100
 73
     1
 74
     3
 75
     0
 76
     0
 77
     0
 78
     0
  0
ENDTAB
  0
TABLE
  2
LTYPE
  5
5
330
0
100
AcDbSymbolTable
 70
     3
  0
LTYPE
  5
14
330
5
100
AcDbSymbolTableRecord
100
AcDbLinetypeTableRecord
  2
BYBLOCK
 70
     0
  3

 72
    65
 73
     0
 40
0.0
  0
LTYPE
  5
15
330
5
100
AcDbSymbolTableRecord
100
AcDbLinetypeTableRecord
  2
BYLAYER
 70
     0
  3

 72
    65
 73
     0
 40
0.0
  0
LTYPE
  5
16
330
5
100
AcDbSymbolTableRecord
100
AcDbLinetypeTableRecord
  2
CONTINUOUS
 70
     0
  3
Solid line
 72
    65
 73
     0
 40
0.0
  0
LTYPE
  5
6F
330
5
100
AcDbSymbolTableRecord
100
AcDbLinetypeTableRecord
  2
NEW_LINE1
 70
     0
  3

 72
    65
 73
     4
 40
1.2
 49
0.5
 74
     4
 75
     0
340
0
 46
1.0
 50
0.0
 44
0.0
 45
0.0
 49
-0.3
 74
     4
 75
     0
340
0
 46
1.0
 50
0.0
 44
0.0
 45
0.0
 49
0.1
 74
     4
 75
     0
340
0
 46
1.0
 50
0.0
 44
0.0
 45
0.0
 49
-0.3
 74
     4
 75
     0
340
0
 46
1.0
 50
0.0
 44
0.0
 45
0.0
  0
LTYPE
  5
76
330
5
100
AcDbSymbolTableRecord
100
AcDbLinetypeTableRecord
  2
NEW_LINE2
 70
     0
  3

 72
    65
 73
     4
 40
1.2
 49
0.5
 74
     4
 75
     0
340
0
 46
1.0
 50
0.0
 44
0.0
 45
0.0
 49
-0.3
 74
     4
 75
     0
340
0
 46
1.0
 50
0.0
 44
0.0
 45
0.0
 49
0.1
 74
     4
 75
     0
340
0
 46
1.0
 50
0.0
 44
0.0
 45
0.0
 49
-0.3
 74
     4
 75
     0
340
0
 46
1.0
 50
0.0
 44
0.0
 45
0.0
  0
ENDTAB
  0
TABLE
  2
LAYER
  5
2
330
0
100
AcDbSymbolTable
 70
     2
  0
LAYER
  5
10
330
2
100
AcDbSymbolTableRecord
100
AcDbLayerTableRecord
  2
0
 70
     0
 62
     7
  6
CONTINUOUS
  0
LAYER
  5
40
330
2
100
AcDbSymbolTableRecord
100
AcDbLayerTableRecord
  2
ROUND
 70
     0
 62
     7
  6
CONTINUOUS
  0
ENDTAB
  0
TABLE
  2
STYLE
  5
3
330
0
100
AcDbSymbolTable
 70
     1
  0
STYLE
  5
11
330
3
100
AcDbSymbolTableRecord
100
AcDbTextStyleTableRecord
  2
STANDARD
 70
     0
 40
0.0
 41
1.0
 50
0.0
 71
     0
 42
0.2
  3
txt
  4

  0
ENDTAB
  0
TABLE
  2
VIEW
  5
6
330
0
100
AcDbSymbolTable
 70
     0
  0
ENDTAB
  0
TABLE
  2
UCS
  5
7
330
0
100
AcDbSymbolTable
 70
     0
  0
ENDTAB
  0
TABLE
  2
APPID
  5
9
330
0
100
AcDbSymbolTable
 70
     2
  0
APPID
  5
12
330
9
100
AcDbSymbolTableRecord
100
AcDbRegAppTableRecord
  2
ACAD
 70
     0
  0
APPID
  5
3F
330
9
100
AcDbSymbolTableRecord
100
AcDbRegAppTableRecord
  2
ODA
 70
     0
  0
ENDTAB
  0
TABLE
  2
DIMSTYLE
  5
A
330
0
100
AcDbSymbolTable
 70
     1
  0
DIMSTYLE
105
27
330
A
100
AcDbSymbolTableRecord
100
AcDbDimStyleTableRecord
  2
STANDARD
 70
     0
  3

  4

  5

  6

  7

 40
1.0
 41
0.18
 42
0.0625
 43
0.38
 44
0.18
 45
0.0
 46
0.0
 47
0.0
 48
0.0
140
0.18
141
0.09
142
0.0
143
25.4
144
1.0
145
0.0
146
1.0
147
0.09
 71
     0
 72
     0
 73
     1
 74
     1
 75
     0
 76
     0
 77
     0
 78
     0
170
     0
171
     2
172
     0
173
     0
174
     0
175
     0
176
     0
177
     0
178
     0
270
     2
271
     4
272
     4
273
     2
274
     2
340
11
275
     0
280
     0
281
     0
282
     0
283
     1
284
     0
285
     0
286
     0
287
     3
288
     0
  0
ENDTAB
  0
TABLE
  2
BLOCK_RECORD
  5
1
330
0
100
AcDbSymbolTable
 70
     1
  0
BLOCK_RECORD
  5
1F
330
1
100
AcDbSymbolTableRecord
100
AcDbBlockTableRecord
  2
*MODEL_SPACE
  0
BLOCK_RECORD
  5
1B
330
1
100
AcDbSymbolTableRecord
100
AcDbBlockTableRecord
  2
*PAPER_SPACE
  0
ENDTAB
  0
ENDSEC
  0
SECTION
  2
BLOCKS
  0
BLOCK
  5
20
330
1F
100
AcDbEntity
  8
0
100
AcDbBlockBegin
  2
*MODEL_SPACE
 70
     0
 10
0.0
 20
0.0
 30
0.0
  3
*MODEL_SPACE
  1

  0
ENDBLK
  5
21
330
1F
100
AcDbEntity
  8
0
100
AcDbBlockEnd
  0
BLOCK
  5
1C
330
1B
100
AcDbEntity
 67
     1
  8
0
100
AcDbBlockBegin
  2
*PAPER_SPACE
 70
     0
 10
0.0
 20
0.0
 30
0.0
  3
*PAPER_SPACE
  1

  0
ENDBLK
  5
1D
330
1B
100
AcDbEntity
 67
     1
  8
0
100
AcDbBlockEnd
  0
ENDSEC
  0
SECTION
  2
ENTITIES
  0
SPLINE
  5
41
330
1F
100
AcDbEntity
  8
ROUND
 62
   250
100
AcDbSpline
210
0.0
220
0.0
230
1.0
 70
    24
 71
     3
 72
     8
 73
     4
 74
     0
 42
0.0000000001
 43
0.0000000001
 40
0.0
 40
0.0
 40
0.0
 40
0.0
 40
1.0
 40
1.0
 40
1.0
 40
1.0
 10
-29.8052
 20
22.3236
 30
0.0
 10
-29.8052
 20
22.3236
 30
0.0
 10
-29.8052
 20
27.5332
 30
0.0
 10
-29.8052
 20
27.5332
 30
0.0
  0
SPLINE
  5
42
330
1F
100
AcDbEntity
  8
ROUND
 62
   250
100
AcDbSpline
210
0.0
220
0.0
230
1.0
 70
    24
 71
     3
 72
     8
 73
     4
 74
     0
 42
0.0000000001
 43
0.0000000001
 40
0.0
 40
0.0
 40
0.0
 40
0.0
 40
1.0
 40
1.0
 40
1.0
 40
1.0
 10
-20.82
 20
22.3236
 30
0.0
 10
-20.82
 20
22.3236
 30
0.0
 10
-20.82
 20
27.5547
 30
0.0
 10
-20.82
 20
27.5547
 30
0.0
  0
SPLINE
  5
43
330
1F
100
AcDbEntity
  8
ROUND
 62
   250
100
AcDbSpline
210
0.0
220
0.0
230
1.0
 70
    24
 71
     3
 72
     8
 73
     4
 74
     0
 42
0.0000000001
 43
0.0000000001
 40
0.0
 40
0.0
 40
0.0
 40
0.0
 40
1.0
 40
1.0
 40
1.0
 40
1.0
 10
-33.5668
 20
26.7042
 30
0.0
 10
-33.5668
 20
26.7042
 30
0.0
 10
-16.5212
 20
26.7042
 30
0.0
 10
-16.5212
 20
26.7042
 30
0.0
  0
SPLINE
  5
44
330
1F
100
AcDbEntity
  8
ROUND
 62
   250
100
AcDbSpline
210
0.0
220
0.0
230
1.0
 70
    24
 71
     3
 72
     8
 73
     4
 74
     0
 42
0.0000000001
 43
0.0000000001
 40
0.0
 40
0.0
 40
0.0
 40
0.0
 40
1.0
 40
1.0
 40
1.0
 40
1.0
 10
-30.7711
 20
22.3236
 30
0.0
 10
-30.7711
 20
22.3236
 30
0.0
 10
-35.1109
 20
22.3236
 30
0.0
 10
-35.1109
 20
22.3236
 30
0.0
  0
SPLINE
  5
45
330
1F
100
AcDbEntity
  8
ROUND
 62
   250
100
AcDbSpline
210
0.0
220
0.0
230
1.0
 70
    24
 71
     3
 72
     8
 73
     4
 74
     0
 42
0.0000000001
 43
0.0000000001
 40
0.0
 40
0.0
 40
0.0
 40
0.0
 40
1.0
 40
1.0
 40
1.0
 40
1.0
 10
-34.3291
 20
22.3236
 30
0.0
 10
-34.3291
 20
22.3236
 30
0.0
 10
-34.3291
 20
-8.4057
 30
0.0
 10
-34.3291
 20
-8.4057
 30
0.0
  0
SPLINE
  5
46
330
1F
100
AcDbEntity
  8
ROUND
 62
   250
100
AcDbSpline
210
0.0
220
0.0
230
1.0
 70
    24
 71
     3
 72
     8
 73
     4
 74
     0
 42
0.0000000001
 43
0.0000000001
 40
0.0
 40
0.0
 40
0.0
 40
0.0
 40
1.0
 40
1.0
 40
1.0
 40
1.0
 10
-23.3108
 20
-8.5768
 30
0.0
 10
-23.3108
 20
-8.5768
 30
0.0
 10
-35.1645
 20
-8.5768
 30
0.0
 10
-35.1645
 20
-8.5768
 30
0.0
  0
SPLINE
  5
47
330
1F
100
AcDbEntity
  8
ROUND
 62
   250
100
AcDbSpline
210
0.0
220
0.0
230
1.0
 70
    24
 71
     3
 72
     8
 73
     4
 74
     0
 42
0.0000000001
 43
0.0000000001
 40
0.0
 40
0.0
 40
0.0
 40
0.0
 40
1.0
 40
1.0
 40
1.0
 40
1.0
 10
-30.9434
 20
-24.3555
 30
0.0
 10
-30.9434
 20
-24.3555
 30
0.0
 10
-35.2635
 20
-24.3555
 30
0.0
 10
-35.2635
 20
-24.3555
 30
0.0
  0
SPLINE
  5
48
330
1F
100
AcDbEntity
  8
ROUND
 62
   250
100
AcDbSpline
210
0.0
220
0.0
230
1.0
 70
    24
 71
     3
 72
     8
 73
     4
 74
     0
 42
0.0000000001
 43
0.0000000001
 40
0.0
 40
0.0
 40
0.0
 40
0.0
 40
1.0
 40
1.0
 40
1.0
 40
1.0
 10
-34.3657
 20
-8.5766
 30
0.0
 10
-34.3657
 20
-8.5766
 30
0.0
 10
-34.3657
 20
-24.0023
 30
0.0
 10
-34.3657
 20
-24.0023
 30
0.0
  0
SPLINE
  5
49
330
1F
100
AcDbEntity
  8
ROUND
 62
   250
100
AcDbSpline
210
0.0
220
0.0
230
1.0
 70
    24
 71
     3
 72
     8
 73
     4
 74
     0
 42
0.0000000001
 43
0.0000000001
 40
0.0
 40
0.0
 40
0.0
 40
0.0
 40
1.0
 40
1.0
 40
1.0
 40
1.0
 10
21.9301
 20
-1.4543
 30
0.0
 10
21.9301
 20
-1.4543
 30
0.0
 10
37.0769
 20
-1.4543
 30
0.0
 10
37.0769
 20
-1.4543
 30
0.0
  0
SPLINE
  5
4A
330
1F
100
AcDbEntity
  8
ROUND
 62
   250
100
AcDbSpline
210
0.0
220
0.0
230
1.0
 70
    24
 71
     3
 72
     8
 73
     4
 74
     0
 42
0.0000000001
 43
0.0000000001
 40
0.0
 40
0.0
 40
0.0
 40
0.0
 40
1.0
 40
1.0
 40
1.0
 40
1.0
 10
22.09
 20
-15.699
 30
0.0
 10
22.09
 20
-15.699
 30
0.0
 10
37.0049
 20
-15.699
 30
0.0
 10
37.0049
 20
-15.699
 30
0.0
  0
SPLINE
  5
4B
330
1F
100
AcDbEntity
  8
ROUND
 62
   250
100
AcDbSpline
210
0.0
220
0.0
230
1.0
 70
    24
 71
     3
 72
     8
 73
     4
 74
     0
 42
0.0000000001
 43
0.0000000001
 40
0.0
 40
0.0
 40
0.0
 40
0.0
 40
1.0
 40
1.0
 40
1.0
 40
1.0
 10
36.5324
 20
-15.699
 30
0.0
 10
36.5324
 20
-15.699
 30
0.0
 10
36.5324
 20
-2.0699
 30
0.0
 10
36.5324
 20
-2.0699
 30
0.0
  0
SPLINE
  5
4C
330
1F
100
AcDbEntity
  8
ROUND
 62
   250
100
AcDbSpline
210
0.0
220
0.0
230
1.0
 70
    24
 71
     3
 72
     8
 73
     4
 74
     0
 42
0.0000000001
 43
0.0000000001
 40
0.0
 40
0.0
 40
0.0
 40
0.0
 40
1.0
 40
1.0
 40
1.0
 40
1.0
 10
-3.2173
 20
-19.7745
 30
0.0
 10
-3.2173
 20
-19.7745
 30
0.0
 10
-3.2173
 20
-0.3163
 30
0.0
 10
-3.2173
 20
-0.3163
 30
0.0
  0
SPLINE
  5
4D
330
1F
100
AcDbEntity
  8
ROUND
 62
   250
100
AcDbSpline
210
0.0
220
0.0
230
1.0
 70
    24
 71
     3
 72
     8
 73
     4
 74
     0
 42
0.0000000001
 43
0.0000000001
 40
0.0
 40
0.0
 40
0.0
 40
0.0
 40
1.0
 40
1.0
 40
1.0
 40
1.0
 10
32.2584
 20
-3.7252
 30
0.0
 10
32.2584
 20
-3.7252
 30
0.0
 10
32.2584
 20
16.742
 30
0.0
 10
32.2584
 20
16.742
 30
0.0
  0
SPLINE
  5
4E
330
1F
100
AcDbEntity
  8
ROUND
 62
   250
100
AcDbSpline
210
0.0
220
0.0
230
1.0
 70
    24
 71
     3
 72
     8
 73
     4
 74
     0
 42
0.0000000001
 43
0.0000000001
 40
0.0
 40
0.0
 40
0.0
 40
0.0
 40
1.0
 40
1.0
 40
1.0
 40
1.0
 10
-25.3126
 20
15.7055
 30
0.0
 10
-25.3126
 20
15.7055
 30
0.0
 10
32.0074
 20
15.7055
 30
0.0
 10
32.0074
 20
15.7055
 30
0.0
  0
SPLINE
  5
4F
330
1F
100
AcDbEntity
  8
ROUND
 62
   250
100
AcDbSpline
210
0.0
220
0.0
230
1.0
 70
    24
 71
     3
 72
     8
 73
     4
 74
     0
 42
0.0000000001
 43
0.0000000001
 40
0.0
 40
0.0
 40
0.0
 40
0.0
 40
1.0
 40
1.0
 40
1.0
 40
1.0
 10
-32.6543
 20
7.882
 30
0.0
 10
-32.6543
 20
7.882
 30
0.0
 10
-13.634
 20
7.882
 30
0.0
 10
-13.634
 20
7.882
 30
0.0
  0
SPLINE
  5
50
330
1F
100
AcDbEntity
  8
ROUND
 62
   250
100
AcDbSpline
210
0.0
220
0.0
230
1.0
 70
    24
 71
     3
 72
     8
 73
     4
 74
     0
 42
0.0000000001
 43
0.0000000001
 40
0.0
 40
0.0
 40
0.0
 40
0.0
 40
1.0
 40
1.0
 40
1.0
 40
1.0
 10
-30.2435
 20
-25.1684
 30
0.0
 10
-30.2435
 20
-25.1684
 30
0.0
 10
-30.2435
 20
-30.0376
 30
0.0
 10
-30.2435
 20
-30.0376
 30
0.0
  0
SPLINE
  5
51
330
1F
100
AcDbEntity
  8
ROUND
 62
   250
100
AcDbSpline
210
0.0
220
0.0
230
1.0
 70
    24
 71
     3
 72
     8
 73
     4
 74
     0
 42
0.0000000001
 43
0.0000000001
 40
0.0
 40
0.0
 40
0.0
 40
0.0
 40
1.0
 40
1.0
 40
1.0
 40
1.0
 10
-20.3818
 20
-25.2211
 30
0.0
 10
-20.3818
 20
-25.2211
 30
0.0
 10
-20.3818
 20
-30.0708
 30
0.0
 10
-20.3818
 20
-30.0708
 30
0.0
  0
SPLINE
  5
52
330
1F
100
AcDbEntity
  8
ROUND
 62
   250
100
AcDbSpline
210
0.0
220
0.0
230
1.0
 70
    24
 71
     3
 72
     8
 73
     4
 74
     0
 42
0.0000000001
 43
0.0000000001
 40
0.0
 40
0.0
 40
0.0
 40
0.0
 40
1.0
 40
1.0
 40
1.0
 40
1.0
 10
-34.0481
 20
-29.3339
 30
0.0
 10
-34.0481
 20
-29.3339
 30
0.0
 10
-15.9583
 20
-29.3339
 30
0.0
 10
-15.9583
 20
-29.3339
 30
0.0
  0
SPLINE
  5
53
330
1F
100
AcDbEntity
  8
ROUND
 62
   250
100
AcDbSpline
210
0.0
220
0.0
230
1.0
 70
    24
 71
     3
 72
     8
 73
     4
 74
     0
 42
0.0000000001
 43
0.0000000001
 40
0.0
 40
0.0
 40
0.0
 40
0.0
 40
1.0
 40
1.0
 40
1.0
 40
1.0
 10
-30.2435
 20
2.4905
 30
0.0
 10
-30.2435
 20
2.4905
 30
0.0
 10
-30.2435
 20
-0.0298
 30
0.0
 10
-30.2435
 20
-0.0298
 30
0.0
  0
SPLINE
  5
54
330
1F
100
AcDbEntity
  8
ROUND
 62
   250
100
AcDbSpline
210
0.0
220
0.0
230
1.0
 70
    24
 71
     3
 72
     8
 73
     4
 74
     0
 42
0.0000000001
 43
0.0000000001
 40
0.0
 40
0.0
 40
0.0
 40
0.0
 40
1.0
 40
1.0
 40
1.0
 40
1.0
 10
-30.2435
 20
-24.3555
 30
0.0
 10
-30.2435
 20
-24.3555
 30
0.0
 10
-30.2435
 20
-0.2489
 30
0.0
 10
-30.2435
 20
-0.2489
 30
0.0
  0
SPLINE
  5
55
330
1F
100
AcDbEntity
  8
ROUND
 62
   250
100
AcDbSpline
210
0.0
220
0.0
230
1.0
 70
    24
 71
     3
 72
     8
 73
     4
 74
     0
 42
0.0000000001
 43
0.0000000001
 40
0.0
 40
0.0
 40
0.0
 40
0.0
 40
1.0
 40
1.0
 40
1.0
 40
1.0
 10
-30.2435
 20
19.8034
 30
0.0
 10
-30.2435
 20
19.8034
 30
0.0
 10
-30.2435
 20
22.3236
 30
0.0
 10
-30.2435
 20
22.3236
 30
0.0
  0
SPLINE
  5
56
330
1F
100
AcDbEntity
  8
ROUND
 62
   250
100
AcDbSpline
210
0.0
220
0.0
230
1.0
 70
    24
 71
     3
 72
     8
 73
     4
 74
     0
 42
0.0000000001
 43
0.0000000001
 40
0.0
 40
0.0
 40
0.0
 40
0.0
 40
1.0
 40
1.0
 40
1.0
 40
1.0
 10
-30.2435
 20
-24.3555
 30
0.0
 10
-30.2435
 20
-24.3555
 30
0.0
 10
-20.3817
 20
-24.3555
 30
0.0
 10
-20.3817
 20
-24.3555
 30
0.0
  0
SPLINE
  5
57
330
1F
100
AcDbEntity
  8
ROUND
 62
   250
100
AcDbSpline
210
0.0
220
0.0
230
1.0
 70
    24
 71
     3
 72
     8
 73
     4
 74
     0
 42
0.0000000001
 43
0.0000000001
 40
0.0
 40
0.0
 40
0.0
 40
0.0
 40
1.0
 40
1.0
 40
1.0
 40
1.0
 10
-20.3817
 20
2.4905
 30
0.0
 10
-20.3817
 20
2.4905
 30
0.0
 10
-20.3817
 20
-0.0298
 30
0.0
 10
-20.3817
 20
-0.0298
 30
0.0
  0
SPLINE
  5
58
330
1F
100
AcDbEntity
  8
ROUND
 62
   250
100
AcDbSpline
210
0.0
220
0.0
230
1.0
 70
    24
 71
     3
 72
     8
 73
     4
 74
     0
 42
0.0000000001
 43
0.0000000001
 40
0.0
 40
0.0
 40
0.0
 40
0.0
 40
1.0
 40
1.0
 40
1.0
 40
1.0
 10
-20.3817
 20
-0.2489
 30
0.0
 10
-20.3817
 20
-0.2489
 30
0.0
 10
-20.3817
 20
-4.0841
 30
0.0
 10
-20.3817
 20
-4.0841
 30
0.0
  0
SPLINE
  5
59
330
1F
100
AcDbEntity
  8
ROUND
 62
   250
100
AcDbSpline
210
0.0
220
0.0
230
1.0
 70
    24
 71
     3
 72
     8
 73
     4
 74
     0
 42
0.0000000001
 43
0.0000000001
 40
0.0
 40
0.0
 40
0.0
 40
0.0
 40
1.0
 40
1.0
 40
1.0
 40
1.0
 10
-20.3817
 20
-13.0692
 30
0.0
 10
-20.3817
 20
-13.0692
 30
0.0
 10
-20.3817
 20
-24.3555
 30
0.0
 10
-20.3817
 20
-24.3555
 30
0.0
  0
SPLINE
  5
5A
330
1F
100
AcDbEntity
  8
ROUND
 62
   250
100
AcDbSpline
210
0.0
220
0.0
230
1.0
 70
    24
 71
     3
 72
     8
 73
     4
 74
     0
 42
0.0000000001
 43
0.0000000001
 40
0.0
 40
0.0
 40
0.0
 40
0.0
 40
1.0
 40
1.0
 40
1.0
 40
1.0
 10
-20.3817
 20
19.8034
 30
0.0
 10
-20.3817
 20
19.8034
 30
0.0
 10
-20.3817
 20
22.3236
 30
0.0
 10
-20.3817
 20
22.3236
 30
0.0
  0
SPLINE
  5
5B
330
1F
100
AcDbEntity
  8
ROUND
 62
   250
100
AcDbSpline
210
0.0
220
0.0
230
1.0
 70
    24
 71
     3
 72
     8
 73
     4
 74
     0
 42
0.0000000001
 43
0.0000000001
 40
0.0
 40
0.0
 40
0.0
 40
0.0
 40
1.0
 40
1.0
 40
1.0
 40
1.0
 10
-17.7519
 20
-13.5075
 30
0.0
 10
-17.7519
 20
-13.5075
 30
0.0
 10
-17.7519
 20
-3.6458
 30
0.0
 10
-17.7519
 20
-3.6458
 30
0.0
  0
SPLINE
  5
5C
330
1F
100
AcDbEntity
  8
ROUND
 62
   250
100
AcDbSpline
210
0.0
220
0.0
230
1.0
 70
    24
 71
     3
 72
     8
 73
     4
 74
     0
 42
0.0000000001
 43
0.0000000001
 40
0.0
 40
0.0
 40
0.0
 40
0.0
 40
1.0
 40
1.0
 40
1.0
 40
1.0
 10
-15.1221
 20
-13.3979
 30
0.0
 10
-15.1221
 20
-13.3979
 30
0.0
 10
-15.1221
 20
-3.7554
 30
0.0
 10
-15.1221
 20
-3.7554
 30
0.0
  0
SPLINE
  5
5D
330
1F
100
AcDbEntity
  8
ROUND
 62
   250
100
AcDbSpline
210
0.0
220
0.0
230
1.0
 70
    24
 71
     3
 72
     8
 73
     4
 74
     0
 42
0.0000000001
 43
0.0000000001
 40
0.0
 40
0.0
 40
0.0
 40
0.0
 40
1.0
 40
1.0
 40
1.0
 40
1.0
 10
21.3008
 20
-15.699
 30
0.0
 10
21.3008
 20
-15.699
 30
0.0
 10
16.8082
 20
-15.699
 30
0.0
 10
16.8082
 20
-15.699
 30
0.0
  0
SPLINE
  5
5E
330
1F
100
AcDbEntity
  8
ROUND
 62
   250
100
AcDbSpline
210
0.0
220
0.0
230
1.0
 70
    24
 71
     3
 72
     8
 73
     4
 74
     0
 42
0.0000000001
 43
0.0000000001
 40
0.0
 40
0.0
 40
0.0
 40
0.0
 40
1.0
 40
1.0
 40
1.0
 40
1.0
 10
-15.2317
 20
-13.5075
 30
0.0
 10
-15.2317
 20
-13.5075
 30
0.0
 10
-17.7519
 20
-13.5075
 30
0.0
 10
-17.7519
 20
-13.5075
 30
0.0
  0
SPLINE
  5
5F
330
1F
100
AcDbEntity
  8
ROUND
 62
   250
100
AcDbSpline
210
0.0
220
0.0
230
1.0
 70
    24
 71
     3
 72
     8
 73
     4
 74
     0
 42
0.0000000001
 43
0.0000000001
 40
0.0
 40
0.0
 40
0.0
 40
0.0
 40
1.0
 40
1.0
 40
1.0
 40
1.0
 10
-15.2317
 20
-3.6458
 30
0.0
 10
-15.2317
 20
-3.6458
 30
0.0
 10
-17.7519
 20
-3.6458
 30
0.0
 10
-17.7519
 20
-3.6458
 30
0.0
  0
SPLINE
  5
60
330
1F
100
AcDbEntity
  8
ROUND
 62
   250
100
AcDbSpline
210
0.0
220
0.0
230
1.0
 70
    24
 71
     3
 72
     8
 73
     4
 74
     0
 42
0.0000000001
 43
0.0000000001
 40
0.0
 40
0.0
 40
0.0
 40
0.0
 40
1.0
 40
1.0
 40
1.0
 40
1.0
 10
-30.2435
 20
-0.2489
 30
0.0
 10
-30.2435
 20
-0.2489
 30
0.0
 10
-20.3817
 20
-0.2489
 30
0.0
 10
-20.3817
 20
-0.2489
 30
0.0
  0
SPLINE
  5
61
330
1F
100
AcDbEntity
  8
ROUND
 62
   250
100
AcDbSpline
210
0.0
220
0.0
230
1.0
 70
    24
 71
     3
 72
     8
 73
     4
 74
     0
 42
0.0000000001
 43
0.0000000001
 40
0.0
 40
0.0
 40
0.0
 40
0.0
 40
1.0
 40
1.0
 40
1.0
 40
1.0
 10
-30.2435
 20
-0.0298
 30
0.0
 10
-30.2435
 20
-0.0298
 30
0.0
 10
-20.3817
 20
-0.0298
 30
0.0
 10
-20.3817
 20
-0.0298
 30
0.0
  0
SPLINE
  5
62
330
1F
100
AcDbEntity
  8
ROUND
 62
   250
100
AcDbSpline
210
0.0
220
0.0
230
1.0
 70
    24
 71
     3
 72
     8
 73
     4
 74
     0
 42
0.0000000001
 43
0.0000000001
 40
0.0
 40
0.0
 40
0.0
 40
0.0
 40
1.0
 40
1.0
 40
1.0
 40
1.0
 10
-20.4913
 20
2.6
 30
0.0
 10
-20.4913
 20
2.6
 30
0.0
 10
-30.1339
 20
2.6
 30
0.0
 10
-30.1339
 20
2.6
 30
0.0
  0
SPLINE
  5
63
330
1F
100
AcDbEntity
  8
ROUND
 62
   250
100
AcDbSpline
210
0.0
220
0.0
230
1.0
 70
    24
 71
     3
 72
     8
 73
     4
 74
     0
 42
0.0000000001
 43
0.0000000001
 40
0.0
 40
0.0
 40
0.0
 40
0.0
 40
1.0
 40
1.0
 40
1.0
 40
1.0
 10
21.3008
 20
-15.699
 30
0.0
 10
21.3008
 20
-15.699
 30
0.0
 10
21.3008
 20
-1.4543
 30
0.0
 10
21.3008
 20
-1.4543
 30
0.0
  0
SPLINE
  5
64
330
1F
100
AcDbEntity
  8
ROUND
 62
   250
100
AcDbSpline
210
0.0
220
0.0
230
1.0
 70
    24
 71
     3
 72
     8
 73
     4
 74
     0
 42
0.0000000001
 43
0.0000000001
 40
0.0
 40
0.0
 40
0.0
 40
0.0
 40
1.0
 40
1.0
 40
1.0
 40
1.0
 10
-30.1339
 20
19.6938
 30
0.0
 10
-30.1339
 20
19.6938
 30
0.0
 10
-20.4913
 20
19.6938
 30
0.0
 10
-20.4913
 20
19.6938
 30
0.0
  0
SPLINE
  5
65
330
1F
100
AcDbEntity
  8
ROUND
 62
   250
100
AcDbSpline
210
0.0
220
0.0
230
1.0
 70
    24
 71
     3
 72
     8
 73
     4
 74
     0
 42
0.0000000001
 43
0.0000000001
 40
0.0
 40
0.0
 40
0.0
 40
0.0
 40
1.0
 40
1.0
 40
1.0
 40
1.0
 10
-30.2435
 20
22.3236
 30
0.0
 10
-30.2435
 20
22.3236
 30
0.0
 10
-20.3817
 20
22.3236
 30
0.0
 10
-20.3817
 20
22.3236
 30
0.0
  0
SPLINE
  5
66
330
1F
100
AcDbEntity
  8
ROUND
 62
   250
100
AcDbSpline
210
0.0
220
0.0
230
1.0
 70
     8
 71
     3
 72
     8
 73
     4
 74
     0
 42
0.0000000001
 43
0.0000000001
 40
0.0
 40
0.0
 40
0.0
 40
0.0
 40
1.0
 40
1.0
 40
1.0
 40
1.0
 10
-20.4913
 20
19.6938
 30
0.0
 10
-20.4308
 20
19.6938
 30
0.0
 10
-20.3817
 20
19.7429
 30
0.0
 10
-20.3817
 20
19.8034
 30
0.0
  0
SPLINE
  5
67
330
1F
100
AcDbEntity
  8
ROUND
 62
   250
100
AcDbSpline
210
0.0
220
0.0
230
1.0
 70
     8
 71
     3
 72
     8
 73
     4
 74
     0
 42
0.0000000001
 43
0.0000000001
 40
0.0
 40
0.0
 40
0.0
 40
0.0
 40
1.0
 40
1.0
 40
1.0
 40
1.0
 10
-30.2435
 20
19.8034
 30
0.0
 10
-30.2435
 20
19.7429
 30
0.0
 10
-30.1945
 20
19.6938
 30
0.0
 10
-30.1339
 20
19.6938
 30
0.0
  0
SPLINE
  5
68
330
1F
100
AcDbEntity
  8
ROUND
 62
   250
100
AcDbSpline
210
0.0
220
0.0
230
1.0
 70
     8
 71
     3
 72
     8
 73
     4
 74
     0
 42
0.0000000001
 43
0.0000000001
 40
0.0
 40
0.0
 40
0.0
 40
0.0
 40
1.0
 40
1.0
 40
1.0
 40
1.0
 10
-20.3817
 20
2.4905
 30
0.0
 10
-20.3817
 20
2.551
 30
0.0
 10
-20.4308
 20
2.6
 30
0.0
 10
-20.4913
 20
2.6
 30
0.0
  0
SPLINE
  5
69
330
1F
100
AcDbEntity
  8
ROUND
 62
   250
100
AcDbSpline
210
0.0
220
0.0
230
1.0
 70
     8
 71
     3
 72
     8
 73
     4
 74
     0
 42
0.0000000001
 43
0.0000000001
 40
0.0
 40
0.0
 40
0.0
 40
0.0
 40
1.0
 40
1.0
 40
1.0
 40
1.0
 10
-30.1339
 20
2.6
 30
0.0
 10
-30.1945
 20
2.6
 30
0.0
 10
-30.2435
 20
2.551
 30
0.0
 10
-30.2435
 20
2.4905
 30
0.0
  0
SPLINE
  5
6A
330
1F
100
AcDbEntity
  8
ROUND
 62
   250
100
AcDbSpline
210
0.0
220
0.0
230
1.0
 70
     8
 71
     3
 72
     8
 73
     4
 74
     0
 42
0.0000000001
 43
0.0000000001
 40
0.0
 40
0.0
 40
0.0
 40
0.0
 40
1.0
 40
1.0
 40
1.0
 40
1.0
 10
-15.2317
 20
-13.5075
 30
0.0
 10
-15.1711
 20
-13.5075
 30
0.0
 10
-15.1221
 20
-13.4585
 30
0.0
 10
-15.1221
 20
-13.3979
 30
0.0
  0
SPLINE
  5
6B
330
1F
100
AcDbEntity
  8
ROUND
 62
   250
100
AcDbSpline
210
0.0
220
0.0
230
1.0
 70
     8
 71
     3
 72
     8
 73
     4
 74
     0
 42
0.0000000001
 43
0.0000000001
 40
0.0
 40
0.0
 40
0.0
 40
0.0
 40
1.0
 40
1.0
 40
1.0
 40
1.0
 10
-15.1221
 20
-3.7553
 30
0.0
 10
-15.1221
 20
-3.6949
 30
0.0
 10
-15.1711
 20
-3.6458
 30
0.0
 10
-15.2317
 20
-3.6458
 30
0.0
  0
SPLINE
  5
6C
330
1F
100
AcDbEntity
  8
ROUND
 62
   250
100
AcDbSpline
210
0.0
220
0.0
230
1.0
 70
    24
 71
     3
 72
     8
 73
     4
 74
     0
 42
0.0000000001
 43
0.0000000001
 40
0.0
 40
0.0
 40
0.0
 40
0.0
 40
1.0
 40
1.0
 40
1.0
 40
1.0
 10
-29.8052
 20
-0.2489
 30
0.0
 10
-29.8052
 20
-0.2489
 30
0.0
 10
-29.8052
 20
-0.0298
 30
0.0
 10
-29.8052
 20
-0.0298
 30
0.0
  0
SPLINE
  5
6D
330
1F
100
AcDbEntity
  8
ROUND
 62
   250
100
AcDbSpline
210
0.0
220
0.0
230
1.0
 70
    24
 71
     3
 72
     8
 73
     4
 74
     0
 42
0.0000000001
 43
0.0000000001
 40
0.0
 40
0.0
 40
0.0
 40
0.0
 40
1.0
 40
1.0
 40
1.0
 40
1.0
 10
-28.819
 20
19.6938
 30
0.0
 10
-28.819
 20
19.6938
 30
0.0
 10
-28.819
 20
2.6
 30
0.0
 10
-28.819
 20
2.6
 30
0.0
  0
SPLINE
  5
6E
330
1F
100
AcDbEntity
  8
ROUND
  6
NEW_LINE1
 62
   250
100
AcDbSpline
210
0.0
220
0.0
230
1.0
 70
    24
 71
     3
 72
     8
 73
     4
 74
     0
 42
0.0000000001
 43
0.0000000001
 40
0.0
 40
0.0
 40
0.0
 40
0.0
 40
1.0
 40
1.0
 40
1.0
 40
1.0
 10
-25.3126
 20
-25.1106
 30
0.0
 10
-25.3126
 20
-25.1106
 30
0.0
 10
-25.3126
 20
23.1783
 30
0.0
 10
-25.3126
 20
23.1783
 30
0.0
  0
SPLINE
  5
70
330
1F
100
AcDbEntity
  8
ROUND
 62
   250
100
AcDbSpline
210
0.0
220
0.0
230
1.0
 70
    24
 71
     3
 72
     8
 73
     4
 74
     0
 42
0.0000000001
 43
0.0000000001
 40
0.0
 40
0.0
 40
0.0
 40
0.0
 40
1.0
 40
1.0
 40
1.0
 40
1.0
 10
-21.8062
 20
19.6938
 30
0.0
 10
-21.8062
 20
19.6938
 30
0.0
 10
-21.8062
 20
2.6
 30
0.0
 10
-21.8062
 20
2.6
 30
0.0
  0
SPLINE
  5
71
330
1F
100
AcDbEntity
  8
ROUND
 62
   250
100
AcDbSpline
210
0.0
220
0.0
230
1.0
 70
    24
 71
     3
 72
     8
 73
     4
 74
     0
 42
0.0000000001
 43
0.0000000001
 40
0.0
 40
0.0
 40
0.0
 40
0.0
 40
1.0
 40
1.0
 40
1.0
 40
1.0
 10
-20.82
 20
-0.2489
 30
0.0
 10
-20.82
 20
-0.2489
 30
0.0
 10
-20.82
 20
-0.0298
 30
0.0
 10
-20.82
 20
-0.0298
 30
0.0
  0
SPLINE
  5
72
330
1F
100
AcDbEntity
  8
ROUND
 62
   250
100
AcDbSpline
210
0.0
220
0.0
230
1.0
 70
    24
 71
     3
 72
     8
 73
     4
 74
     0
 42
0.0000000001
 43
0.0000000001
 40
0.0
 40
0.0
 40
0.0
 40
0.0
 40
1.0
 40
1.0
 40
1.0
 40
1.0
 10
-17.7519
 20
-12.8501
 30
0.0
 10
-17.7519
 20
-12.8501
 30
0.0
 10
-20.1626
 20
-12.8501
 30
0.0
 10
-20.1626
 20
-12.8501
 30
0.0
  0
SPLINE
  5
73
330
1F
100
AcDbEntity
  8
ROUND
 62
   250
100
AcDbSpline
210
0.0
220
0.0
230
1.0
 70
    24
 71
     3
 72
     8
 73
     4
 74
     0
 42
0.0000000001
 43
0.0000000001
 40
0.0
 40
0.0
 40
0.0
 40
0.0
 40
1.0
 40
1.0
 40
1.0
 40
1.0
 10
32.2583
 20
-12.083
 30
0.0
 10
32.2583
 20
-12.083
 30
0.0
 10
21.3008
 20
-12.083
 30
0.0
 10
21.3008
 20
-12.083
 30
0.0
  0
SPLINE
  5
74
330
1F
100
AcDbEntity
  8
ROUND
 62
   250
100
AcDbSpline
210
0.0
220
0.0
230
1.0
 70
    24
 71
     3
 72
     8
 73
     4
 74
     0
 42
0.0000000001
 43
0.0000000001
 40
0.0
 40
0.0
 40
0.0
 40
0.0
 40
1.0
 40
1.0
 40
1.0
 40
1.0
 10
16.2603
 20
-12.083
 30
0.0
 10
16.2603
 20
-12.083
 30
0.0
 10
-15.1221
 20
-12.083
 30
0.0
 10
-15.1221
 20
-12.083
 30
0.0
  0
SPLINE
  5
75
330
1F
100
AcDbEntity
  8
ROUND
  6
NEW_LINE2
 62
   250
100
AcDbSpline
210
0.0
220
0.0
230
1.0
 70
    24
 71
     3
 72
     8
 73
     4
 74
     0
 42
0.0000000001
 43
0.0000000001
 40
0.0
 40
0.0
 40
0.0
 40
0.0
 40
1.0
 40
1.0
 40
1.0
 40
1.0
 10
-22.6887
 20
-8.5766
 30
0.0
 10
-22.6887
 20
-8.5766
 30
0.0
 10
32.6966
 20
-8.5766
 30
0.0
 10
32.6966
 20
-8.5766
 30
0.0
  0
SPLINE
  5
77
330
1F
100
AcDbEntity
  8
ROUND
 62
   250
100
AcDbSpline
210
0.0
220
0.0
230
1.0
 70
    24
 71
     3
 72
     8
 73
     4
 74
     0
 42
0.0000000001
 43
0.0000000001
 40
0.0
 40
0.0
 40
0.0
 40
0.0
 40
1.0
 40
1.0
 40
1.0
 40
1.0
 10
32.2583
 20
-5.0702
 30
0.0
 10
32.2583
 20
-5.0702
 30
0.0
 10
21.3008
 20
-5.0702
 30
0.0
 10
21.3008
 20
-5.0702
 30
0.0
  0
SPLINE
  5
78
330
1F
100
AcDbEntity
  8
ROUND
 62
   250
100
AcDbSpline
210
0.0
220
0.0
230
1.0
 70
    24
 71
     3
 72
     8
 73
     4
 74
     0
 42
0.0000000001
 43
0.0000000001
 40
0.0
 40
0.0
 40
0.0
 40
0.0
 40
1.0
 40
1.0
 40
1.0
 40
1.0
 10
16.2603
 20
-5.0702
 30
0.0
 10
16.2603
 20
-5.0702
 30
0.0
 10
-15.1221
 20
-5.0702
 30
0.0
 10
-15.1221
 20
-5.0702
 30
0.0
  0
SPLINE
  5
79
330
1F
100
AcDbEntity
  8
ROUND
 62
   250
100
AcDbSpline
210
0.0
220
0.0
230
1.0
 70
    24
 71
     3
 72
     8
 73
     4
 74
     0
 42
0.0000000001
 43
0.0000000001
 40
0.0
 40
0.0
 40
0.0
 40
0.0
 40
1.0
 40
1.0
 40
1.0
 40
1.0
 10
-17.7519
 20
-4.3032
 30
0.0
 10
-17.7519
 20
-4.3032
 30
0.0
 10
-20.1626
 20
-4.3032
 30
0.0
 10
-20.1626
 20
-4.3032
 30
0.0
  0
SPLINE
  5
7A
330
1F
100
AcDbEntity
  8
ROUND
 62
   250
100
AcDbSpline
210
0.0
220
0.0
230
1.0
 70
    24
 71
     3
 72
     8
 73
     4
 74
     0
 42
0.0000000001
 43
0.0000000001
 40
0.0
 40
0.0
 40
0.0
 40
0.0
 40
1.0
 40
1.0
 40
1.0
 40
1.0
 10
32.2583
 20
-12.083
 30
0.0
 10
32.2583
 20
-12.083
 30
0.0
 10
32.2583
 20
-5.0702
 30
0.0
 10
32.2583
 20
-5.0702
 30
0.0
  0
SPLINE
  5
7B
330
1F
100
AcDbEntity
  8
ROUND
 62
   250
100
AcDbSpline
210
0.0
220
0.0
230
1.0
 70
    24
 71
     3
 72
     8
 73
     4
 74
     0
 42
0.0000000001
 43
0.0000000001
 40
0.0
 40
0.0
 40
0.0
 40
0.0
 40
1.0
 40
1.0
 40
1.0
 40
1.0
 10
21.3008
 20
-15.699
 30
0.0
 10
21.3008
 20
-15.699
 30
0.0
 10
16.8082
 20
-15.699
 30
0.0
 10
16.8082
 20
-15.699
 30
0.0
  0
SPLINE
  5
7C
330
1F
100
AcDbEntity
  8
ROUND
 62
   250
100
AcDbSpline
210
0.0
220
0.0
230
1.0
 70
    24
 71
     3
 72
     8
 73
     4
 74
     0
 42
0.0000000001
 43
0.0000000001
 40
0.0
 40
0.0
 40
0.0
 40
0.0
 40
1.0
 40
1.0
 40
1.0
 40
1.0
 10
21.3008
 20
-1.4543
 30
0.0
 10
21.3008
 20
-1.4543
 30
0.0
 10
16.8082
 20
-1.4543
 30
0.0
 10
16.8082
 20
-1.4543
 30
0.0
  0
SPLINE
  5
7D
330
1F
100
AcDbEntity
  8
ROUND
 62
   250
100
AcDbSpline
210
0.0
220
0.0
230
1.0
 70
    24
 71
     3
 72
     8
 73
     4
 74
     0
 42
0.0000000001
 43
0.0000000001
 40
0.0
 40
0.0
 40
0.0
 40
0.0
 40
1.0
 40
1.0
 40
1.0
 40
1.0
 10
16.2603
 20
-15.1512
 30
0.0
 10
16.2603
 20
-15.1512
 30
0.0
 10
16.2603
 20
-2.0021
 30
0.0
 10
16.2603
 20
-2.0021
 30
0.0
  0
SPLINE
  5
7E
330
1F
100
AcDbEntity
  8
ROUND
 62
   250
100
AcDbSpline
210
0.0
220
0.0
230
1.0
 70
     8
 71
     3
 72
     8
 73
     4
 74
     0
 42
0.0000000001
 43
0.0000000001
 40
0.0
 40
0.0
 40
0.0
 40
0.0
 40
1.0
 40
1.0
 40
1.0
 40
1.0
 10
16.2603
 20
-15.1512
 30
0.0
 10
16.2603
 20
-15.4538
 30
0.0
 10
16.5056
 20
-15.699
 30
0.0
 10
16.8082
 20
-15.699
 30
0.0
  0
SPLINE
  5
7F
330
1F
100
AcDbEntity
  8
ROUND
 62
   250
100
AcDbSpline
210
0.0
220
0.0
230
1.0
 70
     8
 71
     3
 72
     8
 73
     4
 74
     0
 42
0.0000000001
 43
0.0000000001
 40
0.0
 40
0.0
 40
0.0
 40
0.0
 40
1.0
 40
1.0
 40
1.0
 40
1.0
 10
16.8082
 20
-1.4543
 30
0.0
 10
16.5056
 20
-1.4543
 30
0.0
 10
16.2603
 20
-1.6996
 30
0.0
 10
16.2603
 20
-2.0021
 30
0.0
  0
SPLINE
  5
80
330
1F
100
AcDbEntity
  8
ROUND
 62
   250
100
AcDbSpline
210
0.0
220
0.0
230
1.0
 70
     8
 71
     3
 72
    12
 73
     8
 74
     0
 42
0.0000000001
 43
0.0000000001
 40
0.0
 40
0.0
 40
0.0
 40
0.0
 40
0.3333333333333333
 40
0.3333333333333333
 40
0.3333333333333333
 40
0.3333333333333333
 40
1.0
 40
1.0
 40
1.0
 40
1.0
 10
-20.1626
 20
-12.8501
 30
0.0
 10
-20.2207
 20
-12.8501
 30
0.0
 10
-20.2764
 20
-12.8732
 30
0.0
 10
-20.3175
 20
-12.9143
 30
0.0
 10
-20.3175
 20
-12.9143
 30
0.0
 10
-20.3586
 20
-12.9553
 30
0.0
 10
-20.3817
 20
-13.0111
 30
0.0
 10
-20.3817
 20
-13.0692
 30
0.0
  0
SPLINE
  5
81
330
1F
100
AcDbEntity
  8
ROUND
 62
   250
100
AcDbSpline
210
0.0
220
0.0
230
1.0
 70
     8
 71
     3
 72
    12
 73
     8
 74
     0
 42
0.0000000001
 43
0.0000000001
 40
0.0
 40
0.0
 40
0.0
 40
0.0
 40
0.3333333333333333
 40
0.3333333333333333
 40
0.3333333333333333
 40
0.3333333333333333
 40
1.0
 40
1.0
 40
1.0
 40
1.0
 10
-20.3817
 20
-4.0841
 30
0.0
 10
-20.3817
 20
-4.1422
 30
0.0
 10
-20.3586
 20
-4.1979
 30
0.0
 10
-20.3175
 20
-4.239
 30
0.0
 10
-20.3175
 20
-4.239
 30
0.0
 10
-20.2764
 20
-4.2802
 30
0.0
 10
-20.2207
 20
-4.3032
 30
0.0
 10
-20.1626
 20
-4.3032
 30
0.0
  0
SPLINE
  5
82
330
1F
100
AcDbEntity
  8
ROUND
 62
   250
100
AcDbSpline
210
0.0
220
0.0
230
1.0
 70
     8
 71
     3
 72
   200
 73
   196
 74
     0
 42
0.0000000001
 43
0.0000000001
 40
0.0
 40
0.0
 40
0.0
 40
0.0
 40
0.02
 40
0.02
 40
0.02
 40
0.02
 40
0.04
 40
0.04
 40
0.04
 40
0.04
 40
0.06
 40
0.06
 40
0.06
 40
0.06
 40
0.08
 40
0.08
 40
0.08
 40
0.08
 40
0.1
 40
0.1
 40
0.1
 40
0.1
 40
0.12
 40
0.12
 40
0.12
 40
0.12
 40
0.14
 40
0.14
 40
0.14
 40
0.14
 40
0.16
 40
0.16
 40
0.16
 40
0.16
 40
0.18
 40
0.18
 40
0.18
 40
0.18
 40
0.2
 40
0.2
 40
0.2
 40
0.2
 40
0.22
 40
0.22
 40
0.22
 40
0.22
 40
0.24
 40
0.24
 40
0.24
 40
0.24
 40
0.26
 40
0.26
 40
0.26
 40
0.26
 40
0.28
 40
0.28
 40
0.28
 40
0.28
 40
0.3
 40
0.3
 40
0.3
 40
0.3
 40
0.32
 40
0.32
 40
0.32
 40
0.32
 40
0.34
 40
0.34
 40
0.34
 40
0.34
 40
0.36
 40
0.36
 40
0.36
 40
0.36
 40
0.38
 40
0.38
 40
0.38
 40
0.38
 40
0.4
 40
0.4
 40
0.4
 40
0.4
 40
0.42
 40
0.42
 40
0.42
 40
0.42
 40
0.44
 40
0.44
 40
0.44
 40
0.44
 40
0.46
 40
0.46
 40
0.46
 40
0.46
 40
0.48
 40
0.48
 40
0.48
 40
0.48
 40
0.5
 40
0.5
 40
0.5
 40
0.5
 40
0.52
 40
0.52
 40
0.52
 40
0.52
 40
0.54
 40
0.54
 40
0.54
 40
0.54
 40
0.56
 40
0.56
 40
0.56
 40
0.56
 40
0.58
 40
0.58
 40
0.58
 40
0.58
 40
0.6
 40
0.6
 40
0.6
 40
0.6
 40
0.62
 40
0.62
 40
0.62
 40
0.62
 40
0.64
 40
0.64
 40
0.64
 40
0.64
 40
0.66
 40
0.66
 40
0.66
 40
0.66
 40
0.68
 40
0.68
 40
0.68
 40
0.68
 40
0.7
 40
0.7
 40
0.7
 40
0.7
 40
0.72
 40
0.72
 40
0.72
 40
0.72
 40
0.74
 40
0.74
 40
0.74
 40
0.74
 40
0.76
 40
0.76
 40
0.76
 40
0.76
 40
0.78
 40
0.78
 40
0.78
 40
0.78
 40
0.8
 40
0.8
 40
0.8
 40
0.8
 40
0.82
 40
0.82
 40
0.82
 40
0.82
 40
0.84
 40
0.84
 40
0.84
 40
0.84
 40
0.86
 40
0.86
 40
0.86
 40
0.86
 40
0.88
 40
0.88
 40
0.88
 40
0.88
 40
0.9
 40
0.9
 40
0.9
 40
0.9
 40
0.92
 40
0.92
 40
0.92
 40
0.92
 40
0.94
 40
0.94
 40
0.94
 40
0.94
 40
0.96
 40
0.96
 40
0.96
 40
0.96
 40
1.0
 40
1.0
 40
1.0
 40
1.0
 10
-20.3817
 20
-4.0841
 30
0.0
 10
-20.3817
 20
-4.0841
 30
0.0
 10
-20.3825
 20
-4.0932
 30
0.0
 10
-20.3825
 20
-4.0932
 30
0.0
 10
-20.3825
 20
-4.0932
 30
0.0
 10
-20.3825
 20
-4.0932
 30
0.0
 10
-20.3849
 20
-4.1206
 30
0.0
 10
-20.3849
 20
-4.1206
 30
0.0
 10
-20.3849
 20
-4.1206
 30
0.0
 10
-20.3849
 20
-4.1206
 30
0.0
 10
-20.3889
 20
-4.1662
 30
0.0
 10
-20.3889
 20
-4.1662
 30
0.0
 10
-20.3889
 20
-4.1662
 30
0.0
 10
-20.3889
 20
-4.1662
 30
0.0
 10
-20.3943
 20
-4.2298
 30
0.0
 10
-20.3943
 20
-4.2298
 30
0.0
 10
-20.3943
 20
-4.2298
 30
0.0
 10
-20.3943
 20
-4.2298
 30
0.0
 10
-20.4011
 20
-4.3112
 30
0.0
 10
-20.4011
 20
-4.3112
 30
0.0
 10
-20.4011
 20
-4.3112
 30
0.0
 10
-20.4011
 20
-4.3112
 30
0.0
 10
-20.4093
 20
-4.4101
 30
0.0
 10
-20.4093
 20
-4.4101
 30
0.0
 10
-20.4093
 20
-4.4101
 30
0.0
 10
-20.4093
 20
-4.4101
 30
0.0
 10
-20.4186
 20
-4.5261
 30
0.0
 10
-20.4186
 20
-4.5261
 30
0.0
 10
-20.4186
 20
-4.5261
 30
0.0
 10
-20.4186
 20
-4.5261
 30
0.0
 10
-20.4289
 20
-4.6588
 30
0.0
 10
-20.4289
 20
-4.6588
 30
0.0
 10
-20.4289
 20
-4.6588
 30
0.0
 10
-20.4289
 20
-4.6588
 30
0.0
 10
-20.4401
 20
-4.8076
 30
0.0
 10
-20.4401
 20
-4.8076
 30
0.0
 10
-20.4401
 20
-4.8076
 30
0.0
 10
-20.4401
 20
-4.8076
 30
0.0
 10
-20.452
 20
-4.972
 30
0.0
 10
-20.452
 20
-4.972
 30
0.0
 10
-20.452
 20
-4.972
 30
0.0
 10
-20.452
 20
-4.972
 30
0.0
 10
-20.4643
 20
-5.1514
 30
0.0
 10
-20.4643
 20
-5.1514
 30
0.0
 10
-20.4643
 20
-5.1514
 30
0.0
 10
-20.4643
 20
-5.1514
 30
0.0
 10
-20.4769
 20
-5.345
 30
0.0
 10
-20.4769
 20
-5.345
 30
0.0
 10
-20.4769
 20
-5.345
 30
0.0
 10
-20.4769
 20
-5.345
 30
0.0
 10
-20.4896
 20
-5.5519
 30
0.0
 10
-20.4896
 20
-5.5519
 30
0.0
 10
-20.4896
 20
-5.5519
 30
0.0
 10
-20.4896
 20
-5.5519
 30
0.0
 10
-20.5021
 20
-5.7715
 30
0.0
 10
-20.5021
 20
-5.7715
 30
0.0
 10
-20.5021
 20
-5.7715
 30
0.0
 10
-20.5021
 20
-5.7715
 30
0.0
 10
-20.5143
 20
-6.0026
 30
0.0
 10
-20.5143
 20
-6.0026
 30
0.0
 10
-20.5143
 20
-6.0026
 30
0.0
 10
-20.5143
 20
-6.0026
 30
0.0
 10
-20.5259
 20
-6.2444
 30
0.0
 10
-20.5259
 20
-6.2444
 30
0.0
 10
-20.5259
 20
-6.2444
 30
0.0
 10
-20.5259
 20
-6.2444
 30
0.0
 10
-20.5368
 20
-6.4957
 30
0.0
 10
-20.5368
 20
-6.4957
 30
0.0
 10
-20.5368
 20
-6.4957
 30
0.0
 10
-20.5368
 20
-6.4957
 30
0.0
 10
-20.5467
 20
-6.7557
 30
0.0
 10
-20.5467
 20
-6.7557
 30
0.0
 10
-20.5467
 20
-6.7557
 30
0.0
 10
-20.5467
 20
-6.7557
 30
0.0
 10
-20.5555
 20
-7.0231
 30
0.0
 10
-20.5555
 20
-7.0231
 30
0.0
 10
-20.5555
 20
-7.0231
 30
0.0
 10
-20.5555
 20
-7.0231
 30
0.0
 10
-20.5631
 20
-7.2968
 30
0.0
 10
-20.5631
 20
-7.2968
 30
0.0
 10
-20.5631
 20
-7.2968
 30
0.0
 10
-20.5631
 20
-7.2968
 30
0.0
 10
-20.5694
 20
-7.5758
 30
0.0
 10
-20.5694
 20
-7.5758
 30
0.0
 10
-20.5694
 20
-7.5758
 30
0.0
 10
-20.5694
 20
-7.5758
 30
0.0
 10
-20.5742
 20
-7.8589
 30
0.0
 10
-20.5742
 20
-7.8589
 30
0.0
 10
-20.5742
 20
-7.8589
 30
0.0
 10
-20.5742
 20
-7.8589
 30
0.0
 10
-20.5774
 20
-8.1448
 30
0.0
 10
-20.5774
 20
-8.1448
 30
0.0
 10
-20.5774
 20
-8.1448
 30
0.0
 10
-20.5774
 20
-8.1448
 30
0.0
 10
-20.579
 20
-8.4325
 30
0.0
 10
-20.579
 20
-8.4325
 30
0.0
 10
-20.579
 20
-8.4325
 30
0.0
 10
-20.579
 20
-8.4325
 30
0.0
 10
-20.579
 20
-8.7208
 30
0.0
 10
-20.579
 20
-8.7208
 30
0.0
 10
-20.579
 20
-8.7208
 30
0.0
 10
-20.579
 20
-8.7208
 30
0.0
 10
-20.5774
 20
-9.0085
 30
0.0
 10
-20.5774
 20
-9.0085
 30
0.0
 10
-20.5774
 20
-9.0085
 30
0.0
 10
-20.5774
 20
-9.0085
 30
0.0
 10
-20.5741
 20
-9.2944
 30
0.0
 10
-20.5741
 20
-9.2944
 30
0.0
 10
-20.5741
 20
-9.2944
 30
0.0
 10
-20.5741
 20
-9.2944
 30
0.0
 10
-20.5694
 20
-9.5775
 30
0.0
 10
-20.5694
 20
-9.5775
 30
0.0
 10
-20.5694
 20
-9.5775
 30
0.0
 10
-20.5694
 20
-9.5775
 30
0.0
 10
-20.5631
 20
-9.8565
 30
0.0
 10
-20.5631
 20
-9.8565
 30
0.0
 10
-20.5631
 20
-9.8565
 30
0.0
 10
-20.5631
 20
-9.8565
 30
0.0
 10
-20.5555
 20
-10.1302
 30
0.0
 10
-20.5555
 20
-10.1302
 30
0.0
 10
-20.5555
 20
-10.1302
 30
0.0
 10
-20.5555
 20
-10.1302
 30
0.0
 10
-20.5467
 20
-10.3976
 30
0.0
 10
-20.5467
 20
-10.3976
 30
0.0
 10
-20.5467
 20
-10.3976
 30
0.0
 10
-20.5467
 20
-10.3976
 30
0.0
 10
-20.5368
 20
-10.6575
 30
0.0
 10
-20.5368
 20
-10.6575
 30
0.0
 10
-20.5368
 20
-10.6575
 30
0.0
 10
-20.5368
 20
-10.6575
 30
0.0
 10
-20.5259
 20
-10.9089
 30
0.0
 10
-20.5259
 20
-10.9089
 30
0.0
 10
-20.5259
 20
-10.9089
 30
0.0
 10
-20.5259
 20
-10.9089
 30
0.0
 10
-20.5143
 20
-11.1507
 30
0.0
 10
-20.5143
 20
-11.1507
 30
0.0
 10
-20.5143
 20
-11.1507
 30
0.0
 10
-20.5143
 20
-11.1507
 30
0.0
 10
-20.5021
 20
-11.3818
 30
0.0
 10
-20.5021
 20
-11.3818
 30
0.0
 10
-20.5021
 20
-11.3818
 30
0.0
 10
-20.5021
 20
-11.3818
 30
0.0
 10
-20.4896
 20
-11.6013
 30
0.0
 10
-20.4896
 20
-11.6013
 30
0.0
 10
-20.4896
 20
-11.6013
 30
0.0
 10
-20.4896
 20
-11.6013
 30
0.0
 10
-20.4769
 20
-11.8083
 30
0.0
 10
-20.4769
 20
-11.8083
 30
0.0
 10
-20.4769
 20
-11.8083
 30
0.0
 10
-20.4769
 20
-11.8083
 30
0.0
 10
-20.4643
 20
-12.0019
 30
0.0
 10
-20.4643
 20
-12.0019
 30
0.0
 10
-20.4643
 20
-12.0019
 30
0.0
 10
-20.4643
 20
-12.0019
 30
0.0
 10
-20.452
 20
-12.1813
 30
0.0
 10
-20.452
 20
-12.1813
 30
0.0
 10
-20.452
 20
-12.1813
 30
0.0
 10
-20.452
 20
-12.1813
 30
0.0
 10
-20.4401
 20
-12.3458
 30
0.0
 10
-20.4401
 20
-12.3458
 30
0.0
 10
-20.4401
 20
-12.3458
 30
0.0
 10
-20.4401
 20
-12.3458
 30
0.0
 10
-20.4289
 20
-12.4946
 30
0.0
 10
-20.4289
 20
-12.4946
 30
0.0
 10
-20.4289
 20
-12.4946
 30
0.0
 10
-20.4289
 20
-12.4946
 30
0.0
 10
-20.4186
 20
-12.6272
 30
0.0
 10
-20.4186
 20
-12.6272
 30
0.0
 10
-20.4186
 20
-12.6272
 30
0.0
 10
-20.4186
 20
-12.6272
 30
0.0
 10
-20.4093
 20
-12.7432
 30
0.0
 10
-20.4093
 20
-12.7432
 30
0.0
 10
-20.4093
 20
-12.7432
 30
0.0
 10
-20.4093
 20
-12.7432
 30
0.0
 10
-20.4011
 20
-12.8421
 30
0.0
 10
-20.4011
 20
-12.8421
 30
0.0
 10
-20.4011
 20
-12.8421
 30
0.0
 10
-20.4011
 20
-12.8421
 30
0.0
 10
-20.3943
 20
-12.9235
 30
0.0
 10
-20.3943
 20
-12.9235
 30
0.0
 10
-20.3943
 20
-12.9235
 30
0.0
 10
-20.3943
 20
-12.9235
 30
0.0
 10
-20.3889
 20
-12.9871
 30
0.0
 10
-20.3889
 20
-12.9871
 30
0.0
 10
-20.3889
 20
-12.9871
 30
0.0
 10
-20.3889
 20
-12.9871
 30
0.0
 10
-20.3849
 20
-13.0327
 30
0.0
 10
-20.3849
 20
-13.0327
 30
0.0
 10
-20.3849
 20
-13.0327
 30
0.0
 10
-20.3849
 20
-13.0327
 30
0.0
 10
-20.3825
 20
-13.0601
 30
0.0
 10
-20.3825
 20
-13.0601
 30
0.0
 10
-20.3825
 20
-13.0601
 30
0.0
 10
-20.3825
 20
-13.0601
 30
0.0
 10
-20.3817
 20
-13.0692
 30
0.0
 10
-20.3817
 20
-13.0692
 30
0.0
  0
SPLINE
  5
83
330
1F
100
AcDbEntity
  8
ROUND
 62
   250
100
AcDbSpline
210
0.0
220
0.0
230
1.0
 70
    11
 71
     3
 72
    20
 73
    16
 74
     0
 42
0.0000000001
 43
0.0000000001
 40
0.0
 40
0.0
 40
0.0
 40
0.0
 40
0.2
 40
0.2
 40
0.2
 40
0.2
 40
0.4
 40
0.4
 40
0.4
 40
0.4
 40
0.6
 40
0.6
 40
0.6
 40
0.6
 40
1.0
 40
1.0
 40
1.0
 40
1.0
 10
-34.7954
 20
19.2022
 30
0.0
 10
-34.7954
 20
19.2022
 30
0.0
 10
-34.372
 20
22.2022
 30
0.0
 10
-34.372
 20
22.2022
 30
0.0
 10
-34.372
 20
22.2022
 30
0.0
 10
-34.372
 20
22.2022
 30
0.0
 10
-34.278
 20
22.2022
 30
0.0
 10
-34.278
 20
22.2022
 30
0.0
 10
-34.278
 20
22.2022
 30
0.0
 10
-34.278
 20
22.2022
 30
0.0
 10
-33.8264
 20
19.2022
 30
0.0
 10
-33.8264
 20
19.2022
 30
0.0
 10
-33.8264
 20
19.2022
 30
0.0
 10
-33.8264
 20
19.2022
 30
0.0
 10
-34.7954
 20
19.2022
 30
0.0
 10
-34.7954
 20
19.2022
 30
0.0
  0
SPLINE
  5
84
330
1F
100
AcDbEntity
  8
ROUND
 62
   250
100
AcDbSpline
210
0.0
220
0.0
230
1.0
 70
    11
 71
     3
 72
    20
 73
    16
 74
     0
 42
0.0000000001
 43
0.0000000001
 40
0.0
 40
0.0
 40
0.0
 40
0.0
 40
0.2
 40
0.2
 40
0.2
 40
0.2
 40
0.4
 40
0.4
 40
0.4
 40
0.4
 40
0.6
 40
0.6
 40
0.6
 40
0.6
 40
1.0
 40
1.0
 40
1.0
 40
1.0
 10
-33.879
 20
-5.3499
 30
0.0
 10
-33.879
 20
-5.3499
 30
0.0
 10
-34.3024
 20
-8.3499
 30
0.0
 10
-34.3024
 20
-8.3499
 30
0.0
 10
-34.3024
 20
-8.3499
 30
0.0
 10
-34.3024
 20
-8.3499
 30
0.0
 10
-34.3964
 20
-8.3499
 30
0.0
 10
-34.3964
 20
-8.3499
 30
0.0
 10
-34.3964
 20
-8.3499
 30
0.0
 10
-34.3964
 20
-8.3499
 30
0.0
 10
-34.848
 20
-5.3499
 30
0.0
 10
-34.848
 20
-5.3499
 30
0.0
 10
-34.848
 20
-5.3499
 30
0.0
 10
-34.848
 20
-5.3499
 30
0.0
 10
-33.879
 20
-5.3499
 30
0.0
 10
-33.879
 20
-5.3499
 30
0.0
  0
SPLINE
  5
85
330
1F
100
AcDbEntity
  8
ROUND
 62
   250
100
AcDbSpline
210
0.0
220
0.0
230
1.0
 70
    11
 71
     3
 72
    80
 73
    76
 74
     0
 42
0.0000000001
 43
0.0000000001
 40
0.0
 40
0.0
 40
0.0
 40
0.0
 40
0.05
 40
0.05
 40
0.05
 40
0.05
 40
0.1
 40
0.1
 40
0.1
 40
0.1
 40
0.15
 40
0.15
 40
0.15
 40
0.15
 40
0.2
 40
0.2
 40
0.2
 40
0.2
 40
0.25
 40
0.25
 40
0.25
 40
0.25
 40
0.3
 40
0.3
 40
0.3
 40
0.3
 40
0.35
 40
0.35
 40
0.35
 40
0.35
 40
0.4
 40
0.4
 40
0.4
 40
0.4
 40
0.45
 40
0.45
 40
0.45
 40
0.45
 40
0.5
 40
0.5
 40
0.5
 40
0.5
 40
0.55
 40
0.55
 40
0.55
 40
0.55
 40
0.6
 40
0.6
 40
0.6
 40
0.6
 40
0.65
 40
0.65
 40
0.65
 40
0.65
 40
0.7
 40
0.7
 40
0.7
 40
0.7
 40
0.75
 40
0.75
 40
0.75
 40
0.75
 40
0.8
 40
0.8
 40
0.8
 40
0.8
 40
0.85
 40
0.85
 40
0.85
 40
0.85
 40
0.9
 40
0.9
 40
0.9
 40
0.9
 40
1.0
 40
1.0
 40
1.0
 40
1.0
 10
-36.5736
 20
3.7652
 30
0.0
 10
-36.5736
 20
3.7652
 30
0.0
 10
-36.5543
 20
3.5188
 30
0.0
 10
-36.5543
 20
3.5188
 30
0.0
 10
-36.5543
 20
3.5188
 30
0.0
 10
-36.6517
 20
3.4967
 30
0.0
 10
-36.7227
 20
3.4656
 30
0.0
 10
-36.7664
 20
3.4252
 30
0.0
 10
-36.7664
 20
3.4252
 30
0.0
 10
-36.8375
 20
3.3579
 30
0.0
 10
-36.8728
 20
3.2751
 30
0.0
 10
-36.8728
 20
3.1768
 30
0.0
 10
-36.8728
 20
3.1768
 30
0.0
 10
-36.8728
 20
3.0978
 30
0.0
 10
-36.8506
 20
3.0287
 30
0.0
 10
-36.8064
 20
2.9689
 30
0.0
 10
-36.8064
 20
2.9689
 30
0.0
 10
-36.7495
 20
2.8908
 30
0.0
 10
-36.6663
 20
2.8292
 30
0.0
 10
-36.5571
 20
2.7841
 30
0.0
 10
-36.5571
 20
2.7841
 30
0.0
 10
-36.448
 20
2.7394
 30
0.0
 10
-36.2923
 20
2.7159
 30
0.0
 10
-36.0901
 20
2.714
 30
0.0
 10
-36.0901
 20
2.714
 30
0.0
 10
-36.1808
 20
2.7737
 30
0.0
 10
-36.2486
 20
2.8466
 30
0.0
 10
-36.2928
 20
2.9332
 30
0.0
 10
-36.2928
 20
2.9332
 30
0.0
 10
-36.3365
 20
3.0192
 30
0.0
 10
-36.3586
 20
3.11
 30
0.0
 10
-36.3586
 20
3.2046
 30
0.0
 10
-36.3586
 20
3.2046
 30
0.0
 10
-36.3586
 20
3.3701
 30
0.0
 10
-36.298
 20
3.5108
 30
0.0
 10
-36.1761
 20
3.627
 30
0.0
 10
-36.1761
 20
3.627
 30
0.0
 10
-36.0543
 20
3.7431
 30
0.0
 10
-35.8972
 20
3.8015
 30
0.0
 10
-35.7044
 20
3.8015
 30
0.0
 10
-35.7044
 20
3.8015
 30
0.0
 10
-35.5774
 20
3.8015
 30
0.0
 10
-35.4598
 20
3.7737
 30
0.0
 10
-35.3506
 20
3.7191
 30
0.0
 10
-35.3506
 20
3.7191
 30
0.0
 10
-35.242
 20
3.6646
 30
0.0
 10
-35.1583
 20
3.5893
 30
0.0
 10
-35.1004
 20
3.4938
 30
0.0
 10
-35.1004
 20
3.4938
 30
0.0
 10
-35.0426
 20
3.3984
 30
0.0
 10
-35.0139
 20
3.2902
 30
0.0
 10
-35.0139
 20
3.1688
 30
0.0
 10
-35.0139
 20
3.1688
 30
0.0
 10
-35.0139
 20
2.9619
 30
0.0
 10
-35.0896
 20
2.7935
 30
0.0
 10
-35.242
 20
2.6632
 30
0.0
 10
-35.242
 20
2.6632
 30
0.0
 10
-35.3939
 20
2.5324
 30
0.0
 10
-35.6446
 20
2.4675
 30
0.0
 10
-35.9936
 20
2.4675
 30
0.0
 10
-35.9936
 20
2.4675
 30
0.0
 10
-36.384
 20
2.4675
 30
0.0
 10
-36.6677
 20
2.5395
 30
0.0
 10
-36.845
 20
2.6839
 30
0.0
 10
-36.845
 20
2.6839
 30
0.0
 10
-36.9993
 20
2.8095
 30
0.0
 10
-37.0769
 20
2.9788
 30
0.0
 10
-37.0769
 20
3.1923
 30
0.0
 10
-37.0769
 20
3.1923
 30
0.0
 10
-37.0769
 20
3.3509
 30
0.0
 10
-37.0322
 20
3.4811
 30
0.0
 10
-36.9428
 20
3.5827
 30
0.0
 10
-36.9428
 20
3.5827
 30
0.0
 10
-36.8539
 20
3.6843
 30
0.0
 10
-36.7307
 20
3.745
 30
0.0
 10
-36.5736
 20
3.7652
 30
0.0
  0
SPLINE
  5
86
330
1F
100
AcDbEntity
  8
ROUND
 62
   250
100
AcDbSpline
210
0.0
220
0.0
230
1.0
 70
    11
 71
     3
 72
    40
 73
    36
 74
     0
 42
0.0000000001
 43
0.0000000001
 40
0.0
 40
0.0
 40
0.0
 40
0.0
 40
0.1
 40
0.1
 40
0.1
 40
0.1
 40
0.2
 40
0.2
 40
0.2
 40
0.2
 40
0.3
 40
0.3
 40
0.3
 40
0.3
 40
0.4
 40
0.4
 40
0.4
 40
0.4
 40
0.5
 40
0.5
 40
0.5
 40
0.5
 40
0.6
 40
0.6
 40
0.6
 40
0.6
 40
0.7
 40
0.7
 40
0.7
 40
0.7
 40
0.8
 40
0.8
 40
0.8
 40
0.8
 40
1.0
 40
1.0
 40
1.0
 40
1.0
 10
-35.703
 20
2.7525
 30
0.0
 10
-35.6173
 20
2.7525
 30
0.0
 10
-35.5355
 20
2.7709
 30
0.0
 10
-35.4574
 20
2.8071
 30
0.0
 10
-35.4574
 20
2.8071
 30
0.0
 10
-35.3793
 20
2.8433
 30
0.0
 10
-35.3201
 20
2.8941
 30
0.0
 10
-35.2792
 20
2.959
 30
0.0
 10
-35.2792
 20
2.959
 30
0.0
 10
-35.2382
 20
3.0244
 30
0.0
 10
-35.2175
 20
3.0931
 30
0.0
 10
-35.2175
 20
3.1646
 30
0.0
 10
-35.2175
 20
3.1646
 30
0.0
 10
-35.2175
 20
3.2695
 30
0.0
 10
-35.2599
 20
3.3593
 30
0.0
 10
-35.3445
 20
3.4346
 30
0.0
 10
-35.3445
 20
3.4346
 30
0.0
 10
-35.4292
 20
3.5098
 30
0.0
 10
-35.544
 20
3.5475
 30
0.0
 10
-35.6888
 20
3.5475
 30
0.0
 10
-35.6888
 20
3.5475
 30
0.0
 10
-35.8285
 20
3.5475
 30
0.0
 10
-35.9386
 20
3.5103
 30
0.0
 10
-36.019
 20
3.436
 30
0.0
 10
-36.019
 20
3.436
 30
0.0
 10
-36.0995
 20
3.3617
 30
0.0
 10
-36.1395
 20
3.2681
 30
0.0
 10
-36.1395
 20
3.1552
 30
0.0
 10
-36.1395
 20
3.1552
 30
0.0
 10
-36.1395
 20
3.0428
 30
0.0
 10
-36.0995
 20
2.9477
 30
0.0
 10
-36.019
 20
2.8697
 30
0.0
 10
-36.019
 20
2.8697
 30
0.0
 10
-35.9386
 20
2.7916
 30
0.0
 10
-35.8332
 20
2.7525
 30
0.0
 10
-35.703
 20
2.7525
 30
0.0
  0
SPLINE
  5
87
330
1F
100
AcDbEntity
  8
ROUND
 62
   250
100
AcDbSpline
210
0.0
220
0.0
230
1.0
 70
    11
 71
     3
 72
    92
 73
    88
 74
     0
 42
0.0000000001
 43
0.0000000001
 40
0.0
 40
0.0
 40
0.0
 40
0.0
 40
0.0434782608695652
 40
0.0434782608695652
 40
0.0434782608695652
 40
0.0434782608695652
 40
0.0869565217391304
 40
0.0869565217391304
 40
0.0869565217391304
 40
0.0869565217391304
 40
0.1304347826086956
 40
0.1304347826086956
 40
0.1304347826086956
 40
0.1304347826086956
 40
0.1739130434782609
 40
0.1739130434782609
 40
0.1739130434782609
 40
0.1739130434782609
 40
0.2173913043478261
 40
0.2173913043478261
 40
0.2173913043478261
 40
0.2173913043478261
 40
0.2608695652173913
 40
0.2608695652173913
 40
0.2608695652173913
 40
0.2608695652173913
 40
0.3043478260869565
 40
0.3043478260869565
 40
0.3043478260869565
 40
0.3043478260869565
 40
0.3478260869565217
 40
0.3478260869565217
 40
0.3478260869565217
 40
0.3478260869565217
 40
0.391304347826087
 40
0.391304347826087
 40
0.391304347826087
 40
0.391304347826087
 40
0.4347826086956522
 40
0.4347826086956522
 40
0.4347826086956522
 40
0.4347826086956522
 40
0.4782608695652174
 40
0.4782608695652174
 40
0.4782608695652174
 40
0.4782608695652174
 40
0.5217391304347826
 40
0.5217391304347826
 40
0.5217391304347826
 40
0.5217391304347826
 40
0.5652173913043478
 40
0.5652173913043478
 40
0.5652173913043478
 40
0.5652173913043478
 40
0.6086956521739131
 40
0.6086956521739131
 40
0.6086956521739131
 40
0.6086956521739131
 40
0.6521739130434783
 40
0.6521739130434783
 40
0.6521739130434783
 40
0.6521739130434783
 40
0.6956521739130435
 40
0.6956521739130435
 40
0.6956521739130435
 40
0.6956521739130435
 40
0.7391304347826086
 40
0.7391304347826086
 40
0.7391304347826086
 40
0.7391304347826086
 40
0.782608695652174
 40
0.782608695652174
 40
0.782608695652174
 40
0.782608695652174
 40
0.8260869565217391
 40
0.8260869565217391
 40
0.8260869565217391
 40
0.8260869565217391
 40
0.8695652173913043
 40
0.8695652173913043
 40
0.8695652173913043
 40
0.8695652173913043
 40
0.9130434782608695
 40
0.9130434782608695
 40
0.9130434782608695
 40
0.9130434782608695
 40
1.0
 40
1.0
 40
1.0
 40
1.0
 10
-35.5774
 20
4.0479
 30
0.0
 10
-35.5774
 20
4.0479
 30
0.0
 10
-35.5995
 20
4.3085
 30
0.0
 10
-35.5995
 20
4.3085
 30
0.0
 10
-35.5995
 20
4.3085
 30
0.0
 10
-35.4725
 20
4.3278
 30
0.0
 10
-35.3775
 20
4.3725
 30
0.0
 10
-35.3135
 20
4.4426
 30
0.0
 10
-35.3135
 20
4.4426
 30
0.0
 10
-35.2495
 20
4.5131
 30
0.0
 10
-35.2175
 20
4.5978
 30
0.0
 10
-35.2175
 20
4.697
 30
0.0
 10
-35.2175
 20
4.697
 30
0.0
 10
-35.2175
 20
4.8165
 30
0.0
 10
-35.2627
 20
4.9176
 30
0.0
 10
-35.3525
 20
4.9999
 30
0.0
 10
-35.3525
 20
4.9999
 30
0.0
 10
-35.4428
 20
5.0827
 30
0.0
 10
-35.5623
 20
5.1241
 30
0.0
 10
-35.7109
 20
5.1241
 30
0.0
 10
-35.7109
 20
5.1241
 30
0.0
 10
-35.8525
 20
5.1241
 30
0.0
 10
-35.964
 20
5.0846
 30
0.0
 10
-36.0458
 20
5.0051
 30
0.0
 10
-36.0458
 20
5.0051
 30
0.0
 10
-36.1277
 20
4.9256
 30
0.0
 10
-36.1686
 20
4.8217
 30
0.0
 10
-36.1686
 20
4.6928
 30
0.0
 10
-36.1686
 20
4.6928
 30
0.0
 10
-36.1686
 20
4.6128
 30
0.0
 10
-36.1503
 20
4.5409
 30
0.0
 10
-36.1141
 20
4.4764
 30
0.0
 10
-36.1141
 20
4.4764
 30
0.0
 10
-36.0778
 20
4.412
 30
0.0
 10
-36.0308
 20
4.3617
 30
0.0
 10
-35.9729
 20
4.325
 30
0.0
 10
-35.9729
 20
4.325
 30
0.0
 10
-35.9729
 20
4.325
 30
0.0
 10
-36.003
 20
4.0921
 30
0.0
 10
-36.003
 20
4.0921
 30
0.0
 10
-36.003
 20
4.0921
 30
0.0
 10
-36.003
 20
4.0921
 30
0.0
 10
-37.0407
 20
4.2878
 30
0.0
 10
-37.0407
 20
4.2878
 30
0.0
 10
-37.0407
 20
4.2878
 30
0.0
 10
-37.0407
 20
4.2878
 30
0.0
 10
-37.0407
 20
5.2925
 30
0.0
 10
-37.0407
 20
5.2925
 30
0.0
 10
-37.0407
 20
5.2925
 30
0.0
 10
-37.0407
 20
5.2925
 30
0.0
 10
-36.8036
 20
5.2925
 30
0.0
 10
-36.8036
 20
5.2925
 30
0.0
 10
-36.8036
 20
5.2925
 30
0.0
 10
-36.8036
 20
5.2925
 30
0.0
 10
-36.8036
 20
4.4863
 30
0.0
 10
-36.8036
 20
4.4863
 30
0.0
 10
-36.8036
 20
4.4863
 30
0.0
 10
-36.8036
 20
4.4863
 30
0.0
 10
-36.2608
 20
4.3772
 30
0.0
 10
-36.2608
 20
4.3772
 30
0.0
 10
-36.2608
 20
4.3772
 30
0.0
 10
-36.3455
 20
4.4985
 30
0.0
 10
-36.3878
 20
4.626
 30
0.0
 10
-36.3878
 20
4.7591
 30
0.0
 10
-36.3878
 20
4.7591
 30
0.0
 10
-36.3878
 20
4.9355
 30
0.0
 10
-36.3267
 20
5.0841
 30
0.0
 10
-36.2044
 20
5.2055
 30
0.0
 10
-36.2044
 20
5.2055
 30
0.0
 10
-36.0821
 20
5.3268
 30
0.0
 10
-35.925
 20
5.3875
 30
0.0
 10
-35.7331
 20
5.3875
 30
0.0
 10
-35.7331
 20
5.3875
 30
0.0
 10
-35.5501
 20
5.3875
 30
0.0
 10
-35.392
 20
5.3339
 30
0.0
 10
-35.2589
 20
5.2276
 30
0.0
 10
-35.2589
 20
5.2276
 30
0.0
 10
-35.0957
 20
5.0978
 30
0.0
 10
-35.0139
 20
4.9209
 30
0.0
 10
-35.0139
 20
4.697
 30
0.0
 10
-35.0139
 20
4.697
 30
0.0
 10
-35.0139
 20
4.5131
 30
0.0
 10
-35.0651
 20
4.3631
 30
0.0
 10
-35.1681
 20
4.2469
 30
0.0
 10
-35.1681
 20
4.2469
 30
0.0
 10
-35.2712
 20
4.1307
 30
0.0
 10
-35.4076
 20
4.0644
 30
0.0
 10
-35.5774
 20
4.0479
 30
0.0
  0
SPLINE
  5
88
330
1F
100
AcDbEntity
  8
ROUND
 62
   250
100
AcDbSpline
210
0.0
220
0.0
230
1.0
 70
    11
 71
     3
 72
    20
 73
    16
 74
     0
 42
0.0000000001
 43
0.0000000001
 40
0.0
 40
0.0
 40
0.0
 40
0.0
 40
0.2
 40
0.2
 40
0.2
 40
0.2
 40
0.4
 40
0.4
 40
0.4
 40
0.4
 40
0.6
 40
0.6
 40
0.6
 40
0.6
 40
1.0
 40
1.0
 40
1.0
 40
1.0
 10
-35.6545
 20
6.3739
 30
0.0
 10
-35.6545
 20
6.3739
 30
0.0
 10
-35.9038
 20
6.3739
 30
0.0
 10
-35.9038
 20
6.3739
 30
0.0
 10
-35.9038
 20
6.3739
 30
0.0
 10
-35.9038
 20
6.3739
 30
0.0
 10
-35.9038
 20
7.1363
 30
0.0
 10
-35.9038
 20
7.1363
 30
0.0
 10
-35.9038
 20
7.1363
 30
0.0
 10
-35.9038
 20
7.1363
 30
0.0
 10
-35.6545
 20
7.1363
 30
0.0
 10
-35.6545
 20
7.1363
 30
0.0
 10
-35.6545
 20
7.1363
 30
0.0
 10
-35.6545
 20
7.1363
 30
0.0
 10
-35.6545
 20
6.3739
 30
0.0
 10
-35.6545
 20
6.3739
 30
0.0
  0
SPLINE
  5
89
330
1F
100
AcDbEntity
  8
ROUND
 62
   250
100
AcDbSpline
210
0.0
220
0.0
230
1.0
 70
    11
 71
     3
 72
    40
 73
    36
 74
     0
 42
0.0000000001
 43
0.0000000001
 40
0.0
 40
0.0
 40
0.0
 40
0.0
 40
0.1
 40
0.1
 40
0.1
 40
0.1
 40
0.2
 40
0.2
 40
0.2
 40
0.2
 40
0.3
 40
0.3
 40
0.3
 40
0.3
 40
0.4
 40
0.4
 40
0.4
 40
0.4
 40
0.5
 40
0.5
 40
0.5
 40
0.5
 40
0.6
 40
0.6
 40
0.6
 40
0.6
 40
0.7
 40
0.7
 40
0.7
 40
0.7
 40
0.8
 40
0.8
 40
0.8
 40
0.8
 40
1.0
 40
1.0
 40
1.0
 40
1.0
 10
-35.0482
 20
9.0597
 30
0.0
 10
-35.0482
 20
9.0597
 30
0.0
 10
-35.0482
 20
8.8118
 30
0.0
 10
-35.0482
 20
8.8118
 30
0.0
 10
-35.0482
 20
8.8118
 30
0.0
 10
-35.0482
 20
8.8118
 30
0.0
 10
-36.6286
 20
8.8118
 30
0.0
 10
-36.6286
 20
8.8118
 30
0.0
 10
-36.6286
 20
8.8118
 30
0.0
 10
-36.5717
 20
8.752
 30
0.0
 10
-36.5148
 20
8.674
 30
0.0
 10
-36.4579
 20
8.5771
 30
0.0
 10
-36.4579
 20
8.5771
 30
0.0
 10
-36.401
 20
8.4797
 30
0.0
 10
-36.3582
 20
8.3927
 30
0.0
 10
-36.3299
 20
8.3155
 30
0.0
 10
-36.3299
 20
8.3155
 30
0.0
 10
-36.3299
 20
8.3155
 30
0.0
 10
-36.5694
 20
8.3155
 30
0.0
 10
-36.5694
 20
8.3155
 30
0.0
 10
-36.5694
 20
8.3155
 30
0.0
 10
-36.6347
 20
8.4543
 30
0.0
 10
-36.7138
 20
8.5757
 30
0.0
 10
-36.8064
 20
8.6796
 30
0.0
 10
-36.8064
 20
8.6796
 30
0.0
 10
-36.8996
 20
8.7831
 30
0.0
 10
-36.9894
 20
8.8569
 30
0.0
 10
-37.0769
 20
8.9002
 30
0.0
 10
-37.0769
 20
8.9002
 30
0.0
 10
-37.0769
 20
8.9002
 30
0.0
 10
-37.0769
 20
9.0597
 30
0.0
 10
-37.0769
 20
9.0597
 30
0.0
 10
-37.0769
 20
9.0597
 30
0.0
 10
-37.0769
 20
9.0597
 30
0.0
 10
-35.0482
 20
9.0597
 30
0.0
 10
-35.0482
 20
9.0597
 30
0.0
  0
SPLINE
  5
8A
330
1F
100
AcDbEntity
  8
ROUND
 62
   250
100
AcDbSpline
210
0.0
220
0.0
230
1.0
 70
    11
 71
     3
 72
    80
 73
    76
 74
     0
 42
0.0000000001
 43
0.0000000001
 40
0.0
 40
0.0
 40
0.0
 40
0.0
 40
0.05
 40
0.05
 40
0.05
 40
0.05
 40
0.1
 40
0.1
 40
0.1
 40
0.1
 40
0.15
 40
0.15
 40
0.15
 40
0.15
 40
0.2
 40
0.2
 40
0.2
 40
0.2
 40
0.25
 40
0.25
 40
0.25
 40
0.25
 40
0.3
 40
0.3
 40
0.3
 40
0.3
 40
0.35
 40
0.35
 40
0.35
 40
0.35
 40
0.4
 40
0.4
 40
0.4
 40
0.4
 40
0.45
 40
0.45
 40
0.45
 40
0.45
 40
0.5
 40
0.5
 40
0.5
 40
0.5
 40
0.55
 40
0.55
 40
0.55
 40
0.55
 40
0.6
 40
0.6
 40
0.6
 40
0.6
 40
0.65
 40
0.65
 40
0.65
 40
0.65
 40
0.7
 40
0.7
 40
0.7
 40
0.7
 40
0.75
 40
0.75
 40
0.75
 40
0.75
 40
0.8
 40
0.8
 40
0.8
 40
0.8
 40
0.85
 40
0.85
 40
0.85
 40
0.85
 40
0.9
 40
0.9
 40
0.9
 40
0.9
 40
1.0
 40
1.0
 40
1.0
 40
1.0
 10
-36.5736
 20
10.982
 30
0.0
 10
-36.5736
 20
10.982
 30
0.0
 10
-36.5543
 20
10.7356
 30
0.0
 10
-36.5543
 20
10.7356
 30
0.0
 10
-36.5543
 20
10.7356
 30
0.0
 10
-36.6517
 20
10.7135
 30
0.0
 10
-36.7227
 20
10.6824
 30
0.0
 10
-36.7664
 20
10.642
 30
0.0
 10
-36.7664
 20
10.642
 30
0.0
 10
-36.8375
 20
10.5747
 30
0.0
 10
-36.8728
 20
10.4919
 30
0.0
 10
-36.8728
 20
10.3936
 30
0.0
 10
-36.8728
 20
10.3936
 30
0.0
 10
-36.8728
 20
10.3146
 30
0.0
 10
-36.8506
 20
10.2455
 30
0.0
 10
-36.8064
 20
10.1857
 30
0.0
 10
-36.8064
 20
10.1857
 30
0.0
 10
-36.7495
 20
10.1076
 30
0.0
 10
-36.6663
 20
10.046
 30
0.0
 10
-36.5571
 20
10.0009
 30
0.0
 10
-36.5571
 20
10.0009
 30
0.0
 10
-36.448
 20
9.9562
 30
0.0
 10
-36.2923
 20
9.9327
 30
0.0
 10
-36.0901
 20
9.9308
 30
0.0
 10
-36.0901
 20
9.9308
 30
0.0
 10
-36.1808
 20
9.9905
 30
0.0
 10
-36.2486
 20
10.0634
 30
0.0
 10
-36.2928
 20
10.15
 30
0.0
 10
-36.2928
 20
10.15
 30
0.0
 10
-36.3365
 20
10.236
 30
0.0
 10
-36.3586
 20
10.3268
 30
0.0
 10
-36.3586
 20
10.4214
 30
0.0
 10
-36.3586
 20
10.4214
 30
0.0
 10
-36.3586
 20
10.5869
 30
0.0
 10
-36.298
 20
10.7276
 30
0.0
 10
-36.1761
 20
10.8438
 30
0.0
 10
-36.1761
 20
10.8438
 30
0.0
 10
-36.0543
 20
10.9599
 30
0.0
 10
-35.8972
 20
11.0183
 30
0.0
 10
-35.7044
 20
11.0183
 30
0.0
 10
-35.7044
 20
11.0183
 30
0.0
 10
-35.5774
 20
11.0183
 30
0.0
 10
-35.4598
 20
10.9905
 30
0.0
 10
-35.3506
 20
10.9359
 30
0.0
 10
-35.3506
 20
10.9359
 30
0.0
 10
-35.242
 20
10.8814
 30
0.0
 10
-35.1583
 20
10.8061
 30
0.0
 10
-35.1004
 20
10.7106
 30
0.0
 10
-35.1004
 20
10.7106
 30
0.0
 10
-35.0426
 20
10.6152
 30
0.0
 10
-35.0139
 20
10.507
 30
0.0
 10
-35.0139
 20
10.3856
 30
0.0
 10
-35.0139
 20
10.3856
 30
0.0
 10
-35.0139
 20
10.1787
 30
0.0
 10
-35.0896
 20
10.0103
 30
0.0
 10
-35.242
 20
9.88
 30
0.0
 10
-35.242
 20
9.88
 30
0.0
 10
-35.3939
 20
9.7492
 30
0.0
 10
-35.6446
 20
9.6843
 30
0.0
 10
-35.9936
 20
9.6843
 30
0.0
 10
-35.9936
 20
9.6843
 30
0.0
 10
-36.384
 20
9.6843
 30
0.0
 10
-36.6677
 20
9.7563
 30
0.0
 10
-36.845
 20
9.9007
 30
0.0
 10
-36.845
 20
9.9007
 30
0.0
 10
-36.9993
 20
10.0263
 30
0.0
 10
-37.0769
 20
10.1956
 30
0.0
 10
-37.0769
 20
10.4091
 30
0.0
 10
-37.0769
 20
10.4091
 30
0.0
 10
-37.0769
 20
10.5677
 30
0.0
 10
-37.0322
 20
10.6979
 30
0.0
 10
-36.9428
 20
10.7995
 30
0.0
 10
-36.9428
 20
10.7995
 30
0.0
 10
-36.8539
 20
10.9011
 30
0.0
 10
-36.7307
 20
10.9618
 30
0.0
 10
-36.5736
 20
10.982
 30
0.0
  0
SPLINE
  5
8B
330
1F
100
AcDbEntity
  8
ROUND
 62
   250
100
AcDbSpline
210
0.0
220
0.0
230
1.0
 70
    11
 71
     3
 72
    40
 73
    36
 74
     0
 42
0.0000000001
 43
0.0000000001
 40
0.0
 40
0.0
 40
0.0
 40
0.0
 40
0.1
 40
0.1
 40
0.1
 40
0.1
 40
0.2
 40
0.2
 40
0.2
 40
0.2
 40
0.3
 40
0.3
 40
0.3
 40
0.3
 40
0.4
 40
0.4
 40
0.4
 40
0.4
 40
0.5
 40
0.5
 40
0.5
 40
0.5
 40
0.6
 40
0.6
 40
0.6
 40
0.6
 40
0.7
 40
0.7
 40
0.7
 40
0.7
 40
0.8
 40
0.8
 40
0.8
 40
0.8
 40
1.0
 40
1.0
 40
1.0
 40
1.0
 10
-35.703
 20
9.9693
 30
0.0
 10
-35.6173
 20
9.9693
 30
0.0
 10
-35.5355
 20
9.9877
 30
0.0
 10
-35.4574
 20
10.0239
 30
0.0
 10
-35.4574
 20
10.0239
 30
0.0
 10
-35.3793
 20
10.0601
 30
0.0
 10
-35.3201
 20
10.1109
 30
0.0
 10
-35.2792
 20
10.1758
 30
0.0
 10
-35.2792
 20
10.1758
 30
0.0
 10
-35.2382
 20
10.2412
 30
0.0
 10
-35.2175
 20
10.3099
 30
0.0
 10
-35.2175
 20
10.3814
 30
0.0
 10
-35.2175
 20
10.3814
 30
0.0
 10
-35.2175
 20
10.4863
 30
0.0
 10
-35.2599
 20
10.5761
 30
0.0
 10
-35.3445
 20
10.6514
 30
0.0
 10
-35.3445
 20
10.6514
 30
0.0
 10
-35.4292
 20
10.7266
 30
0.0
 10
-35.544
 20
10.7643
 30
0.0
 10
-35.6888
 20
10.7643
 30
0.0
 10
-35.6888
 20
10.7643
 30
0.0
 10
-35.8285
 20
10.7643
 30
0.0
 10
-35.9386
 20
10.7271
 30
0.0
 10
-36.019
 20
10.6528
 30
0.0
 10
-36.019
 20
10.6528
 30
0.0
 10
-36.0995
 20
10.5785
 30
0.0
 10
-36.1395
 20
10.4849
 30
0.0
 10
-36.1395
 20
10.372
 30
0.0
 10
-36.1395
 20
10.372
 30
0.0
 10
-36.1395
 20
10.2596
 30
0.0
 10
-36.0995
 20
10.1645
 30
0.0
 10
-36.019
 20
10.0865
 30
0.0
 10
-36.019
 20
10.0865
 30
0.0
 10
-35.9386
 20
10.0084
 30
0.0
 10
-35.8332
 20
9.9693
 30
0.0
 10
-35.703
 20
9.9693
 30
0.0
  0
SPLINE
  5
8C
330
1F
100
AcDbEntity
  8
ROUND
 62
   250
100
AcDbSpline
210
0.0
220
0.0
230
1.0
 70
    11
 71
     3
 72
    92
 73
    88
 74
     0
 42
0.0000000001
 43
0.0000000001
 40
0.0
 40
0.0
 40
0.0
 40
0.0
 40
0.0434782608695652
 40
0.0434782608695652
 40
0.0434782608695652
 40
0.0434782608695652
 40
0.0869565217391304
 40
0.0869565217391304
 40
0.0869565217391304
 40
0.0869565217391304
 40
0.1304347826086956
 40
0.1304347826086956
 40
0.1304347826086956
 40
0.1304347826086956
 40
0.1739130434782609
 40
0.1739130434782609
 40
0.1739130434782609
 40
0.1739130434782609
 40
0.2173913043478261
 40
0.2173913043478261
 40
0.2173913043478261
 40
0.2173913043478261
 40
0.2608695652173913
 40
0.2608695652173913
 40
0.2608695652173913
 40
0.2608695652173913
 40
0.3043478260869565
 40
0.3043478260869565
 40
0.3043478260869565
 40
0.3043478260869565
 40
0.3478260869565217
 40
0.3478260869565217
 40
0.3478260869565217
 40
0.3478260869565217
 40
0.391304347826087
 40
0.391304347826087
 40
0.391304347826087
 40
0.391304347826087
 40
0.4347826086956522
 40
0.4347826086956522
 40
0.4347826086956522
 40
0.4347826086956522
 40
0.4782608695652174
 40
0.4782608695652174
 40
0.4782608695652174
 40
0.4782608695652174
 40
0.5217391304347826
 40
0.5217391304347826
 40
0.5217391304347826
 40
0.5217391304347826
 40
0.5652173913043478
 40
0.5652173913043478
 40
0.5652173913043478
 40
0.5652173913043478
 40
0.6086956521739131
 40
0.6086956521739131
 40
0.6086956521739131
 40
0.6086956521739131
 40
0.6521739130434783
 40
0.6521739130434783
 40
0.6521739130434783
 40
0.6521739130434783
 40
0.6956521739130435
 40
0.6956521739130435
 40
0.6956521739130435
 40
0.6956521739130435
 40
0.7391304347826086
 40
0.7391304347826086
 40
0.7391304347826086
 40
0.7391304347826086
 40
0.782608695652174
 40
0.782608695652174
 40
0.782608695652174
 40
0.782608695652174
 40
0.8260869565217391
 40
0.8260869565217391
 40
0.8260869565217391
 40
0.8260869565217391
 40
0.8695652173913043
 40
0.8695652173913043
 40
0.8695652173913043
 40
0.8695652173913043
 40
0.9130434782608695
 40
0.9130434782608695
 40
0.9130434782608695
 40
0.9130434782608695
 40
1.0
 40
1.0
 40
1.0
 40
1.0
 10
-35.5774
 20
11.2647
 30
0.0
 10
-35.5774
 20
11.2647
 30
0.0
 10
-35.5995
 20
11.5253
 30
0.0
 10
-35.5995
 20
11.5253
 30
0.0
 10
-35.5995
 20
11.5253
 30
0.0
 10
-35.4725
 20
11.5446
 30
0.0
 10
-35.3775
 20
11.5893
 30
0.0
 10
-35.3135
 20
11.6594
 30
0.0
 10
-35.3135
 20
11.6594
 30
0.0
 10
-35.2495
 20
11.7299
 30
0.0
 10
-35.2175
 20
11.8146
 30
0.0
 10
-35.2175
 20
11.9138
 30
0.0
 10
-35.2175
 20
11.9138
 30
0.0
 10
-35.2175
 20
12.0333
 30
0.0
 10
-35.2627
 20
12.1344
 30
0.0
 10
-35.3525
 20
12.2167
 30
0.0
 10
-35.3525
 20
12.2167
 30
0.0
 10
-35.4428
 20
12.2995
 30
0.0
 10
-35.5623
 20
12.3409
 30
0.0
 10
-35.7109
 20
12.3409
 30
0.0
 10
-35.7109
 20
12.3409
 30
0.0
 10
-35.8525
 20
12.3409
 30
0.0
 10
-35.964
 20
12.3014
 30
0.0
 10
-36.0458
 20
12.2219
 30
0.0
 10
-36.0458
 20
12.2219
 30
0.0
 10
-36.1277
 20
12.1424
 30
0.0
 10
-36.1686
 20
12.0385
 30
0.0
 10
-36.1686
 20
11.9096
 30
0.0
 10
-36.1686
 20
11.9096
 30
0.0
 10
-36.1686
 20
11.8296
 30
0.0
 10
-36.1503
 20
11.7577
 30
0.0
 10
-36.1141
 20
11.6932
 30
0.0
 10
-36.1141
 20
11.6932
 30
0.0
 10
-36.0778
 20
11.6288
 30
0.0
 10
-36.0308
 20
11.5785
 30
0.0
 10
-35.9729
 20
11.5418
 30
0.0
 10
-35.9729
 20
11.5418
 30
0.0
 10
-35.9729
 20
11.5418
 30
0.0
 10
-36.003
 20
11.3089
 30
0.0
 10
-36.003
 20
11.3089
 30
0.0
 10
-36.003
 20
11.3089
 30
0.0
 10
-36.003
 20
11.3089
 30
0.0
 10
-37.0407
 20
11.5046
 30
0.0
 10
-37.0407
 20
11.5046
 30
0.0
 10
-37.0407
 20
11.5046
 30
0.0
 10
-37.0407
 20
11.5046
 30
0.0
 10
-37.0407
 20
12.5093
 30
0.0
 10
-37.0407
 20
12.5093
 30
0.0
 10
-37.0407
 20
12.5093
 30
0.0
 10
-37.0407
 20
12.5093
 30
0.0
 10
-36.8036
 20
12.5093
 30
0.0
 10
-36.8036
 20
12.5093
 30
0.0
 10
-36.8036
 20
12.5093
 30
0.0
 10
-36.8036
 20
12.5093
 30
0.0
 10
-36.8036
 20
11.7031
 30
0.0
 10
-36.8036
 20
11.7031
 30
0.0
 10
-36.8036
 20
11.7031
 30
0.0
 10
-36.8036
 20
11.7031
 30
0.0
 10
-36.2608
 20
11.594
 30
0.0
 10
-36.2608
 20
11.594
 30
0.0
 10
-36.2608
 20
11.594
 30
0.0
 10
-36.3455
 20
11.7153
 30
0.0
 10
-36.3878
 20
11.8428
 30
0.0
 10
-36.3878
 20
11.9759
 30
0.0
 10
-36.3878
 20
11.9759
 30
0.0
 10
-36.3878
 20
12.1523
 30
0.0
 10
-36.3267
 20
12.3009
 30
0.0
 10
-36.2044
 20
12.4223
 30
0.0
 10
-36.2044
 20
12.4223
 30
0.0
 10
-36.0821
 20
12.5436
 30
0.0
 10
-35.925
 20
12.6043
 30
0.0
 10
-35.7331
 20
12.6043
 30
0.0
 10
-35.7331
 20
12.6043
 30
0.0
 10
-35.5501
 20
12.6043
 30
0.0
 10
-35.392
 20
12.5507
 30
0.0
 10
-35.2589
 20
12.4444
 30
0.0
 10
-35.2589
 20
12.4444
 30
0.0
 10
-35.0957
 20
12.3146
 30
0.0
 10
-35.0139
 20
12.1377
 30
0.0
 10
-35.0139
 20
11.9138
 30
0.0
 10
-35.0139
 20
11.9138
 30
0.0
 10
-35.0139
 20
11.7299
 30
0.0
 10
-35.0651
 20
11.5799
 30
0.0
 10
-35.1681
 20
11.4637
 30
0.0
 10
-35.1681
 20
11.4637
 30
0.0
 10
-35.2712
 20
11.3475
 30
0.0
 10
-35.4076
 20
11.2812
 30
0.0
 10
-35.5774
 20
11.2647
 30
0.0
  0
SPLINE
  5
8D
330
1F
100
AcDbEntity
  8
ROUND
 62
   250
100
AcDbSpline
210
0.0
220
0.0
230
1.0
 70
    11
 71
     3
 72
    20
 73
    16
 74
     0
 42
0.0000000001
 43
0.0000000001
 40
0.0
 40
0.0
 40
0.0
 40
0.0
 40
0.2
 40
0.2
 40
0.2
 40
0.2
 40
0.4
 40
0.4
 40
0.4
 40
0.4
 40
0.6
 40
0.6
 40
0.6
 40
0.6
 40
1.0
 40
1.0
 40
1.0
 40
1.0
 10
-31.9169
 20
8.3463
 30
0.0
 10
-31.9169
 20
8.3463
 30
0.0
 10
-28.9169
 20
7.9229
 30
0.0
 10
-28.9169
 20
7.9229
 30
0.0
 10
-28.9169
 20
7.9229
 30
0.0
 10
-28.9169
 20
7.9229
 30
0.0
 10
-28.9169
 20
7.8289
 30
0.0
 10
-28.9169
 20
7.8289
 30
0.0
 10
-28.9169
 20
7.8289
 30
0.0
 10
-28.9169
 20
7.8289
 30
0.0
 10
-31.9169
 20
7.3773
 30
0.0
 10
-31.9169
 20
7.3773
 30
0.0
 10
-31.9169
 20
7.3773
 30
0.0
 10
-31.9169
 20
7.3773
 30
0.0
 10
-31.9169
 20
8.3463
 30
0.0
 10
-31.9169
 20
8.3463
 30
0.0
  0
SPLINE
  5
8E
330
1F
100
AcDbEntity
  8
ROUND
 62
   250
100
AcDbSpline
210
0.0
220
0.0
230
1.0
 70
    11
 71
     3
 72
    20
 73
    16
 74
     0
 42
0.0000000001
 43
0.0000000001
 40
0.0
 40
0.0
 40
0.0
 40
0.0
 40
0.2
 40
0.2
 40
0.2
 40
0.2
 40
0.4
 40
0.4
 40
0.4
 40
0.4
 40
0.6
 40
0.6
 40
0.6
 40
0.6
 40
1.0
 40
1.0
 40
1.0
 40
1.0
 10
-18.6752
 20
7.3975
 30
0.0
 10
-18.6752
 20
7.3975
 30
0.0
 10
-21.6753
 20
7.8209
 30
0.0
 10
-21.6753
 20
7.8209
 30
0.0
 10
-21.6753
 20
7.8209
 30
0.0
 10
-21.6753
 20
7.8209
 30
0.0
 10
-21.6753
 20
7.9149
 30
0.0
 10
-21.6753
 20
7.9149
 30
0.0
 10
-21.6753
 20
7.9149
 30
0.0
 10
-21.6753
 20
7.9149
 30
0.0
 10
-18.6752
 20
8.3665
 30
0.0
 10
-18.6752
 20
8.3665
 30
0.0
 10
-18.6752
 20
8.3665
 30
0.0
 10
-18.6752
 20
8.3665
 30
0.0
 10
-18.6752
 20
7.3975
 30
0.0
 10
-18.6752
 20
7.3975
 30
0.0
  0
SPLINE
  5
8F
330
1F
100
AcDbEntity
  8
ROUND
 62
   250
100
AcDbSpline
210
0.0
220
0.0
230
1.0
 70
    11
 71
     3
 72
    84
 73
    80
 74
     0
 42
0.0000000001
 43
0.0000000001
 40
0.0
 40
0.0
 40
0.0
 40
0.0
 40
0.0476190476190476
 40
0.0476190476190476
 40
0.0476190476190476
 40
0.0476190476190476
 40
0.0952380952380952
 40
0.0952380952380952
 40
0.0952380952380952
 40
0.0952380952380952
 40
0.1428571428571428
 40
0.1428571428571428
 40
0.1428571428571428
 40
0.1428571428571428
 40
0.1904761904761905
 40
0.1904761904761905
 40
0.1904761904761905
 40
0.1904761904761905
 40
0.2380952380952381
 40
0.2380952380952381
 40
0.2380952380952381
 40
0.2380952380952381
 40
0.2857142857142857
 40
0.2857142857142857
 40
0.2857142857142857
 40
0.2857142857142857
 40
0.3333333333333333
 40
0.3333333333333333
 40
0.3333333333333333
 40
0.3333333333333333
 40
0.3809523809523809
 40
0.3809523809523809
 40
0.3809523809523809
 40
0.3809523809523809
 40
0.4285714285714285
 40
0.4285714285714285
 40
0.4285714285714285
 40
0.4285714285714285
 40
0.4761904761904762
 40
0.4761904761904762
 40
0.4761904761904762
 40
0.4761904761904762
 40
0.5238095238095238
 40
0.5238095238095238
 40
0.5238095238095238
 40
0.5238095238095238
 40
0.5714285714285714
 40
0.5714285714285714
 40
0.5714285714285714
 40
0.5714285714285714
 40
0.6190476190476191
 40
0.6190476190476191
 40
0.6190476190476191
 40
0.6190476190476191
 40
0.6666666666666666
 40
0.6666666666666666
 40
0.6666666666666666
 40
0.6666666666666666
 40
0.7142857142857143
 40
0.7142857142857143
 40
0.7142857142857143
 40
0.7142857142857143
 40
0.7619047619047619
 40
0.7619047619047619
 40
0.7619047619047619
 40
0.7619047619047619
 40
0.8095238095238095
 40
0.8095238095238095
 40
0.8095238095238095
 40
0.8095238095238095
 40
0.8571428571428571
 40
0.8571428571428571
 40
0.8571428571428571
 40
0.8571428571428571
 40
0.9047619047619048
 40
0.9047619047619048
 40
0.9047619047619048
 40
0.9047619047619048
 40
1.0
 40
1.0
 40
1.0
 40
1.0
 10
-17.1552
 20
10.6344
 30
0.0
 10
-17.1552
 20
10.6344
 30
0.0
 10
-16.9238
 20
10.8935
 30
0.0
 10
-16.9238
 20
10.8935
 30
0.0
 10
-16.9238
 20
10.8935
 30
0.0
 10
-16.9238
 20
10.8935
 30
0.0
 10
-16.7874
 20
10.7778
 30
0.0
 10
-16.7874
 20
10.7778
 30
0.0
 10
-16.7874
 20
10.7778
 30
0.0
 10
-16.7874
 20
10.7778
 30
0.0
 10
-17.0296
 20
10.505
 30
0.0
 10
-17.0296
 20
10.505
 30
0.0
 10
-17.0296
 20
10.505
 30
0.0
 10
-16.9506
 20
10.3874
 30
0.0
 10
-16.8975
 20
10.2844
 30
0.0
 10
-16.8697
 20
10.1965
 30
0.0
 10
-16.8697
 20
10.1965
 30
0.0
 10
-16.833
 20
10.0807
 30
0.0
 10
-16.8147
 20
9.9509
 30
0.0
 10
-16.8147
 20
9.8079
 30
0.0
 10
-16.8147
 20
9.8079
 30
0.0
 10
-16.8147
 20
9.601
 30
0.0
 10
-16.8565
 20
9.4166
 30
0.0
 10
-16.9403
 20
9.2553
 30
0.0
 10
-16.9403
 20
9.2553
 30
0.0
 10
-17.024
 20
9.0934
 30
0.0
 10
-17.1411
 20
8.9712
 30
0.0
 10
-17.2921
 20
8.8884
 30
0.0
 10
-17.2921
 20
8.8884
 30
0.0
 10
-17.4436
 20
8.8061
 30
0.0
 10
-17.6039
 20
8.7647
 30
0.0
 10
-17.7737
 20
8.7647
 30
0.0
 10
-17.7737
 20
8.7647
 30
0.0
 10
-17.9007
 20
8.7647
 30
0.0
 10
-18.0155
 20
8.7825
 30
0.0
 10
-18.1185
 20
8.8183
 30
0.0
 10
-18.1185
 20
8.8183
 30
0.0
 10
-18.1975
 20
8.846
 30
0.0
 10
-18.2897
 20
8.8987
 30
0.0
 10
-18.3956
 20
8.9768
 30
0.0
 10
-18.3956
 20
8.9768
 30
0.0
 10
-18.3956
 20
8.9768
 30
0.0
 10
-18.627
 20
8.7176
 30
0.0
 10
-18.627
 20
8.7176
 30
0.0
 10
-18.627
 20
8.7176
 30
0.0
 10
-18.627
 20
8.7176
 30
0.0
 10
-18.7634
 20
8.8333
 30
0.0
 10
-18.7634
 20
8.8333
 30
0.0
 10
-18.7634
 20
8.8333
 30
0.0
 10
-18.7634
 20
8.8333
 30
0.0
 10
-18.5207
 20
9.1047
 30
0.0
 10
-18.5207
 20
9.1047
 30
0.0
 10
-18.5207
 20
9.1047
 30
0.0
 10
-18.611
 20
9.2416
 30
0.0
 10
-18.6712
 20
9.3587
 30
0.0
 10
-18.7013
 20
9.4556
 30
0.0
 10
-18.7013
 20
9.4556
 30
0.0
 10
-18.7314
 20
9.5525
 30
0.0
 10
-18.7469
 20
9.6692
 30
0.0
 10
-18.7469
 20
9.8051
 30
0.0
 10
-18.7469
 20
9.8051
 30
0.0
 10
-18.7469
 20
10.0125
 30
0.0
 10
-18.7055
 20
10.1974
 30
0.0
 10
-18.6228
 20
10.3597
 30
0.0
 10
-18.6228
 20
10.3597
 30
0.0
 10
-18.54
 20
10.522
 30
0.0
 10
-18.4243
 20
10.6447
 30
0.0
 10
-18.2747
 20
10.7284
 30
0.0
 10
-18.2747
 20
10.7284
 30
0.0
 10
-18.1256
 20
10.8117
 30
0.0
 10
-17.9595
 20
10.8536
 30
0.0
 10
-17.7766
 20
10.8536
 30
0.0
 10
-17.7766
 20
10.8536
 30
0.0
 10
-17.6533
 20
10.8536
 30
0.0
 10
-17.5456
 20
10.8376
 30
0.0
 10
-17.4534
 20
10.8046
 30
0.0
 10
-17.4534
 20
10.8046
 30
0.0
 10
-17.3612
 20
10.7722
 30
0.0
 10
-17.2615
 20
10.7153
 30
0.0
 10
-17.1552
 20
10.6344
 30
0.0
  0
SPLINE
  5
90
330
1F
100
AcDbEntity
  8
ROUND
 62
   250
100
AcDbSpline
210
0.0
220
0.0
230
1.0
 70
    11
 71
     3
 72
    32
 73
    28
 74
     0
 42
0.0000000001
 43
0.0000000001
 40
0.0
 40
0.0
 40
0.0
 40
0.0
 40
0.125
 40
0.125
 40
0.125
 40
0.125
 40
0.25
 40
0.25
 40
0.25
 40
0.25
 40
0.375
 40
0.375
 40
0.375
 40
0.375
 40
0.5
 40
0.5
 40
0.5
 40
0.5
 40
0.625
 40
0.625
 40
0.625
 40
0.625
 40
0.75
 40
0.75
 40
0.75
 40
0.75
 40
1.0
 40
1.0
 40
1.0
 40
1.0
 10
-17.3203
 20
10.4486
 30
0.0
 10
-17.4069
 20
10.5163
 30
0.0
 10
-17.4826
 20
10.5629
 30
0.0
 10
-17.547
 20
10.5878
 30
0.0
 10
-17.547
 20
10.5878
 30
0.0
 10
-17.6119
 20
10.6123
 30
0.0
 10
-17.6881
 20
10.625
 30
0.0
 10
-17.7752
 20
10.625
 30
0.0
 10
-17.7752
 20
10.625
 30
0.0
 10
-17.9765
 20
10.625
 30
0.0
 10
-18.1425
 20
10.5568
 30
0.0
 10
-18.2742
 20
10.4204
 30
0.0
 10
-18.2742
 20
10.4204
 30
0.0
 10
-18.4055
 20
10.2839
 30
0.0
 10
-18.4713
 20
10.0803
 30
0.0
 10
-18.4713
 20
9.8089
 30
0.0
 10
-18.4713
 20
9.8089
 30
0.0
 10
-18.4713
 20
9.7026
 30
0.0
 10
-18.461
 20
9.608
 30
0.0
 10
-18.4407
 20
9.5252
 30
0.0
 10
-18.4407
 20
9.5252
 30
0.0
 10
-18.4261
 20
9.4636
 30
0.0
 10
-18.3956
 20
9.3879
 30
0.0
 10
-18.3485
 20
9.2981
 30
0.0
 10
-18.3485
 20
9.2981
 30
0.0
 10
-18.3485
 20
9.2981
 30
0.0
 10
-17.3203
 20
10.4486
 30
0.0
 10
-17.3203
 20
10.4486
 30
0.0
  0
SPLINE
  5
91
330
1F
100
AcDbEntity
  8
ROUND
 62
   250
100
AcDbSpline
210
0.0
220
0.0
230
1.0
 70
    11
 71
     3
 72
    28
 73
    24
 74
     0
 42
0.0000000001
 43
0.0000000001
 40
0.0
 40
0.0
 40
0.0
 40
0.0
 40
0.1428571428571428
 40
0.1428571428571428
 40
0.1428571428571428
 40
0.1428571428571428
 40
0.2857142857142857
 40
0.2857142857142857
 40
0.2857142857142857
 40
0.2857142857142857
 40
0.4285714285714285
 40
0.4285714285714285
 40
0.4285714285714285
 40
0.4285714285714285
 40
0.5714285714285714
 40
0.5714285714285714
 40
0.5714285714285714
 40
0.5714285714285714
 40
0.7142857142857143
 40
0.7142857142857143
 40
0.7142857142857143
 40
0.7142857142857143
 40
1.0
 40
1.0
 40
1.0
 40
1.0
 10
-17.2074
 20
10.3065
 30
0.0
 10
-17.2074
 20
10.3065
 30
0.0
 10
-18.2314
 20
9.1602
 30
0.0
 10
-18.2314
 20
9.1602
 30
0.0
 10
-18.2314
 20
9.1602
 30
0.0
 10
-18.1609
 20
9.1024
 30
0.0
 10
-18.0955
 20
9.0619
 30
0.0
 10
-18.0357
 20
9.0389
 30
0.0
 10
-18.0357
 20
9.0389
 30
0.0
 10
-17.9577
 20
9.0083
 30
0.0
 10
-17.873
 20
8.9933
 30
0.0
 10
-17.7822
 20
8.9933
 30
0.0
 10
-17.7822
 20
8.9933
 30
0.0
 10
-17.5818
 20
8.9933
 30
0.0
 10
-17.4167
 20
9.0638
 30
0.0
 10
-17.286
 20
9.2054
 30
0.0
 10
-17.286
 20
9.2054
 30
0.0
 10
-17.1557
 20
9.347
 30
0.0
 10
-17.0903
 20
9.5455
 30
0.0
 10
-17.0903
 20
9.8009
 30
0.0
 10
-17.0903
 20
9.8009
 30
0.0
 10
-17.0903
 20
9.9918
 30
0.0
 10
-17.1293
 20
10.1607
 30
0.0
 10
-17.2074
 20
10.3065
 30
0.0
  0
SPLINE
  5
92
330
1F
100
AcDbEntity
  8
ROUND
 62
   250
100
AcDbSpline
210
0.0
220
0.0
230
1.0
 70
    11
 71
     3
 72
   124
 73
   120
 74
     0
 42
0.0000000001
 43
0.0000000001
 40
0.0
 40
0.0
 40
0.0
 40
0.0
 40
0.032258064516129
 40
0.032258064516129
 40
0.032258064516129
 40
0.032258064516129
 40
0.0645161290322581
 40
0.0645161290322581
 40
0.0645161290322581
 40
0.0645161290322581
 40
0.0967741935483871
 40
0.0967741935483871
 40
0.0967741935483871
 40
0.0967741935483871
 40
0.1290322580645161
 40
0.1290322580645161
 40
0.1290322580645161
 40
0.1290322580645161
 40
0.1612903225806452
 40
0.1612903225806452
 40
0.1612903225806452
 40
0.1612903225806452
 40
0.1935483870967742
 40
0.1935483870967742
 40
0.1935483870967742
 40
0.1935483870967742
 40
0.2258064516129032
 40
0.2258064516129032
 40
0.2258064516129032
 40
0.2258064516129032
 40
0.2580645161290323
 40
0.2580645161290323
 40
0.2580645161290323
 40
0.2580645161290323
 40
0.2903225806451613
 40
0.2903225806451613
 40
0.2903225806451613
 40
0.2903225806451613
 40
0.3225806451612903
 40
0.3225806451612903
 40
0.3225806451612903
 40
0.3225806451612903
 40
0.3548387096774194
 40
0.3548387096774194
 40
0.3548387096774194
 40
0.3548387096774194
 40
0.3870967741935484
 40
0.3870967741935484
 40
0.3870967741935484
 40
0.3870967741935484
 40
0.4193548387096774
 40
0.4193548387096774
 40
0.4193548387096774
 40
0.4193548387096774
 40
0.4516129032258064
 40
0.4516129032258064
 40
0.4516129032258064
 40
0.4516129032258064
 40
0.4838709677419355
 40
0.4838709677419355
 40
0.4838709677419355
 40
0.4838709677419355
 40
0.5161290322580645
 40
0.5161290322580645
 40
0.5161290322580645
 40
0.5161290322580645
 40
0.5483870967741935
 40
0.5483870967741935
 40
0.5483870967741935
 40
0.5483870967741935
 40
0.5806451612903226
 40
0.5806451612903226
 40
0.5806451612903226
 40
0.5806451612903226
 40
0.6129032258064516
 40
0.6129032258064516
 40
0.6129032258064516
 40
0.6129032258064516
 40
0.6451612903225806
 40
0.6451612903225806
 40
0.6451612903225806
 40
0.6451612903225806
 40
0.6774193548387096
 40
0.6774193548387096
 40
0.6774193548387096
 40
0.6774193548387096
 40
0.7096774193548387
 40
0.7096774193548387
 40
0.7096774193548387
 40
0.7096774193548387
 40
0.7419354838709677
 40
0.7419354838709677
 40
0.7419354838709677
 40
0.7419354838709677
 40
0.7741935483870968
 40
0.7741935483870968
 40
0.7741935483870968
 40
0.7741935483870968
 40
0.8064516129032258
 40
0.8064516129032258
 40
0.8064516129032258
 40
0.8064516129032258
 40
0.8387096774193549
 40
0.8387096774193549
 40
0.8387096774193549
 40
0.8387096774193549
 40
0.8709677419354839
 40
0.8709677419354839
 40
0.8709677419354839
 40
0.8709677419354839
 40
0.9032258064516129
 40
0.9032258064516129
 40
0.9032258064516129
 40
0.9032258064516129
 40
0.9354838709677419
 40
0.9354838709677419
 40
0.9354838709677419
 40
0.9354838709677419
 40
1.0
 40
1.0
 40
1.0
 40
1.0
 10
-16.564
 20
9.3324
 30
0.0
 10
-16.564
 20
9.3324
 30
0.0
 10
-16.3161
 20
9.3653
 30
0.0
 10
-16.3161
 20
9.3653
 30
0.0
 10
-16.3161
 20
9.3653
 30
0.0
 10
-16.2874
 20
9.2247
 30
0.0
 10
-16.2389
 20
9.1236
 30
0.0
 10
-16.1707
 20
9.0615
 30
0.0
 10
-16.1707
 20
9.0615
 30
0.0
 10
-16.1021
 20
8.9994
 30
0.0
 10
-16.0188
 20
8.9683
 30
0.0
 10
-15.9205
 20
8.9683
 30
0.0
 10
-15.9205
 20
8.9683
 30
0.0
 10
-15.8039
 20
8.9683
 30
0.0
 10
-15.7051
 20
9.0088
 30
0.0
 10
-15.6246
 20
9.0897
 30
0.0
 10
-15.6246
 20
9.0897
 30
0.0
 10
-15.5447
 20
9.1706
 30
0.0
 10
-15.5042
 20
9.2708
 30
0.0
 10
-15.5042
 20
9.3903
 30
0.0
 10
-15.5042
 20
9.3903
 30
0.0
 10
-15.5042
 20
9.5041
 30
0.0
 10
-15.5414
 20
9.5982
 30
0.0
 10
-15.6157
 20
9.672
 30
0.0
 10
-15.6157
 20
9.672
 30
0.0
 10
-15.6905
 20
9.7458
 30
0.0
 10
-15.785
 20
9.783
 30
0.0
 10
-15.8998
 20
9.783
 30
0.0
 10
-15.8998
 20
9.783
 30
0.0
 10
-15.9468
 20
9.783
 30
0.0
 10
-16.0052
 20
9.7736
 30
0.0
 10
-16.0748
 20
9.7553
 30
0.0
 10
-16.0748
 20
9.7553
 30
0.0
 10
-16.0748
 20
9.7553
 30
0.0
 10
-16.047
 20
9.973
 30
0.0
 10
-16.047
 20
9.973
 30
0.0
 10
-16.047
 20
9.973
 30
0.0
 10
-16.0306
 20
9.9712
 30
0.0
 10
-16.0174
 20
9.9702
 30
0.0
 10
-16.0071
 20
9.9702
 30
0.0
 10
-16.0071
 20
9.9702
 30
0.0
 10
-15.9017
 20
9.9702
 30
0.0
 10
-15.8067
 20
9.998
 30
0.0
 10
-15.722
 20
10.053
 30
0.0
 10
-15.722
 20
10.053
 30
0.0
 10
-15.6373
 20
10.108
 30
0.0
 10
-15.595
 20
10.1932
 30
0.0
 10
-15.595
 20
10.3079
 30
0.0
 10
-15.595
 20
10.3079
 30
0.0
 10
-15.595
 20
10.3987
 30
0.0
 10
-15.6261
 20
10.4744
 30
0.0
 10
-15.6877
 20
10.5337
 30
0.0
 10
-15.6877
 20
10.5337
 30
0.0
 10
-15.7493
 20
10.5934
 30
0.0
 10
-15.8288
 20
10.6236
 30
0.0
 10
-15.9262
 20
10.6236
 30
0.0
 10
-15.9262
 20
10.6236
 30
0.0
 10
-16.0226
 20
10.6236
 30
0.0
 10
-16.103
 20
10.593
 30
0.0
 10
-16.167
 20
10.5328
 30
0.0
 10
-16.167
 20
10.5328
 30
0.0
 10
-16.2314
 20
10.4721
 30
0.0
 10
-16.2728
 20
10.3808
 30
0.0
 10
-16.2912
 20
10.2595
 30
0.0
 10
-16.2912
 20
10.2595
 30
0.0
 10
-16.2912
 20
10.2595
 30
0.0
 10
-16.539
 20
10.3037
 30
0.0
 10
-16.539
 20
10.3037
 30
0.0
 10
-16.539
 20
10.3037
 30
0.0
 10
-16.5089
 20
10.4702
 30
0.0
 10
-16.4398
 20
10.5991
 30
0.0
 10
-16.3325
 20
10.6903
 30
0.0
 10
-16.3325
 20
10.6903
 30
0.0
 10
-16.2248
 20
10.7816
 30
0.0
 10
-16.0912
 20
10.8277
 30
0.0
 10
-15.9313
 20
10.8277
 30
0.0
 10
-15.9313
 20
10.8277
 30
0.0
 10
-15.8213
 20
10.8277
 30
0.0
 10
-15.7197
 20
10.8037
 30
0.0
 10
-15.627
 20
10.7567
 30
0.0
 10
-15.627
 20
10.7567
 30
0.0
 10
-15.5343
 20
10.7092
 30
0.0
 10
-15.4633
 20
10.6447
 30
0.0
 10
-15.4139
 20
10.5629
 30
0.0
 10
-15.4139
 20
10.5629
 30
0.0
 10
-15.365
 20
10.481
 30
0.0
 10
-15.3401
 20
10.3945
 30
0.0
 10
-15.3401
 20
10.3023
 30
0.0
 10
-15.3401
 20
10.3023
 30
0.0
 10
-15.3401
 20
10.2153
 30
0.0
 10
-15.3636
 20
10.1358
 30
0.0
 10
-15.4106
 20
10.0638
 30
0.0
 10
-15.4106
 20
10.0638
 30
0.0
 10
-15.4577
 20
9.9923
 30
0.0
 10
-15.5268
 20
9.9354
 30
0.0
 10
-15.6185
 20
9.8931
 30
0.0
 10
-15.6185
 20
9.8931
 30
0.0
 10
-15.4991
 20
9.8658
 30
0.0
 10
-15.4064
 20
9.8084
 30
0.0
 10
-15.3401
 20
9.7214
 30
0.0
 10
-15.3401
 20
9.7214
 30
0.0
 10
-15.2742
 20
9.6348
 30
0.0
 10
-15.2413
 20
9.5262
 30
0.0
 10
-15.2413
 20
9.3959
 30
0.0
 10
-15.2413
 20
9.3959
 30
0.0
 10
-15.2413
 20
9.2195
 30
0.0
 10
-15.3053
 20
9.0699
 30
0.0
 10
-15.4341
 20
8.9472
 30
0.0
 10
-15.4341
 20
8.9472
 30
0.0
 10
-15.5626
 20
8.8244
 30
0.0
 10
-15.7253
 20
8.7633
 30
0.0
 10
-15.9219
 20
8.7633
 30
0.0
 10
-15.9219
 20
8.7633
 30
0.0
 10
-16.0992
 20
8.7633
 30
0.0
 10
-16.2465
 20
8.8159
 30
0.0
 10
-16.3636
 20
8.9218
 30
0.0
 10
-16.3636
 20
8.9218
 30
0.0
 10
-16.4807
 20
9.0271
 30
0.0
 10
-16.5475
 20
9.164
 30
0.0
 10
-16.564
 20
9.3324
 30
0.0
  0
SPLINE
  5
93
330
1F
100
AcDbEntity
  8
ROUND
 62
   250
100
AcDbSpline
210
0.0
220
0.0
230
1.0
 70
    11
 71
     3
 72
    92
 73
    88
 74
     0
 42
0.0000000001
 43
0.0000000001
 40
0.0
 40
0.0
 40
0.0
 40
0.0
 40
0.0434782608695652
 40
0.0434782608695652
 40
0.0434782608695652
 40
0.0434782608695652
 40
0.0869565217391304
 40
0.0869565217391304
 40
0.0869565217391304
 40
0.0869565217391304
 40
0.1304347826086956
 40
0.1304347826086956
 40
0.1304347826086956
 40
0.1304347826086956
 40
0.1739130434782609
 40
0.1739130434782609
 40
0.1739130434782609
 40
0.1739130434782609
 40
0.2173913043478261
 40
0.2173913043478261
 40
0.2173913043478261
 40
0.2173913043478261
 40
0.2608695652173913
 40
0.2608695652173913
 40
0.2608695652173913
 40
0.2608695652173913
 40
0.3043478260869565
 40
0.3043478260869565
 40
0.3043478260869565
 40
0.3043478260869565
 40
0.3478260869565217
 40
0.3478260869565217
 40
0.3478260869565217
 40
0.3478260869565217
 40
0.391304347826087
 40
0.391304347826087
 40
0.391304347826087
 40
0.391304347826087
 40
0.4347826086956522
 40
0.4347826086956522
 40
0.4347826086956522
 40
0.4347826086956522
 40
0.4782608695652174
 40
0.4782608695652174
 40
0.4782608695652174
 40
0.4782608695652174
 40
0.5217391304347826
 40
0.5217391304347826
 40
0.5217391304347826
 40
0.5217391304347826
 40
0.5652173913043478
 40
0.5652173913043478
 40
0.5652173913043478
 40
0.5652173913043478
 40
0.6086956521739131
 40
0.6086956521739131
 40
0.6086956521739131
 40
0.6086956521739131
 40
0.6521739130434783
 40
0.6521739130434783
 40
0.6521739130434783
 40
0.6521739130434783
 40
0.6956521739130435
 40
0.6956521739130435
 40
0.6956521739130435
 40
0.6956521739130435
 40
0.7391304347826086
 40
0.7391304347826086
 40
0.7391304347826086
 40
0.7391304347826086
 40
0.782608695652174
 40
0.782608695652174
 40
0.782608695652174
 40
0.782608695652174
 40
0.8260869565217391
 40
0.8260869565217391
 40
0.8260869565217391
 40
0.8260869565217391
 40
0.8695652173913043
 40
0.8695652173913043
 40
0.8695652173913043
 40
0.8695652173913043
 40
0.9130434782608695
 40
0.9130434782608695
 40
0.9130434782608695
 40
0.9130434782608695
 40
1.0
 40
1.0
 40
1.0
 40
1.0
 10
-13.6919
 20
9.0375
 30
0.0
 10
-13.6919
 20
9.0375
 30
0.0
 10
-13.6919
 20
8.799
 30
0.0
 10
-13.6919
 20
8.799
 30
0.0
 10
-13.6919
 20
8.799
 30
0.0
 10
-13.6919
 20
8.799
 30
0.0
 10
-15.0273
 20
8.799
 30
0.0
 10
-15.0273
 20
8.799
 30
0.0
 10
-15.0273
 20
8.799
 30
0.0
 10
-15.0292
 20
8.8587
 30
0.0
 10
-15.0198
 20
8.9161
 30
0.0
 10
-14.9986
 20
8.9712
 30
0.0
 10
-14.9986
 20
8.9712
 30
0.0
 10
-14.9647
 20
9.0624
 30
0.0
 10
-14.9102
 20
9.1518
 30
0.0
 10
-14.8354
 20
9.2402
 30
0.0
 10
-14.8354
 20
9.2402
 30
0.0
 10
-14.7601
 20
9.3282
 30
0.0
 10
-14.6519
 20
9.4302
 30
0.0
 10
-14.5108
 20
9.5459
 30
0.0
 10
-14.5108
 20
9.5459
 30
0.0
 10
-14.2912
 20
9.7261
 30
0.0
 10
-14.1425
 20
9.8686
 30
0.0
 10
-14.0654
 20
9.974
 30
0.0
 10
-14.0654
 20
9.974
 30
0.0
 10
-13.9883
 20
10.0789
 30
0.0
 10
-13.9497
 20
10.1786
 30
0.0
 10
-13.9497
 20
10.2722
 30
0.0
 10
-13.9497
 20
10.2722
 30
0.0
 10
-13.9497
 20
10.3705
 30
0.0
 10
-13.985
 20
10.4533
 30
0.0
 10
-14.055
 20
10.521
 30
0.0
 10
-14.055
 20
10.521
 30
0.0
 10
-14.1256
 20
10.5883
 30
0.0
 10
-14.2173
 20
10.6221
 30
0.0
 10
-14.3302
 20
10.6221
 30
0.0
 10
-14.3302
 20
10.6221
 30
0.0
 10
-14.4497
 20
10.6221
 30
0.0
 10
-14.5452
 20
10.5864
 30
0.0
 10
-14.6167
 20
10.5144
 30
0.0
 10
-14.6167
 20
10.5144
 30
0.0
 10
-14.6886
 20
10.4429
 30
0.0
 10
-14.7248
 20
10.3437
 30
0.0
 10
-14.7258
 20
10.2172
 30
0.0
 10
-14.7258
 20
10.2172
 30
0.0
 10
-14.7258
 20
10.2172
 30
0.0
 10
-14.9807
 20
10.243
 30
0.0
 10
-14.9807
 20
10.243
 30
0.0
 10
-14.9807
 20
10.243
 30
0.0
 10
-14.9633
 20
10.4335
 30
0.0
 10
-14.8975
 20
10.5784
 30
0.0
 10
-14.7836
 20
10.6781
 30
0.0
 10
-14.7836
 20
10.6781
 30
0.0
 10
-14.6698
 20
10.7778
 30
0.0
 10
-14.5165
 20
10.8277
 30
0.0
 10
-14.3246
 20
10.8277
 30
0.0
 10
-14.3246
 20
10.8277
 30
0.0
 10
-14.1308
 20
10.8277
 30
0.0
 10
-13.9774
 20
10.7736
 30
0.0
 10
-13.8645
 20
10.6664
 30
0.0
 10
-13.8645
 20
10.6664
 30
0.0
 10
-13.7512
 20
10.5586
 30
0.0
 10
-13.6947
 20
10.4255
 30
0.0
 10
-13.6947
 20
10.2665
 30
0.0
 10
-13.6947
 20
10.2665
 30
0.0
 10
-13.6947
 20
10.1856
 30
0.0
 10
-13.7112
 20
10.1061
 30
0.0
 10
-13.7446
 20
10.0281
 30
0.0
 10
-13.7446
 20
10.0281
 30
0.0
 10
-13.7775
 20
9.95
 30
0.0
 10
-13.8326
 20
9.8677
 30
0.0
 10
-13.9092
 20
9.7816
 30
0.0
 10
-13.9092
 20
9.7816
 30
0.0
 10
-13.9859
 20
9.695
 30
0.0
 10
-14.1134
 20
9.5765
 30
0.0
 10
-14.2916
 20
9.426
 30
0.0
 10
-14.2916
 20
9.426
 30
0.0
 10
-14.4403
 20
9.3009
 30
0.0
 10
-14.5358
 20
9.2162
 30
0.0
 10
-14.5781
 20
9.1715
 30
0.0
 10
-14.5781
 20
9.1715
 30
0.0
 10
-14.6204
 20
9.1273
 30
0.0
 10
-14.6552
 20
9.0826
 30
0.0
 10
-14.683
 20
9.0375
 30
0.0
 10
-14.683
 20
9.0375
 30
0.0
 10
-14.683
 20
9.0375
 30
0.0
 10
-13.6919
 20
9.0375
 30
0.0
 10
-13.6919
 20
9.0375
 30
0.0
  0
SPLINE
  5
94
330
1F
100
AcDbEntity
  8
ROUND
 62
   250
100
AcDbSpline
210
0.0
220
0.0
230
1.0
 70
    11
 71
     3
 72
    20
 73
    16
 74
     0
 42
0.0000000001
 43
0.0000000001
 40
0.0
 40
0.0
 40
0.0
 40
0.0
 40
0.2
 40
0.2
 40
0.2
 40
0.2
 40
0.4
 40
0.4
 40
0.4
 40
0.4
 40
0.6
 40
0.6
 40
0.6
 40
0.6
 40
1.0
 40
1.0
 40
1.0
 40
1.0
 10
29.1872
 20
16.2021
 30
0.0
 10
29.1872
 20
16.2021
 30
0.0
 10
32.1872
 20
15.7787
 30
0.0
 10
32.1872
 20
15.7787
 30
0.0
 10
32.1872
 20
15.7787
 30
0.0
 10
32.1872
 20
15.7787
 30
0.0
 10
32.1872
 20
15.6847
 30
0.0
 10
32.1872
 20
15.6847
 30
0.0
 10
32.1872
 20
15.6847
 30
0.0
 10
32.1872
 20
15.6847
 30
0.0
 10
29.1872
 20
15.2332
 30
0.0
 10
29.1872
 20
15.2332
 30
0.0
 10
29.1872
 20
15.2332
 30
0.0
 10
29.1872
 20
15.2332
 30
0.0
 10
29.1872
 20
16.2021
 30
0.0
 10
29.1872
 20
16.2021
 30
0.0
  0
SPLINE
  5
95
330
1F
100
AcDbEntity
  8
ROUND
 62
   250
100
AcDbSpline
210
0.0
220
0.0
230
1.0
 70
    11
 71
     3
 72
    20
 73
    16
 74
     0
 42
0.0000000001
 43
0.0000000001
 40
0.0
 40
0.0
 40
0.0
 40
0.0
 40
0.2
 40
0.2
 40
0.2
 40
0.2
 40
0.4
 40
0.4
 40
0.4
 40
0.4
 40
0.6
 40
0.6
 40
0.6
 40
0.6
 40
1.0
 40
1.0
 40
1.0
 40
1.0
 10
-22.2249
 20
15.2211
 30
0.0
 10
-22.2249
 20
15.2211
 30
0.0
 10
-25.2249
 20
15.6445
 30
0.0
 10
-25.2249
 20
15.6445
 30
0.0
 10
-25.2249
 20
15.6445
 30
0.0
 10
-25.2249
 20
15.6445
 30
0.0
 10
-25.2249
 20
15.7385
 30
0.0
 10
-25.2249
 20
15.7385
 30
0.0
 10
-25.2249
 20
15.7385
 30
0.0
 10
-25.2249
 20
15.7385
 30
0.0
 10
-22.2249
 20
16.1901
 30
0.0
 10
-22.2249
 20
16.1901
 30
0.0
 10
-22.2249
 20
16.1901
 30
0.0
 10
-22.2249
 20
16.1901
 30
0.0
 10
-22.2249
 20
15.2211
 30
0.0
 10
-22.2249
 20
15.2211
 30
0.0
  0
SPLINE
  5
96
330
1F
100
AcDbEntity
  8
ROUND
 62
   250
100
AcDbSpline
210
0.0
220
0.0
230
1.0
 70
    11
 71
     3
 72
   116
 73
   112
 74
     0
 42
0.0000000001
 43
0.0000000001
 40
0.0
 40
0.0
 40
0.0
 40
0.0
 40
0.0344827586206897
 40
0.0344827586206897
 40
0.0344827586206897
 40
0.0344827586206897
 40
0.0689655172413793
 40
0.0689655172413793
 40
0.0689655172413793
 40
0.0689655172413793
 40
0.103448275862069
 40
0.103448275862069
 40
0.103448275862069
 40
0.103448275862069
 40
0.1379310344827586
 40
0.1379310344827586
 40
0.1379310344827586
 40
0.1379310344827586
 40
0.1724137931034483
 40
0.1724137931034483
 40
0.1724137931034483
 40
0.1724137931034483
 40
0.2068965517241379
 40
0.2068965517241379
 40
0.2068965517241379
 40
0.2068965517241379
 40
0.2413793103448276
 40
0.2413793103448276
 40
0.2413793103448276
 40
0.2413793103448276
 40
0.2758620689655172
 40
0.2758620689655172
 40
0.2758620689655172
 40
0.2758620689655172
 40
0.3103448275862069
 40
0.3103448275862069
 40
0.3103448275862069
 40
0.3103448275862069
 40
0.3448275862068966
 40
0.3448275862068966
 40
0.3448275862068966
 40
0.3448275862068966
 40
0.3793103448275862
 40
0.3793103448275862
 40
0.3793103448275862
 40
0.3793103448275862
 40
0.4137931034482759
 40
0.4137931034482759
 40
0.4137931034482759
 40
0.4137931034482759
 40
0.4482758620689655
 40
0.4482758620689655
 40
0.4482758620689655
 40
0.4482758620689655
 40
0.4827586206896552
 40
0.4827586206896552
 40
0.4827586206896552
 40
0.4827586206896552
 40
0.5172413793103449
 40
0.5172413793103449
 40
0.5172413793103449
 40
0.5172413793103449
 40
0.5517241379310345
 40
0.5517241379310345
 40
0.5517241379310345
 40
0.5517241379310345
 40
0.5862068965517241
 40
0.5862068965517241
 40
0.5862068965517241
 40
0.5862068965517241
 40
0.6206896551724138
 40
0.6206896551724138
 40
0.6206896551724138
 40
0.6206896551724138
 40
0.6551724137931034
 40
0.6551724137931034
 40
0.6551724137931034
 40
0.6551724137931034
 40
0.6896551724137931
 40
0.6896551724137931
 40
0.6896551724137931
 40
0.6896551724137931
 40
0.7241379310344828
 40
0.7241379310344828
 40
0.7241379310344828
 40
0.7241379310344828
 40
0.7586206896551724
 40
0.7586206896551724
 40
0.7586206896551724
 40
0.7586206896551724
 40
0.7931034482758621
 40
0.7931034482758621
 40
0.7931034482758621
 40
0.7931034482758621
 40
0.8275862068965517
 40
0.8275862068965517
 40
0.8275862068965517
 40
0.8275862068965517
 40
0.8620689655172413
 40
0.8620689655172413
 40
0.8620689655172413
 40
0.8620689655172413
 40
0.896551724137931
 40
0.896551724137931
 40
0.896551724137931
 40
0.896551724137931
 40
0.9310344827586207
 40
0.9310344827586207
 40
0.9310344827586207
 40
0.9310344827586207
 40
1.0
 40
1.0
 40
1.0
 40
1.0
 10
-2.3957
 20
16.559
 30
0.0
 10
-2.3957
 20
16.559
 30
0.0
 10
-2.3957
 20
18.0223
 30
0.0
 10
-2.3957
 20
18.0223
 30
0.0
 10
-2.3957
 20
18.0223
 30
0.0
 10
-2.3957
 20
18.0223
 30
0.0
 10
-2.1742
 20
18.0223
 30
0.0
 10
-2.1742
 20
18.0223
 30
0.0
 10
-2.1742
 20
18.0223
 30
0.0
 10
-2.1742
 20
18.0223
 30
0.0
 10
-2.1742
 20
17.8172
 30
0.0
 10
-2.1742
 20
17.8172
 30
0.0
 10
-2.1742
 20
17.8172
 30
0.0
 10
-2.1281
 20
17.8887
 30
0.0
 10
-2.0669
 20
17.9466
 30
0.0
 10
-1.9907
 20
17.9899
 30
0.0
 10
-1.9907
 20
17.9899
 30
0.0
 10
-1.9145
 20
18.0336
 30
0.0
 10
-1.8275
 20
18.0557
 30
0.0
 10
-1.7302
 20
18.0557
 30
0.0
 10
-1.7302
 20
18.0557
 30
0.0
 10
-1.622
 20
18.0557
 30
0.0
 10
-1.5331
 20
18.0331
 30
0.0
 10
-1.4639
 20
17.988
 30
0.0
 10
-1.4639
 20
17.988
 30
0.0
 10
-1.3943
 20
17.9428
 30
0.0
 10
-1.3454
 20
17.8803
 30
0.0
 10
-1.3172
 20
17.7994
 30
0.0
 10
-1.3172
 20
17.7994
 30
0.0
 10
-1.201
 20
17.9701
 30
0.0
 10
-1.0505
 20
18.0557
 30
0.0
 10
-0.8652
 20
18.0557
 30
0.0
 10
-0.8652
 20
18.0557
 30
0.0
 10
-0.7198
 20
18.0557
 30
0.0
 10
-0.6083
 20
18.0153
 30
0.0
 10
-0.5303
 20
17.9348
 30
0.0
 10
-0.5303
 20
17.9348
 30
0.0
 10
-0.4522
 20
17.8544
 30
0.0
 10
-0.4131
 20
17.7307
 30
0.0
 10
-0.4131
 20
17.5637
 30
0.0
 10
-0.4131
 20
17.5637
 30
0.0
 10
-0.4131
 20
17.5637
 30
0.0
 10
-0.4131
 20
16.559
 30
0.0
 10
-0.4131
 20
16.559
 30
0.0
 10
-0.4131
 20
16.559
 30
0.0
 10
-0.4131
 20
16.559
 30
0.0
 10
-0.6596
 20
16.559
 30
0.0
 10
-0.6596
 20
16.559
 30
0.0
 10
-0.6596
 20
16.559
 30
0.0
 10
-0.6596
 20
16.559
 30
0.0
 10
-0.6596
 20
17.4809
 30
0.0
 10
-0.6596
 20
17.4809
 30
0.0
 10
-0.6596
 20
17.4809
 30
0.0
 10
-0.6596
 20
17.5802
 30
0.0
 10
-0.6676
 20
17.6517
 30
0.0
 10
-0.6836
 20
17.6954
 30
0.0
 10
-0.6836
 20
17.6954
 30
0.0
 10
-0.7001
 20
17.7387
 30
0.0
 10
-0.7292
 20
17.774
 30
0.0
 10
-0.7711
 20
17.8008
 30
0.0
 10
-0.7711
 20
17.8008
 30
0.0
 10
-0.8134
 20
17.8271
 30
0.0
 10
-0.8633
 20
17.8407
 30
0.0
 10
-0.9202
 20
17.8407
 30
0.0
 10
-0.9202
 20
17.8407
 30
0.0
 10
-1.0232
 20
17.8407
 30
0.0
 10
-1.1083
 20
17.8064
 30
0.0
 10
-1.1765
 20
17.7377
 30
0.0
 10
-1.1765
 20
17.7377
 30
0.0
 10
-1.2443
 20
17.6695
 30
0.0
 10
-1.2786
 20
17.5599
 30
0.0
 10
-1.2786
 20
17.4094
 30
0.0
 10
-1.2786
 20
17.4094
 30
0.0
 10
-1.2786
 20
17.4094
 30
0.0
 10
-1.2786
 20
16.559
 30
0.0
 10
-1.2786
 20
16.559
 30
0.0
 10
-1.2786
 20
16.559
 30
0.0
 10
-1.2786
 20
16.559
 30
0.0
 10
-1.5265
 20
16.559
 30
0.0
 10
-1.5265
 20
16.559
 30
0.0
 10
-1.5265
 20
16.559
 30
0.0
 10
-1.5265
 20
16.559
 30
0.0
 10
-1.5265
 20
17.5096
 30
0.0
 10
-1.5265
 20
17.5096
 30
0.0
 10
-1.5265
 20
17.5096
 30
0.0
 10
-1.5265
 20
17.6201
 30
0.0
 10
-1.5467
 20
17.7029
 30
0.0
 10
-1.5872
 20
17.758
 30
0.0
 10
-1.5872
 20
17.758
 30
0.0
 10
-1.6276
 20
17.813
 30
0.0
 10
-1.6935
 20
17.8407
 30
0.0
 10
-1.7857
 20
17.8407
 30
0.0
 10
-1.7857
 20
17.8407
 30
0.0
 10
-1.8553
 20
17.8407
 30
0.0
 10
-1.9197
 20
17.8224
 30
0.0
 10
-1.979
 20
17.7852
 30
0.0
 10
-1.979
 20
17.7852
 30
0.0
 10
-2.0383
 20
17.7486
 30
0.0
 10
-2.0815
 20
17.6949
 30
0.0
 10
-2.1079
 20
17.6244
 30
0.0
 10
-2.1079
 20
17.6244
 30
0.0
 10
-2.1347
 20
17.5534
 30
0.0
 10
-2.1479
 20
17.4513
 30
0.0
 10
-2.1479
 20
17.3182
 30
0.0
 10
-2.1479
 20
17.3182
 30
0.0
 10
-2.1479
 20
17.3182
 30
0.0
 10
-2.1479
 20
16.559
 30
0.0
 10
-2.1479
 20
16.559
 30
0.0
 10
-2.1479
 20
16.559
 30
0.0
 10
-2.1479
 20
16.559
 30
0.0
 10
-2.3957
 20
16.559
 30
0.0
 10
-2.3957
 20
16.559
 30
0.0
  0
SPLINE
  5
97
330
1F
100
AcDbEntity
  8
ROUND
 62
   250
100
AcDbSpline
210
0.0
220
0.0
230
1.0
 70
    11
 71
     3
 72
   112
 73
   108
 74
     0
 42
0.0000000001
 43
0.0000000001
 40
0.0
 40
0.0
 40
0.0
 40
0.0
 40
0.0357142857142857
 40
0.0357142857142857
 40
0.0357142857142857
 40
0.0357142857142857
 40
0.0714285714285714
 40
0.0714285714285714
 40
0.0714285714285714
 40
0.0714285714285714
 40
0.1071428571428571
 40
0.1071428571428571
 40
0.1071428571428571
 40
0.1071428571428571
 40
0.1428571428571428
 40
0.1428571428571428
 40
0.1428571428571428
 40
0.1428571428571428
 40
0.1785714285714286
 40
0.1785714285714286
 40
0.1785714285714286
 40
0.1785714285714286
 40
0.2142857142857143
 40
0.2142857142857143
 40
0.2142857142857143
 40
0.2142857142857143
 40
0.25
 40
0.25
 40
0.25
 40
0.25
 40
0.2857142857142857
 40
0.2857142857142857
 40
0.2857142857142857
 40
0.2857142857142857
 40
0.3214285714285715
 40
0.3214285714285715
 40
0.3214285714285715
 40
0.3214285714285715
 40
0.3571428571428572
 40
0.3571428571428572
 40
0.3571428571428572
 40
0.3571428571428572
 40
0.3928571428571428
 40
0.3928571428571428
 40
0.3928571428571428
 40
0.3928571428571428
 40
0.4285714285714285
 40
0.4285714285714285
 40
0.4285714285714285
 40
0.4285714285714285
 40
0.4642857142857143
 40
0.4642857142857143
 40
0.4642857142857143
 40
0.4642857142857143
 40
0.5
 40
0.5
 40
0.5
 40
0.5
 40
0.5357142857142857
 40
0.5357142857142857
 40
0.5357142857142857
 40
0.5357142857142857
 40
0.5714285714285714
 40
0.5714285714285714
 40
0.5714285714285714
 40
0.5714285714285714
 40
0.6071428571428571
 40
0.6071428571428571
 40
0.6071428571428571
 40
0.6071428571428571
 40
0.6428571428571429
 40
0.6428571428571429
 40
0.6428571428571429
 40
0.6428571428571429
 40
0.6785714285714286
 40
0.6785714285714286
 40
0.6785714285714286
 40
0.6785714285714286
 40
0.7142857142857143
 40
0.7142857142857143
 40
0.7142857142857143
 40
0.7142857142857143
 40
0.75
 40
0.75
 40
0.75
 40
0.75
 40
0.7857142857142857
 40
0.7857142857142857
 40
0.7857142857142857
 40
0.7857142857142857
 40
0.8214285714285714
 40
0.8214285714285714
 40
0.8214285714285714
 40
0.8214285714285714
 40
0.8571428571428571
 40
0.8571428571428571
 40
0.8571428571428571
 40
0.8571428571428571
 40
0.8928571428571429
 40
0.8928571428571429
 40
0.8928571428571429
 40
0.8928571428571429
 40
0.9285714285714286
 40
0.9285714285714286
 40
0.9285714285714286
 40
0.9285714285714286
 40
1.0
 40
1.0
 40
1.0
 40
1.0
 10
0.91
 20
16.7396
 30
0.0
 10
0.8178
 20
16.6615
 30
0.0
 10
0.7294
 20
16.6065
 30
0.0
 10
0.6447
 20
16.5741
 30
0.0
 10
0.6447
 20
16.5741
 30
0.0
 10
0.5596
 20
16.5421
 30
0.0
 10
0.4683
 20
16.5261
 30
0.0
 10
0.371
 20
16.5261
 30
0.0
 10
0.371
 20
16.5261
 30
0.0
 10
0.2101
 20
16.5261
 30
0.0
 10
0.0869
 20
16.5651
 30
0.0
 10
0.0003
 20
16.6437
 30
0.0
 10
0.0003
 20
16.6437
 30
0.0
 10
-0.0858
 20
16.7222
 30
0.0
 10
-0.129
 20
16.8229
 30
0.0
 10
-0.129
 20
16.9447
 30
0.0
 10
-0.129
 20
16.9447
 30
0.0
 10
-0.129
 20
17.0167
 30
0.0
 10
-0.113
 20
17.082
 30
0.0
 10
-0.0801
 20
17.1413
 30
0.0
 10
-0.0801
 20
17.1413
 30
0.0
 10
-0.0477
 20
17.2006
 30
0.0
 10
-0.0049
 20
17.2481
 30
0.0
 10
0.0478
 20
17.2838
 30
0.0
 10
0.0478
 20
17.2838
 30
0.0
 10
0.101
 20
17.3196
 30
0.0
 10
0.1602
 20
17.3469
 30
0.0
 10
0.2266
 20
17.3652
 30
0.0
 10
0.2266
 20
17.3652
 30
0.0
 10
0.275
 20
17.3779
 30
0.0
 10
0.3484
 20
17.3906
 30
0.0
 10
0.4467
 20
17.4024
 30
0.0
 10
0.4467
 20
17.4024
 30
0.0
 10
0.6471
 20
17.4264
 30
0.0
 10
0.7948
 20
17.4546
 30
0.0
 10
0.8893
 20
17.488
 30
0.0
 10
0.8893
 20
17.488
 30
0.0
 10
0.8903
 20
17.5218
 30
0.0
 10
0.8907
 20
17.5435
 30
0.0
 10
0.8907
 20
17.5524
 30
0.0
 10
0.8907
 20
17.5524
 30
0.0
 10
0.8907
 20
17.6535
 30
0.0
 10
0.8672
 20
17.725
 30
0.0
 10
0.8202
 20
17.766
 30
0.0
 10
0.8202
 20
17.766
 30
0.0
 10
0.7571
 20
17.8224
 30
0.0
 10
0.6626
 20
17.8502
 30
0.0
 10
0.5379
 20
17.8502
 30
0.0
 10
0.5379
 20
17.8502
 30
0.0
 10
0.4213
 20
17.8502
 30
0.0
 10
0.3352
 20
17.8299
 30
0.0
 10
0.2792
 20
17.789
 30
0.0
 10
0.2792
 20
17.789
 30
0.0
 10
0.2237
 20
17.7481
 30
0.0
 10
0.1828
 20
17.6757
 30
0.0
 10
0.156
 20
17.5717
 30
0.0
 10
0.156
 20
17.5717
 30
0.0
 10
0.156
 20
17.5717
 30
0.0
 10
-0.0862
 20
17.6051
 30
0.0
 10
-0.0862
 20
17.6051
 30
0.0
 10
-0.0862
 20
17.6051
 30
0.0
 10
-0.0641
 20
17.7086
 30
0.0
 10
-0.0279
 20
17.7928
 30
0.0
 10
0.0224
 20
17.8563
 30
0.0
 10
0.0224
 20
17.8563
 30
0.0
 10
0.0728
 20
17.9202
 30
0.0
 10
0.1461
 20
17.9696
 30
0.0
 10
0.2416
 20
18.004
 30
0.0
 10
0.2416
 20
18.004
 30
0.0
 10
0.3371
 20
18.0383
 30
0.0
 10
0.4476
 20
18.0557
 30
0.0
 10
0.5737
 20
18.0557
 30
0.0
 10
0.5737
 20
18.0557
 30
0.0
 10
0.6988
 20
18.0557
 30
0.0
 10
0.7999
 20
18.0407
 30
0.0
 10
0.878
 20
18.0115
 30
0.0
 10
0.878
 20
18.0115
 30
0.0
 10
0.9561
 20
17.9819
 30
0.0
 10
1.0135
 20
17.9452
 30
0.0
 10
1.0506
 20
17.9005
 30
0.0
 10
1.0506
 20
17.9005
 30
0.0
 10
1.0873
 20
17.8558
 30
0.0
 10
1.1127
 20
17.7998
 30
0.0
 10
1.1278
 20
17.7316
 30
0.0
 10
1.1278
 20
17.7316
 30
0.0
 10
1.1358
 20
17.6893
 30
0.0
 10
1.14
 20
17.6131
 30
0.0
 10
1.14
 20
17.503
 30
0.0
 10
1.14
 20
17.503
 30
0.0
 10
1.14
 20
17.503
 30
0.0
 10
1.14
 20
17.1724
 30
0.0
 10
1.14
 20
17.1724
 30
0.0
 10
1.14
 20
17.1724
 30
0.0
 10
1.14
 20
16.9414
 30
0.0
 10
1.1452
 20
16.7956
 30
0.0
 10
1.156
 20
16.7349
 30
0.0
 10
1.156
 20
16.7349
 30
0.0
 10
1.1664
 20
16.6738
 30
0.0
 10
1.1875
 20
16.615
 30
0.0
 10
1.2186
 20
16.559
 30
0.0
 10
1.2186
 20
16.559
 30
0.0
 10
1.2186
 20
16.559
 30
0.0
 10
0.9594
 20
16.559
 30
0.0
 10
0.9594
 20
16.559
 30
0.0
 10
0.9594
 20
16.559
 30
0.0
 10
0.934
 20
16.6103
 30
0.0
 10
0.9171
 20
16.6705
 30
0.0
 10
0.91
 20
16.7396
 30
0.0
  0
SPLINE
  5
98
330
1F
100
AcDbEntity
  8
ROUND
 62
   250
100
AcDbSpline
210
0.0
220
0.0
230
1.0
 70
    11
 71
     3
 72
    44
 73
    40
 74
     0
 42
0.0000000001
 43
0.0000000001
 40
0.0
 40
0.0
 40
0.0
 40
0.0
 40
0.0909090909090909
 40
0.0909090909090909
 40
0.0909090909090909
 40
0.0909090909090909
 40
0.1818181818181818
 40
0.1818181818181818
 40
0.1818181818181818
 40
0.1818181818181818
 40
0.2727272727272727
 40
0.2727272727272727
 40
0.2727272727272727
 40
0.2727272727272727
 40
0.3636363636363636
 40
0.3636363636363636
 40
0.3636363636363636
 40
0.3636363636363636
 40
0.4545454545454545
 40
0.4545454545454545
 40
0.4545454545454545
 40
0.4545454545454545
 40
0.5454545454545454
 40
0.5454545454545454
 40
0.5454545454545454
 40
0.5454545454545454
 40
0.6363636363636364
 40
0.6363636363636364
 40
0.6363636363636364
 40
0.6363636363636364
 40
0.7272727272727273
 40
0.7272727272727273
 40
0.7272727272727273
 40
0.7272727272727273
 40
0.8181818181818182
 40
0.8181818181818182
 40
0.8181818181818182
 40
0.8181818181818182
 40
1.0
 40
1.0
 40
1.0
 40
1.0
 10
0.8893
 20
17.2937
 30
0.0
 10
0.799
 20
17.2566
 30
0.0
 10
0.664
 20
17.2255
 30
0.0
 10
0.4843
 20
17.1996
 30
0.0
 10
0.4843
 20
17.1996
 30
0.0
 10
0.3823
 20
17.1851
 30
0.0
 10
0.3098
 20
17.1686
 30
0.0
 10
0.268
 20
17.1503
 30
0.0
 10
0.268
 20
17.1503
 30
0.0
 10
0.2256
 20
17.1319
 30
0.0
 10
0.1927
 20
17.1051
 30
0.0
 10
0.1701
 20
17.0693
 30
0.0
 10
0.1701
 20
17.0693
 30
0.0
 10
0.1471
 20
17.0341
 30
0.0
 10
0.1353
 20
16.995
 30
0.0
 10
0.1353
 20
16.9518
 30
0.0
 10
0.1353
 20
16.9518
 30
0.0
 10
0.1353
 20
16.8854
 30
0.0
 10
0.1607
 20
16.8304
 30
0.0
 10
0.2106
 20
16.7862
 30
0.0
 10
0.2106
 20
16.7862
 30
0.0
 10
0.2604
 20
16.7424
 30
0.0
 10
0.3338
 20
16.7203
 30
0.0
 10
0.4302
 20
16.7203
 30
0.0
 10
0.4302
 20
16.7203
 30
0.0
 10
0.5257
 20
16.7203
 30
0.0
 10
0.6109
 20
16.741
 30
0.0
 10
0.6852
 20
16.7829
 30
0.0
 10
0.6852
 20
16.7829
 30
0.0
 10
0.7595
 20
16.8248
 30
0.0
 10
0.8145
 20
16.8821
 30
0.0
 10
0.8493
 20
16.9546
 30
0.0
 10
0.8493
 20
16.9546
 30
0.0
 10
0.8761
 20
17.0106
 30
0.0
 10
0.8893
 20
17.0933
 30
0.0
 10
0.8893
 20
17.2025
 30
0.0
 10
0.8893
 20
17.2025
 30
0.0
 10
0.8893
 20
17.2025
 30
0.0
 10
0.8893
 20
17.2937
 30
0.0
 10
0.8893
 20
17.2937
 30
0.0
  0
SPLINE
  5
99
330
1F
100
AcDbEntity
  8
ROUND
 62
   250
100
AcDbSpline
210
0.0
220
0.0
230
1.0
 70
    11
 71
     3
 72
    64
 73
    60
 74
     0
 42
0.0000000001
 43
0.0000000001
 40
0.0
 40
0.0
 40
0.0
 40
0.0
 40
0.0625
 40
0.0625
 40
0.0625
 40
0.0625
 40
0.125
 40
0.125
 40
0.125
 40
0.125
 40
0.1875
 40
0.1875
 40
0.1875
 40
0.1875
 40
0.25
 40
0.25
 40
0.25
 40
0.25
 40
0.3125
 40
0.3125
 40
0.3125
 40
0.3125
 40
0.375
 40
0.375
 40
0.375
 40
0.375
 40
0.4375
 40
0.4375
 40
0.4375
 40
0.4375
 40
0.5
 40
0.5
 40
0.5
 40
0.5
 40
0.5625
 40
0.5625
 40
0.5625
 40
0.5625
 40
0.625
 40
0.625
 40
0.625
 40
0.625
 40
0.6875
 40
0.6875
 40
0.6875
 40
0.6875
 40
0.75
 40
0.75
 40
0.75
 40
0.75
 40
0.8125
 40
0.8125
 40
0.8125
 40
0.8125
 40
0.875
 40
0.875
 40
0.875
 40
0.875
 40
1.0
 40
1.0
 40
1.0
 40
1.0
 10
1.3592
 20
16.559
 30
0.0
 10
1.3592
 20
16.559
 30
0.0
 10
1.894
 20
17.3196
 30
0.0
 10
1.894
 20
17.3196
 30
0.0
 10
1.894
 20
17.3196
 30
0.0
 10
1.894
 20
17.3196
 30
0.0
 10
1.3992
 20
18.0223
 30
0.0
 10
1.3992
 20
18.0223
 30
0.0
 10
1.3992
 20
18.0223
 30
0.0
 10
1.3992
 20
18.0223
 30
0.0
 10
1.7091
 20
18.0223
 30
0.0
 10
1.7091
 20
18.0223
 30
0.0
 10
1.7091
 20
18.0223
 30
0.0
 10
1.7091
 20
18.0223
 30
0.0
 10
1.934
 20
17.6794
 30
0.0
 10
1.934
 20
17.6794
 30
0.0
 10
1.934
 20
17.6794
 30
0.0
 10
1.9758
 20
17.614
 30
0.0
 10
2.0102
 20
17.5595
 30
0.0
 10
2.0356
 20
17.5153
 30
0.0
 10
2.0356
 20
17.5153
 30
0.0
 10
2.076
 20
17.5759
 30
0.0
 10
2.1132
 20
17.6296
 30
0.0
 10
2.1475
 20
17.6766
 30
0.0
 10
2.1475
 20
17.6766
 30
0.0
 10
2.1475
 20
17.6766
 30
0.0
 10
2.394
 20
18.0223
 30
0.0
 10
2.394
 20
18.0223
 30
0.0
 10
2.394
 20
18.0223
 30
0.0
 10
2.394
 20
18.0223
 30
0.0
 10
2.6903
 20
18.0223
 30
0.0
 10
2.6903
 20
18.0223
 30
0.0
 10
2.6903
 20
18.0223
 30
0.0
 10
2.6903
 20
18.0223
 30
0.0
 10
2.1847
 20
17.3332
 30
0.0
 10
2.1847
 20
17.3332
 30
0.0
 10
2.1847
 20
17.3332
 30
0.0
 10
2.1847
 20
17.3332
 30
0.0
 10
2.7289
 20
16.559
 30
0.0
 10
2.7289
 20
16.559
 30
0.0
 10
2.7289
 20
16.559
 30
0.0
 10
2.7289
 20
16.559
 30
0.0
 10
2.4246
 20
16.559
 30
0.0
 10
2.4246
 20
16.559
 30
0.0
 10
2.4246
 20
16.559
 30
0.0
 10
2.4246
 20
16.559
 30
0.0
 10
2.124
 20
17.0138
 30
0.0
 10
2.124
 20
17.0138
 30
0.0
 10
2.124
 20
17.0138
 30
0.0
 10
2.124
 20
17.0138
 30
0.0
 10
2.0441
 20
17.1366
 30
0.0
 10
2.0441
 20
17.1366
 30
0.0
 10
2.0441
 20
17.1366
 30
0.0
 10
2.0441
 20
17.1366
 30
0.0
 10
1.6598
 20
16.559
 30
0.0
 10
1.6598
 20
16.559
 30
0.0
 10
1.6598
 20
16.559
 30
0.0
 10
1.6598
 20
16.559
 30
0.0
 10
1.3592
 20
16.559
 30
0.0
 10
1.3592
 20
16.559
 30
0.0
  0
SPLINE
  5
9A
330
1F
100
AcDbEntity
  8
ROUND
 62
   250
100
AcDbSpline
210
0.0
220
0.0
230
1.0
 70
    11
 71
     3
 72
    92
 73
    88
 74
     0
 42
0.0000000001
 43
0.0000000001
 40
0.0
 40
0.0
 40
0.0
 40
0.0
 40
0.0434782608695652
 40
0.0434782608695652
 40
0.0434782608695652
 40
0.0434782608695652
 40
0.0869565217391304
 40
0.0869565217391304
 40
0.0869565217391304
 40
0.0869565217391304
 40
0.1304347826086956
 40
0.1304347826086956
 40
0.1304347826086956
 40
0.1304347826086956
 40
0.1739130434782609
 40
0.1739130434782609
 40
0.1739130434782609
 40
0.1739130434782609
 40
0.2173913043478261
 40
0.2173913043478261
 40
0.2173913043478261
 40
0.2173913043478261
 40
0.2608695652173913
 40
0.2608695652173913
 40
0.2608695652173913
 40
0.2608695652173913
 40
0.3043478260869565
 40
0.3043478260869565
 40
0.3043478260869565
 40
0.3043478260869565
 40
0.3478260869565217
 40
0.3478260869565217
 40
0.3478260869565217
 40
0.3478260869565217
 40
0.391304347826087
 40
0.391304347826087
 40
0.391304347826087
 40
0.391304347826087
 40
0.4347826086956522
 40
0.4347826086956522
 40
0.4347826086956522
 40
0.4347826086956522
 40
0.4782608695652174
 40
0.4782608695652174
 40
0.4782608695652174
 40
0.4782608695652174
 40
0.5217391304347826
 40
0.5217391304347826
 40
0.5217391304347826
 40
0.5217391304347826
 40
0.5652173913043478
 40
0.5652173913043478
 40
0.5652173913043478
 40
0.5652173913043478
 40
0.6086956521739131
 40
0.6086956521739131
 40
0.6086956521739131
 40
0.6086956521739131
 40
0.6521739130434783
 40
0.6521739130434783
 40
0.6521739130434783
 40
0.6521739130434783
 40
0.6956521739130435
 40
0.6956521739130435
 40
0.6956521739130435
 40
0.6956521739130435
 40
0.7391304347826086
 40
0.7391304347826086
 40
0.7391304347826086
 40
0.7391304347826086
 40
0.782608695652174
 40
0.782608695652174
 40
0.782608695652174
 40
0.782608695652174
 40
0.8260869565217391
 40
0.8260869565217391
 40
0.8260869565217391
 40
0.8260869565217391
 40
0.8695652173913043
 40
0.8695652173913043
 40
0.8695652173913043
 40
0.8695652173913043
 40
0.9130434782608695
 40
0.9130434782608695
 40
0.9130434782608695
 40
0.9130434782608695
 40
1.0
 40
1.0
 40
1.0
 40
1.0
 10
4.9547
 20
16.7975
 30
0.0
 10
4.9547
 20
16.7975
 30
0.0
 10
4.9547
 20
16.559
 30
0.0
 10
4.9547
 20
16.559
 30
0.0
 10
4.9547
 20
16.559
 30
0.0
 10
4.9547
 20
16.559
 30
0.0
 10
3.6193
 20
16.559
 30
0.0
 10
3.6193
 20
16.559
 30
0.0
 10
3.6193
 20
16.559
 30
0.0
 10
3.6174
 20
16.6187
 30
0.0
 10
3.6268
 20
16.6761
 30
0.0
 10
3.648
 20
16.7312
 30
0.0
 10
3.648
 20
16.7312
 30
0.0
 10
3.6819
 20
16.8224
 30
0.0
 10
3.7364
 20
16.9118
 30
0.0
 10
3.8112
 20
17.0002
 30
0.0
 10
3.8112
 20
17.0002
 30
0.0
 10
3.8865
 20
17.0882
 30
0.0
 10
3.9947
 20
17.1902
 30
0.0
 10
4.1358
 20
17.3059
 30
0.0
 10
4.1358
 20
17.3059
 30
0.0
 10
4.3554
 20
17.4861
 30
0.0
 10
4.5041
 20
17.6286
 30
0.0
 10
4.5812
 20
17.734
 30
0.0
 10
4.5812
 20
17.734
 30
0.0
 10
4.6583
 20
17.8389
 30
0.0
 10
4.6969
 20
17.9386
 30
0.0
 10
4.6969
 20
18.0322
 30
0.0
 10
4.6969
 20
18.0322
 30
0.0
 10
4.6969
 20
18.1305
 30
0.0
 10
4.6616
 20
18.2133
 30
0.0
 10
4.5916
 20
18.281
 30
0.0
 10
4.5916
 20
18.281
 30
0.0
 10
4.521
 20
18.3483
 30
0.0
 10
4.4293
 20
18.3821
 30
0.0
 10
4.3164
 20
18.3821
 30
0.0
 10
4.3164
 20
18.3821
 30
0.0
 10
4.1969
 20
18.3821
 30
0.0
 10
4.1014
 20
18.3464
 30
0.0
 10
4.0299
 20
18.2744
 30
0.0
 10
4.0299
 20
18.2744
 30
0.0
 10
3.958
 20
18.2029
 30
0.0
 10
3.9218
 20
18.1037
 30
0.0
 10
3.9208
 20
17.9772
 30
0.0
 10
3.9208
 20
17.9772
 30
0.0
 10
3.9208
 20
17.9772
 30
0.0
 10
3.6659
 20
18.003
 30
0.0
 10
3.6659
 20
18.003
 30
0.0
 10
3.6659
 20
18.003
 30
0.0
 10
3.6833
 20
18.1935
 30
0.0
 10
3.7491
 20
18.3384
 30
0.0
 10
3.863
 20
18.4381
 30
0.0
 10
3.863
 20
18.4381
 30
0.0
 10
3.9768
 20
18.5378
 30
0.0
 10
4.1301
 20
18.5877
 30
0.0
 10
4.322
 20
18.5877
 30
0.0
 10
4.322
 20
18.5877
 30
0.0
 10
4.5158
 20
18.5877
 30
0.0
 10
4.6692
 20
18.5336
 30
0.0
 10
4.7821
 20
18.4264
 30
0.0
 10
4.7821
 20
18.4264
 30
0.0
 10
4.8954
 20
18.3186
 30
0.0
 10
4.9519
 20
18.1855
 30
0.0
 10
4.9519
 20
18.0265
 30
0.0
 10
4.9519
 20
18.0265
 30
0.0
 10
4.9519
 20
17.9456
 30
0.0
 10
4.9354
 20
17.8661
 30
0.0
 10
4.902
 20
17.7881
 30
0.0
 10
4.902
 20
17.7881
 30
0.0
 10
4.8691
 20
17.71
 30
0.0
 10
4.814
 20
17.6277
 30
0.0
 10
4.7374
 20
17.5416
 30
0.0
 10
4.7374
 20
17.5416
 30
0.0
 10
4.6607
 20
17.455
 30
0.0
 10
4.5332
 20
17.3365
 30
0.0
 10
4.355
 20
17.186
 30
0.0
 10
4.355
 20
17.186
 30
0.0
 10
4.2063
 20
17.0609
 30
0.0
 10
4.1108
 20
16.9762
 30
0.0
 10
4.0685
 20
16.9315
 30
0.0
 10
4.0685
 20
16.9315
 30
0.0
 10
4.0262
 20
16.8873
 30
0.0
 10
3.9914
 20
16.8426
 30
0.0
 10
3.9636
 20
16.7975
 30
0.0
 10
3.9636
 20
16.7975
 30
0.0
 10
3.9636
 20
16.7975
 30
0.0
 10
4.9547
 20
16.7975
 30
0.0
 10
4.9547
 20
16.7975
 30
0.0
  0
SPLINE
  5
9B
330
1F
100
AcDbEntity
  8
ROUND
 62
   250
100
AcDbSpline
210
0.0
220
0.0
230
1.0
 70
    11
 71
     3
 72
    80
 73
    76
 74
     0
 42
0.0000000001
 43
0.0000000001
 40
0.0
 40
0.0
 40
0.0
 40
0.0
 40
0.05
 40
0.05
 40
0.05
 40
0.05
 40
0.1
 40
0.1
 40
0.1
 40
0.1
 40
0.15
 40
0.15
 40
0.15
 40
0.15
 40
0.2
 40
0.2
 40
0.2
 40
0.2
 40
0.25
 40
0.25
 40
0.25
 40
0.25
 40
0.3
 40
0.3
 40
0.3
 40
0.3
 40
0.35
 40
0.35
 40
0.35
 40
0.35
 40
0.4
 40
0.4
 40
0.4
 40
0.4
 40
0.45
 40
0.45
 40
0.45
 40
0.45
 40
0.5
 40
0.5
 40
0.5
 40
0.5
 40
0.55
 40
0.55
 40
0.55
 40
0.55
 40
0.6
 40
0.6
 40
0.6
 40
0.6
 40
0.65
 40
0.65
 40
0.65
 40
0.65
 40
0.7
 40
0.7
 40
0.7
 40
0.7
 40
0.75
 40
0.75
 40
0.75
 40
0.75
 40
0.8
 40
0.8
 40
0.8
 40
0.8
 40
0.85
 40
0.85
 40
0.85
 40
0.85
 40
0.9
 40
0.9
 40
0.9
 40
0.9
 40
1.0
 40
1.0
 40
1.0
 40
1.0
 10
6.5073
 20
18.0844
 30
0.0
 10
6.5073
 20
18.0844
 30
0.0
 10
6.2609
 20
18.0651
 30
0.0
 10
6.2609
 20
18.0651
 30
0.0
 10
6.2609
 20
18.0651
 30
0.0
 10
6.2388
 20
18.1625
 30
0.0
 10
6.2077
 20
18.2335
 30
0.0
 10
6.1673
 20
18.2772
 30
0.0
 10
6.1673
 20
18.2772
 30
0.0
 10
6.1
 20
18.3483
 30
0.0
 10
6.0172
 20
18.3836
 30
0.0
 10
5.9189
 20
18.3836
 30
0.0
 10
5.9189
 20
18.3836
 30
0.0
 10
5.8399
 20
18.3836
 30
0.0
 10
5.7708
 20
18.3614
 30
0.0
 10
5.711
 20
18.3172
 30
0.0
 10
5.711
 20
18.3172
 30
0.0
 10
5.6329
 20
18.2603
 30
0.0
 10
5.5713
 20
18.1771
 30
0.0
 10
5.5262
 20
18.0679
 30
0.0
 10
5.5262
 20
18.0679
 30
0.0
 10
5.4815
 20
17.9588
 30
0.0
 10
5.458
 20
17.8031
 30
0.0
 10
5.4561
 20
17.6009
 30
0.0
 10
5.4561
 20
17.6009
 30
0.0
 10
5.5158
 20
17.6916
 30
0.0
 10
5.5887
 20
17.7594
 30
0.0
 10
5.6753
 20
17.8036
 30
0.0
 10
5.6753
 20
17.8036
 30
0.0
 10
5.7613
 20
17.8473
 30
0.0
 10
5.8521
 20
17.8694
 30
0.0
 10
5.9467
 20
17.8694
 30
0.0
 10
5.9467
 20
17.8694
 30
0.0
 10
6.1122
 20
17.8694
 30
0.0
 10
6.2529
 20
17.8088
 30
0.0
 10
6.3691
 20
17.6869
 30
0.0
 10
6.3691
 20
17.6869
 30
0.0
 10
6.4852
 20
17.5651
 30
0.0
 10
6.5436
 20
17.408
 30
0.0
 10
6.5436
 20
17.2152
 30
0.0
 10
6.5436
 20
17.2152
 30
0.0
 10
6.5436
 20
17.0882
 30
0.0
 10
6.5158
 20
16.9706
 30
0.0
 10
6.4612
 20
16.8614
 30
0.0
 10
6.4612
 20
16.8614
 30
0.0
 10
6.4067
 20
16.7528
 30
0.0
 10
6.3314
 20
16.6691
 30
0.0
 10
6.2359
 20
16.6112
 30
0.0
 10
6.2359
 20
16.6112
 30
0.0
 10
6.1405
 20
16.5534
 30
0.0
 10
6.0323
 20
16.5247
 30
0.0
 10
5.9109
 20
16.5247
 30
0.0
 10
5.9109
 20
16.5247
 30
0.0
 10
5.704
 20
16.5247
 30
0.0
 10
5.5356
 20
16.6004
 30
0.0
 10
5.4053
 20
16.7528
 30
0.0
 10
5.4053
 20
16.7528
 30
0.0
 10
5.2745
 20
16.9047
 30
0.0
 10
5.2096
 20
17.1554
 30
0.0
 10
5.2096
 20
17.5044
 30
0.0
 10
5.2096
 20
17.5044
 30
0.0
 10
5.2096
 20
17.8948
 30
0.0
 10
5.2816
 20
18.1785
 30
0.0
 10
5.426
 20
18.3558
 30
0.0
 10
5.426
 20
18.3558
 30
0.0
 10
5.5516
 20
18.5101
 30
0.0
 10
5.7209
 20
18.5877
 30
0.0
 10
5.9344
 20
18.5877
 30
0.0
 10
5.9344
 20
18.5877
 30
0.0
 10
6.093
 20
18.5877
 30
0.0
 10
6.2232
 20
18.543
 30
0.0
 10
6.3248
 20
18.4536
 30
0.0
 10
6.3248
 20
18.4536
 30
0.0
 10
6.4264
 20
18.3647
 30
0.0
 10
6.4871
 20
18.2415
 30
0.0
 10
6.5073
 20
18.0844
 30
0.0
  0
SPLINE
  5
9C
330
1F
100
AcDbEntity
  8
ROUND
 62
   250
100
AcDbSpline
210
0.0
220
0.0
230
1.0
 70
    11
 71
     3
 72
    40
 73
    36
 74
     0
 42
0.0000000001
 43
0.0000000001
 40
0.0
 40
0.0
 40
0.0
 40
0.0
 40
0.1
 40
0.1
 40
0.1
 40
0.1
 40
0.2
 40
0.2
 40
0.2
 40
0.2
 40
0.3
 40
0.3
 40
0.3
 40
0.3
 40
0.4
 40
0.4
 40
0.4
 40
0.4
 40
0.5
 40
0.5
 40
0.5
 40
0.5
 40
0.6
 40
0.6
 40
0.6
 40
0.6
 40
0.7
 40
0.7
 40
0.7
 40
0.7
 40
0.8
 40
0.8
 40
0.8
 40
0.8
 40
1.0
 40
1.0
 40
1.0
 40
1.0
 10
5.4946
 20
17.2138
 30
0.0
 10
5.4946
 20
17.1281
 30
0.0
 10
5.513
 20
17.0463
 30
0.0
 10
5.5492
 20
16.9682
 30
0.0
 10
5.5492
 20
16.9682
 30
0.0
 10
5.5854
 20
16.8901
 30
0.0
 10
5.6362
 20
16.8309
 30
0.0
 10
5.7011
 20
16.79
 30
0.0
 10
5.7011
 20
16.79
 30
0.0
 10
5.7665
 20
16.749
 30
0.0
 10
5.8352
 20
16.7283
 30
0.0
 10
5.9067
 20
16.7283
 30
0.0
 10
5.9067
 20
16.7283
 30
0.0
 10
6.0116
 20
16.7283
 30
0.0
 10
6.1014
 20
16.7707
 30
0.0
 10
6.1767
 20
16.8553
 30
0.0
 10
6.1767
 20
16.8553
 30
0.0
 10
6.2519
 20
16.94
 30
0.0
 10
6.2896
 20
17.0548
 30
0.0
 10
6.2896
 20
17.1996
 30
0.0
 10
6.2896
 20
17.1996
 30
0.0
 10
6.2896
 20
17.3393
 30
0.0
 10
6.2524
 20
17.4494
 30
0.0
 10
6.1781
 20
17.5298
 30
0.0
 10
6.1781
 20
17.5298
 30
0.0
 10
6.1038
 20
17.6103
 30
0.0
 10
6.0102
 20
17.6503
 30
0.0
 10
5.8973
 20
17.6503
 30
0.0
 10
5.8973
 20
17.6503
 30
0.0
 10
5.7849
 20
17.6503
 30
0.0
 10
5.6898
 20
17.6103
 30
0.0
 10
5.6118
 20
17.5298
 30
0.0
 10
5.6118
 20
17.5298
 30
0.0
 10
5.5337
 20
17.4494
 30
0.0
 10
5.4946
 20
17.344
 30
0.0
 10
5.4946
 20
17.2138
 30
0.0
  0
SPLINE
  5
9D
330
1F
100
AcDbEntity
  8
ROUND
 62
   250
100
AcDbSpline
210
0.0
220
0.0
230
1.0
 70
    11
 71
     3
 72
    92
 73
    88
 74
     0
 42
0.0000000001
 43
0.0000000001
 40
0.0
 40
0.0
 40
0.0
 40
0.0
 40
0.0434782608695652
 40
0.0434782608695652
 40
0.0434782608695652
 40
0.0434782608695652
 40
0.0869565217391304
 40
0.0869565217391304
 40
0.0869565217391304
 40
0.0869565217391304
 40
0.1304347826086956
 40
0.1304347826086956
 40
0.1304347826086956
 40
0.1304347826086956
 40
0.1739130434782609
 40
0.1739130434782609
 40
0.1739130434782609
 40
0.1739130434782609
 40
0.2173913043478261
 40
0.2173913043478261
 40
0.2173913043478261
 40
0.2173913043478261
 40
0.2608695652173913
 40
0.2608695652173913
 40
0.2608695652173913
 40
0.2608695652173913
 40
0.3043478260869565
 40
0.3043478260869565
 40
0.3043478260869565
 40
0.3043478260869565
 40
0.3478260869565217
 40
0.3478260869565217
 40
0.3478260869565217
 40
0.3478260869565217
 40
0.391304347826087
 40
0.391304347826087
 40
0.391304347826087
 40
0.391304347826087
 40
0.4347826086956522
 40
0.4347826086956522
 40
0.4347826086956522
 40
0.4347826086956522
 40
0.4782608695652174
 40
0.4782608695652174
 40
0.4782608695652174
 40
0.4782608695652174
 40
0.5217391304347826
 40
0.5217391304347826
 40
0.5217391304347826
 40
0.5217391304347826
 40
0.5652173913043478
 40
0.5652173913043478
 40
0.5652173913043478
 40
0.5652173913043478
 40
0.6086956521739131
 40
0.6086956521739131
 40
0.6086956521739131
 40
0.6086956521739131
 40
0.6521739130434783
 40
0.6521739130434783
 40
0.6521739130434783
 40
0.6521739130434783
 40
0.6956521739130435
 40
0.6956521739130435
 40
0.6956521739130435
 40
0.6956521739130435
 40
0.7391304347826086
 40
0.7391304347826086
 40
0.7391304347826086
 40
0.7391304347826086
 40
0.782608695652174
 40
0.782608695652174
 40
0.782608695652174
 40
0.782608695652174
 40
0.8260869565217391
 40
0.8260869565217391
 40
0.8260869565217391
 40
0.8260869565217391
 40
0.8695652173913043
 40
0.8695652173913043
 40
0.8695652173913043
 40
0.8695652173913043
 40
0.9130434782608695
 40
0.9130434782608695
 40
0.9130434782608695
 40
0.9130434782608695
 40
1.0
 40
1.0
 40
1.0
 40
1.0
 10
6.79
 20
17.0882
 30
0.0
 10
6.79
 20
17.0882
 30
0.0
 10
7.0506
 20
17.1103
 30
0.0
 10
7.0506
 20
17.1103
 30
0.0
 10
7.0506
 20
17.1103
 30
0.0
 10
7.0699
 20
16.9833
 30
0.0
 10
7.1146
 20
16.8883
 30
0.0
 10
7.1847
 20
16.8243
 30
0.0
 10
7.1847
 20
16.8243
 30
0.0
 10
7.2552
 20
16.7603
 30
0.0
 10
7.3399
 20
16.7283
 30
0.0
 10
7.4391
 20
16.7283
 30
0.0
 10
7.4391
 20
16.7283
 30
0.0
 10
7.5586
 20
16.7283
 30
0.0
 10
7.6597
 20
16.7735
 30
0.0
 10
7.742
 20
16.8633
 30
0.0
 10
7.742
 20
16.8633
 30
0.0
 10
7.8248
 20
16.9536
 30
0.0
 10
7.8662
 20
17.0731
 30
0.0
 10
7.8662
 20
17.2217
 30
0.0
 10
7.8662
 20
17.2217
 30
0.0
 10
7.8662
 20
17.3633
 30
0.0
 10
7.8267
 20
17.4748
 30
0.0
 10
7.7472
 20
17.5566
 30
0.0
 10
7.7472
 20
17.5566
 30
0.0
 10
7.6677
 20
17.6385
 30
0.0
 10
7.5638
 20
17.6794
 30
0.0
 10
7.4349
 20
17.6794
 30
0.0
 10
7.4349
 20
17.6794
 30
0.0
 10
7.3549
 20
17.6794
 30
0.0
 10
7.283
 20
17.6611
 30
0.0
 10
7.2185
 20
17.6249
 30
0.0
 10
7.2185
 20
17.6249
 30
0.0
 10
7.1541
 20
17.5886
 30
0.0
 10
7.1038
 20
17.5416
 30
0.0
 10
7.0671
 20
17.4837
 30
0.0
 10
7.0671
 20
17.4837
 30
0.0
 10
7.0671
 20
17.4837
 30
0.0
 10
6.8342
 20
17.5138
 30
0.0
 10
6.8342
 20
17.5138
 30
0.0
 10
6.8342
 20
17.5138
 30
0.0
 10
6.8342
 20
17.5138
 30
0.0
 10
7.0299
 20
18.5515
 30
0.0
 10
7.0299
 20
18.5515
 30
0.0
 10
7.0299
 20
18.5515
 30
0.0
 10
7.0299
 20
18.5515
 30
0.0
 10
8.0346
 20
18.5515
 30
0.0
 10
8.0346
 20
18.5515
 30
0.0
 10
8.0346
 20
18.5515
 30
0.0
 10
8.0346
 20
18.5515
 30
0.0
 10
8.0346
 20
18.3144
 30
0.0
 10
8.0346
 20
18.3144
 30
0.0
 10
8.0346
 20
18.3144
 30
0.0
 10
8.0346
 20
18.3144
 30
0.0
 10
7.2284
 20
18.3144
 30
0.0
 10
7.2284
 20
18.3144
 30
0.0
 10
7.2284
 20
18.3144
 30
0.0
 10
7.2284
 20
18.3144
 30
0.0
 10
7.1193
 20
17.7716
 30
0.0
 10
7.1193
 20
17.7716
 30
0.0
 10
7.1193
 20
17.7716
 30
0.0
 10
7.2406
 20
17.8563
 30
0.0
 10
7.3681
 20
17.8986
 30
0.0
 10
7.5012
 20
17.8986
 30
0.0
 10
7.5012
 20
17.8986
 30
0.0
 10
7.6776
 20
17.8986
 30
0.0
 10
7.8262
 20
17.8375
 30
0.0
 10
7.9476
 20
17.7152
 30
0.0
 10
7.9476
 20
17.7152
 30
0.0
 10
8.0689
 20
17.5929
 30
0.0
 10
8.1296
 20
17.4358
 30
0.0
 10
8.1296
 20
17.2439
 30
0.0
 10
8.1296
 20
17.2439
 30
0.0
 10
8.1296
 20
17.0609
 30
0.0
 10
8.076
 20
16.9028
 30
0.0
 10
7.9697
 20
16.7697
 30
0.0
 10
7.9697
 20
16.7697
 30
0.0
 10
7.8399
 20
16.6065
 30
0.0
 10
7.663
 20
16.5247
 30
0.0
 10
7.4391
 20
16.5247
 30
0.0
 10
7.4391
 20
16.5247
 30
0.0
 10
7.2552
 20
16.5247
 30
0.0
 10
7.1052
 20
16.5759
 30
0.0
 10
6.989
 20
16.6789
 30
0.0
 10
6.989
 20
16.6789
 30
0.0
 10
6.8728
 20
16.782
 30
0.0
 10
6.8065
 20
16.9184
 30
0.0
 10
6.79
 20
17.0882
 30
0.0
  0
SPLINE
  5
9E
330
1F
100
AcDbEntity
  8
ROUND
 62
   250
100
AcDbSpline
210
0.0
220
0.0
230
1.0
 70
    11
 71
     3
 72
    20
 73
    16
 74
     0
 42
0.0000000001
 43
0.0000000001
 40
0.0
 40
0.0
 40
0.0
 40
0.0
 40
0.2
 40
0.2
 40
0.2
 40
0.2
 40
0.4
 40
0.4
 40
0.4
 40
0.4
 40
0.6
 40
0.6
 40
0.6
 40
0.6
 40
1.0
 40
1.0
 40
1.0
 40
1.0
 10
-34.8446
 20
-11.7927
 30
0.0
 10
-34.8446
 20
-11.7927
 30
0.0
 10
-34.4212
 20
-8.7927
 30
0.0
 10
-34.4212
 20
-8.7927
 30
0.0
 10
-34.4212
 20
-8.7927
 30
0.0
 10
-34.4212
 20
-8.7927
 30
0.0
 10
-34.3271
 20
-8.7927
 30
0.0
 10
-34.3271
 20
-8.7927
 30
0.0
 10
-34.3271
 20
-8.7927
 30
0.0
 10
-34.3271
 20
-8.7927
 30
0.0
 10
-33.8756
 20
-11.7927
 30
0.0
 10
-33.8756
 20
-11.7927
 30
0.0
 10
-33.8756
 20
-11.7927
 30
0.0
 10
-33.8756
 20
-11.7927
 30
0.0
 10
-34.8446
 20
-11.7927
 30
0.0
 10
-34.8446
 20
-11.7927
 30
0.0
  0
SPLINE
  5
9F
330
1F
100
AcDbEntity
  8
ROUND
 62
   250
100
AcDbSpline
210
0.0
220
0.0
230
1.0
 70
    11
 71
     3
 72
    20
 73
    16
 74
     0
 42
0.0000000001
 43
0.0000000001
 40
0.0
 40
0.0
 40
0.0
 40
0.0
 40
0.2
 40
0.2
 40
0.2
 40
0.2
 40
0.4
 40
0.4
 40
0.4
 40
0.4
 40
0.6
 40
0.6
 40
0.6
 40
0.6
 40
1.0
 40
1.0
 40
1.0
 40
1.0
 10
-33.8813
 20
-21.2965
 30
0.0
 10
-33.8813
 20
-21.2965
 30
0.0
 10
-34.3047
 20
-24.2966
 30
0.0
 10
-34.3047
 20
-24.2966
 30
0.0
 10
-34.3047
 20
-24.2966
 30
0.0
 10
-34.3047
 20
-24.2966
 30
0.0
 10
-34.3987
 20
-24.2966
 30
0.0
 10
-34.3987
 20
-24.2966
 30
0.0
 10
-34.3987
 20
-24.2966
 30
0.0
 10
-34.3987
 20
-24.2966
 30
0.0
 10
-34.8503
 20
-21.2965
 30
0.0
 10
-34.8503
 20
-21.2965
 30
0.0
 10
-34.8503
 20
-21.2965
 30
0.0
 10
-34.8503
 20
-21.2965
 30
0.0
 10
-33.8813
 20
-21.2965
 30
0.0
 10
-33.8813
 20
-21.2965
 30
0.0
  0
SPLINE
  5
A0
330
1F
100
AcDbEntity
  8
ROUND
 62
   250
100
AcDbSpline
210
0.0
220
0.0
230
1.0
 70
    11
 71
     3
 72
    48
 73
    44
 74
     0
 42
0.0000000001
 43
0.0000000001
 40
0.0
 40
0.0
 40
0.0
 40
0.0
 40
0.0833333333333333
 40
0.0833333333333333
 40
0.0833333333333333
 40
0.0833333333333333
 40
0.1666666666666667
 40
0.1666666666666667
 40
0.1666666666666667
 40
0.1666666666666667
 40
0.25
 40
0.25
 40
0.25
 40
0.25
 40
0.3333333333333333
 40
0.3333333333333333
 40
0.3333333333333333
 40
0.3333333333333333
 40
0.4166666666666667
 40
0.4166666666666667
 40
0.4166666666666667
 40
0.4166666666666667
 40
0.5
 40
0.5
 40
0.5
 40
0.5
 40
0.5833333333333334
 40
0.5833333333333334
 40
0.5833333333333334
 40
0.5833333333333334
 40
0.6666666666666666
 40
0.6666666666666666
 40
0.6666666666666666
 40
0.6666666666666666
 40
0.75
 40
0.75
 40
0.75
 40
0.75
 40
0.8333333333333334
 40
0.8333333333333334
 40
0.8333333333333334
 40
0.8333333333333334
 40
1.0
 40
1.0
 40
1.0
 40
1.0
 10
-36.6516
 20
-17.7972
 30
0.0
 10
-36.6516
 20
-17.7972
 30
0.0
 10
-36.8901
 20
-17.7972
 30
0.0
 10
-36.8901
 20
-17.7972
 30
0.0
 10
-36.8901
 20
-17.7972
 30
0.0
 10
-36.8901
 20
-17.7972
 30
0.0
 10
-36.8901
 20
-16.4896
 30
0.0
 10
-36.8901
 20
-16.4896
 30
0.0
 10
-36.8901
 20
-16.4896
 30
0.0
 10
-36.8901
 20
-16.4896
 30
0.0
 10
-36.6972
 20
-16.4896
 30
0.0
 10
-36.6972
 20
-16.4896
 30
0.0
 10
-36.6972
 20
-16.4896
 30
0.0
 10
-36.5604
 20
-16.618
 30
0.0
 10
-36.3783
 20
-16.7455
 30
0.0
 10
-36.1516
 20
-16.872
 30
0.0
 10
-36.1516
 20
-16.872
 30
0.0
 10
-35.9249
 20
-16.9981
 30
0.0
 10
-35.6911
 20
-17.0959
 30
0.0
 10
-35.4517
 20
-17.1646
 30
0.0
 10
-35.4517
 20
-17.1646
 30
0.0
 10
-35.2824
 20
-17.2144
 30
0.0
 10
-35.0975
 20
-17.2459
 30
0.0
 10
-34.8962
 20
-17.2596
 30
0.0
 10
-34.8962
 20
-17.2596
 30
0.0
 10
-34.8962
 20
-17.2596
 30
0.0
 10
-34.8962
 20
-17.5145
 30
0.0
 10
-34.8962
 20
-17.5145
 30
0.0
 10
-34.8962
 20
-17.5145
 30
0.0
 10
-35.0552
 20
-17.5117
 30
0.0
 10
-35.2471
 20
-17.4807
 30
0.0
 10
-35.4724
 20
-17.4209
 30
0.0
 10
-35.4724
 20
-17.4209
 30
0.0
 10
-35.6972
 20
-17.3612
 30
0.0
 10
-35.9145
 20
-17.2756
 30
0.0
 10
-36.1234
 20
-17.1641
 30
0.0
 10
-36.1234
 20
-17.1641
 30
0.0
 10
-36.3322
 20
-17.0522
 30
0.0
 10
-36.5086
 20
-16.9336
 30
0.0
 10
-36.6516
 20
-16.8076
 30
0.0
 10
-36.6516
 20
-16.8076
 30
0.0
 10
-36.6516
 20
-16.8076
 30
0.0
 10
-36.6516
 20
-17.7972
 30
0.0
 10
-36.6516
 20
-17.7972
 30
0.0
  0
SPLINE
  5
A1
330
1F
100
AcDbEntity
  8
ROUND
 62
   250
100
AcDbSpline
210
0.0
220
0.0
230
1.0
 70
    11
 71
     3
 72
    92
 73
    88
 74
     0
 42
0.0000000001
 43
0.0000000001
 40
0.0
 40
0.0
 40
0.0
 40
0.0
 40
0.0434782608695652
 40
0.0434782608695652
 40
0.0434782608695652
 40
0.0434782608695652
 40
0.0869565217391304
 40
0.0869565217391304
 40
0.0869565217391304
 40
0.0869565217391304
 40
0.1304347826086956
 40
0.1304347826086956
 40
0.1304347826086956
 40
0.1304347826086956
 40
0.1739130434782609
 40
0.1739130434782609
 40
0.1739130434782609
 40
0.1739130434782609
 40
0.2173913043478261
 40
0.2173913043478261
 40
0.2173913043478261
 40
0.2173913043478261
 40
0.2608695652173913
 40
0.2608695652173913
 40
0.2608695652173913
 40
0.2608695652173913
 40
0.3043478260869565
 40
0.3043478260869565
 40
0.3043478260869565
 40
0.3043478260869565
 40
0.3478260869565217
 40
0.3478260869565217
 40
0.3478260869565217
 40
0.3478260869565217
 40
0.391304347826087
 40
0.391304347826087
 40
0.391304347826087
 40
0.391304347826087
 40
0.4347826086956522
 40
0.4347826086956522
 40
0.4347826086956522
 40
0.4347826086956522
 40
0.4782608695652174
 40
0.4782608695652174
 40
0.4782608695652174
 40
0.4782608695652174
 40
0.5217391304347826
 40
0.5217391304347826
 40
0.5217391304347826
 40
0.5217391304347826
 40
0.5652173913043478
 40
0.5652173913043478
 40
0.5652173913043478
 40
0.5652173913043478
 40
0.6086956521739131
 40
0.6086956521739131
 40
0.6086956521739131
 40
0.6086956521739131
 40
0.6521739130434783
 40
0.6521739130434783
 40
0.6521739130434783
 40
0.6521739130434783
 40
0.6956521739130435
 40
0.6956521739130435
 40
0.6956521739130435
 40
0.6956521739130435
 40
0.7391304347826086
 40
0.7391304347826086
 40
0.7391304347826086
 40
0.7391304347826086
 40
0.782608695652174
 40
0.782608695652174
 40
0.782608695652174
 40
0.782608695652174
 40
0.8260869565217391
 40
0.8260869565217391
 40
0.8260869565217391
 40
0.8260869565217391
 40
0.8695652173913043
 40
0.8695652173913043
 40
0.8695652173913043
 40
0.8695652173913043
 40
0.9130434782608695
 40
0.9130434782608695
 40
0.9130434782608695
 40
0.9130434782608695
 40
1.0
 40
1.0
 40
1.0
 40
1.0
 10
-35.1347
 20
-14.9402
 30
0.0
 10
-35.1347
 20
-14.9402
 30
0.0
 10
-34.8962
 20
-14.9402
 30
0.0
 10
-34.8962
 20
-14.9402
 30
0.0
 10
-34.8962
 20
-14.9402
 30
0.0
 10
-34.8962
 20
-14.9402
 30
0.0
 10
-34.8962
 20
-16.2756
 30
0.0
 10
-34.8962
 20
-16.2756
 30
0.0
 10
-34.8962
 20
-16.2756
 30
0.0
 10
-34.9559
 20
-16.2775
 30
0.0
 10
-35.0133
 20
-16.2681
 30
0.0
 10
-35.0684
 20
-16.2469
 30
0.0
 10
-35.0684
 20
-16.2469
 30
0.0
 10
-35.1596
 20
-16.213
 30
0.0
 10
-35.249
 20
-16.1585
 30
0.0
 10
-35.3374
 20
-16.0837
 30
0.0
 10
-35.3374
 20
-16.0837
 30
0.0
 10
-35.4254
 20
-16.0084
 30
0.0
 10
-35.5274
 20
-15.9002
 30
0.0
 10
-35.6431
 20
-15.7591
 30
0.0
 10
-35.6431
 20
-15.7591
 30
0.0
 10
-35.8233
 20
-15.5395
 30
0.0
 10
-35.9658
 20
-15.3908
 30
0.0
 10
-36.0712
 20
-15.3137
 30
0.0
 10
-36.0712
 20
-15.3137
 30
0.0
 10
-36.1761
 20
-15.2366
 30
0.0
 10
-36.2758
 20
-15.198
 30
0.0
 10
-36.3694
 20
-15.198
 30
0.0
 10
-36.3694
 20
-15.198
 30
0.0
 10
-36.4677
 20
-15.198
 30
0.0
 10
-36.5505
 20
-15.2333
 30
0.0
 10
-36.6182
 20
-15.3033
 30
0.0
 10
-36.6182
 20
-15.3033
 30
0.0
 10
-36.6855
 20
-15.3739
 30
0.0
 10
-36.7193
 20
-15.4656
 30
0.0
 10
-36.7193
 20
-15.5785
 30
0.0
 10
-36.7193
 20
-15.5785
 30
0.0
 10
-36.7193
 20
-15.698
 30
0.0
 10
-36.6836
 20
-15.7935
 30
0.0
 10
-36.6116
 20
-15.865
 30
0.0
 10
-36.6116
 20
-15.865
 30
0.0
 10
-36.5401
 20
-15.9369
 30
0.0
 10
-36.4409
 20
-15.9731
 30
0.0
 10
-36.3144
 20
-15.9741
 30
0.0
 10
-36.3144
 20
-15.9741
 30
0.0
 10
-36.3144
 20
-15.9741
 30
0.0
 10
-36.3402
 20
-16.229
 30
0.0
 10
-36.3402
 20
-16.229
 30
0.0
 10
-36.3402
 20
-16.229
 30
0.0
 10
-36.5307
 20
-16.2116
 30
0.0
 10
-36.6756
 20
-16.1458
 30
0.0
 10
-36.7753
 20
-16.0319
 30
0.0
 10
-36.7753
 20
-16.0319
 30
0.0
 10
-36.875
 20
-15.9181
 30
0.0
 10
-36.9249
 20
-15.7648
 30
0.0
 10
-36.9249
 20
-15.5729
 30
0.0
 10
-36.9249
 20
-15.5729
 30
0.0
 10
-36.9249
 20
-15.3791
 30
0.0
 10
-36.8708
 20
-15.2257
 30
0.0
 10
-36.7636
 20
-15.1128
 30
0.0
 10
-36.7636
 20
-15.1128
 30
0.0
 10
-36.6558
 20
-14.9995
 30
0.0
 10
-36.5227
 20
-14.943
 30
0.0
 10
-36.3637
 20
-14.943
 30
0.0
 10
-36.3637
 20
-14.943
 30
0.0
 10
-36.2828
 20
-14.943
 30
0.0
 10
-36.2033
 20
-14.9595
 30
0.0
 10
-36.1253
 20
-14.9929
 30
0.0
 10
-36.1253
 20
-14.9929
 30
0.0
 10
-36.0472
 20
-15.0258
 30
0.0
 10
-35.9649
 20
-15.0809
 30
0.0
 10
-35.8788
 20
-15.1575
 30
0.0
 10
-35.8788
 20
-15.1575
 30
0.0
 10
-35.7922
 20
-15.2342
 30
0.0
 10
-35.6737
 20
-15.3617
 30
0.0
 10
-35.5232
 20
-15.5399
 30
0.0
 10
-35.5232
 20
-15.5399
 30
0.0
 10
-35.3981
 20
-15.6886
 30
0.0
 10
-35.3134
 20
-15.7841
 30
0.0
 10
-35.2687
 20
-15.8264
 30
0.0
 10
-35.2687
 20
-15.8264
 30
0.0
 10
-35.2245
 20
-15.8687
 30
0.0
 10
-35.1798
 20
-15.9035
 30
0.0
 10
-35.1347
 20
-15.9313
 30
0.0
 10
-35.1347
 20
-15.9313
 30
0.0
 10
-35.1347
 20
-15.9313
 30
0.0
 10
-35.1347
 20
-14.9402
 30
0.0
 10
-35.1347
 20
-14.9402
 30
0.0
  0
SPLINE
  5
A2
330
1F
100
AcDbEntity
  8
ROUND
 62
   250
100
AcDbSpline
210
0.0
220
0.0
230
1.0
 70
    11
 71
     3
 72
    20
 73
    16
 74
     0
 42
0.0000000001
 43
0.0000000001
 40
0.0
 40
0.0
 40
0.0
 40
0.0
 40
0.2
 40
0.2
 40
0.2
 40
0.2
 40
0.4
 40
0.4
 40
0.4
 40
0.4
 40
0.6
 40
0.6
 40
0.6
 40
0.6
 40
1.0
 40
1.0
 40
1.0
 40
1.0
 10
-3.7018
 20
-15.2283
 30
0.0
 10
-3.7018
 20
-15.2283
 30
0.0
 10
-3.2784
 20
-12.2282
 30
0.0
 10
-3.2784
 20
-12.2282
 30
0.0
 10
-3.2784
 20
-12.2282
 30
0.0
 10
-3.2784
 20
-12.2282
 30
0.0
 10
-3.1843
 20
-12.2282
 30
0.0
 10
-3.1843
 20
-12.2282
 30
0.0
 10
-3.1843
 20
-12.2282
 30
0.0
 10
-3.1843
 20
-12.2282
 30
0.0
 10
-2.7328
 20
-15.2283
 30
0.0
 10
-2.7328
 20
-15.2283
 30
0.0
 10
-2.7328
 20
-15.2283
 30
0.0
 10
-2.7328
 20
-15.2283
 30
0.0
 10
-3.7018
 20
-15.2283
 30
0.0
 10
-3.7018
 20
-15.2283
 30
0.0
  0
SPLINE
  5
A3
330
1F
100
AcDbEntity
  8
ROUND
 62
   250
100
AcDbSpline
210
0.0
220
0.0
230
1.0
 70
    11
 71
     3
 72
    20
 73
    16
 74
     0
 42
0.0000000001
 43
0.0000000001
 40
0.0
 40
0.0
 40
0.0
 40
0.0
 40
0.2
 40
0.2
 40
0.2
 40
0.2
 40
0.4
 40
0.4
 40
0.4
 40
0.4
 40
0.6
 40
0.6
 40
0.6
 40
0.6
 40
1.0
 40
1.0
 40
1.0
 40
1.0
 10
-2.7505
 20
-1.9324
 30
0.0
 10
-2.7505
 20
-1.9324
 30
0.0
 10
-3.1739
 20
-4.9324
 30
0.0
 10
-3.1739
 20
-4.9324
 30
0.0
 10
-3.1739
 20
-4.9324
 30
0.0
 10
-3.1739
 20
-4.9324
 30
0.0
 10
-3.2679
 20
-4.9324
 30
0.0
 10
-3.2679
 20
-4.9324
 30
0.0
 10
-3.2679
 20
-4.9324
 30
0.0
 10
-3.2679
 20
-4.9324
 30
0.0
 10
-3.7195
 20
-1.9324
 30
0.0
 10
-3.7195
 20
-1.9324
 30
0.0
 10
-3.7195
 20
-1.9324
 30
0.0
 10
-3.7195
 20
-1.9324
 30
0.0
 10
-2.7505
 20
-1.9324
 30
0.0
 10
-2.7505
 20
-1.9324
 30
0.0
  0
SPLINE
  5
A4
330
1F
100
AcDbEntity
  8
ROUND
 62
   250
100
AcDbSpline
210
0.0
220
0.0
230
1.0
 70
    11
 71
     3
 72
    84
 73
    80
 74
     0
 42
0.0000000001
 43
0.0000000001
 40
0.0
 40
0.0
 40
0.0
 40
0.0
 40
0.0476190476190476
 40
0.0476190476190476
 40
0.0476190476190476
 40
0.0476190476190476
 40
0.0952380952380952
 40
0.0952380952380952
 40
0.0952380952380952
 40
0.0952380952380952
 40
0.1428571428571428
 40
0.1428571428571428
 40
0.1428571428571428
 40
0.1428571428571428
 40
0.1904761904761905
 40
0.1904761904761905
 40
0.1904761904761905
 40
0.1904761904761905
 40
0.2380952380952381
 40
0.2380952380952381
 40
0.2380952380952381
 40
0.2380952380952381
 40
0.2857142857142857
 40
0.2857142857142857
 40
0.2857142857142857
 40
0.2857142857142857
 40
0.3333333333333333
 40
0.3333333333333333
 40
0.3333333333333333
 40
0.3333333333333333
 40
0.3809523809523809
 40
0.3809523809523809
 40
0.3809523809523809
 40
0.3809523809523809
 40
0.4285714285714285
 40
0.4285714285714285
 40
0.4285714285714285
 40
0.4285714285714285
 40
0.4761904761904762
 40
0.4761904761904762
 40
0.4761904761904762
 40
0.4761904761904762
 40
0.5238095238095238
 40
0.5238095238095238
 40
0.5238095238095238
 40
0.5238095238095238
 40
0.5714285714285714
 40
0.5714285714285714
 40
0.5714285714285714
 40
0.5714285714285714
 40
0.6190476190476191
 40
0.6190476190476191
 40
0.6190476190476191
 40
0.6190476190476191
 40
0.6666666666666666
 40
0.6666666666666666
 40
0.6666666666666666
 40
0.6666666666666666
 40
0.7142857142857143
 40
0.7142857142857143
 40
0.7142857142857143
 40
0.7142857142857143
 40
0.7619047619047619
 40
0.7619047619047619
 40
0.7619047619047619
 40
0.7619047619047619
 40
0.8095238095238095
 40
0.8095238095238095
 40
0.8095238095238095
 40
0.8095238095238095
 40
0.8571428571428571
 40
0.8571428571428571
 40
0.8571428571428571
 40
0.8571428571428571
 40
0.9047619047619048
 40
0.9047619047619048
 40
0.9047619047619048
 40
0.9047619047619048
 40
1.0
 40
1.0
 40
1.0
 40
1.0
 10
-5.918
 20
-17.041
 30
0.0
 10
-5.918
 20
-17.041
 30
0.0
 10
-6.1771
 20
-16.8096
 30
0.0
 10
-6.1771
 20
-16.8096
 30
0.0
 10
-6.1771
 20
-16.8096
 30
0.0
 10
-6.1771
 20
-16.8096
 30
0.0
 10
-6.0614
 20
-16.6732
 30
0.0
 10
-6.0614
 20
-16.6732
 30
0.0
 10
-6.0614
 20
-16.6732
 30
0.0
 10
-6.0614
 20
-16.6732
 30
0.0
 10
-5.7886
 20
-16.9154
 30
0.0
 10
-5.7886
 20
-16.9154
 30
0.0
 10
-5.7886
 20
-16.9154
 30
0.0
 10
-5.671
 20
-16.8364
 30
0.0
 10
-5.568
 20
-16.7833
 30
0.0
 10
-5.4801
 20
-16.7555
 30
0.0
 10
-5.4801
 20
-16.7555
 30
0.0
 10
-5.3643
 20
-16.7188
 30
0.0
 10
-5.2345
 20
-16.7005
 30
0.0
 10
-5.0915
 20
-16.7005
 30
0.0
 10
-5.0915
 20
-16.7005
 30
0.0
 10
-4.8846
 20
-16.7005
 30
0.0
 10
-4.7002
 20
-16.7423
 30
0.0
 10
-4.5389
 20
-16.8261
 30
0.0
 10
-4.5389
 20
-16.8261
 30
0.0
 10
-4.377
 20
-16.9098
 30
0.0
 10
-4.2548
 20
-17.0269
 30
0.0
 10
-4.172
 20
-17.1779
 30
0.0
 10
-4.172
 20
-17.1779
 30
0.0
 10
-4.0897
 20
-17.3294
 30
0.0
 10
-4.0483
 20
-17.4897
 30
0.0
 10
-4.0483
 20
-17.6595
 30
0.0
 10
-4.0483
 20
-17.6595
 30
0.0
 10
-4.0483
 20
-17.7865
 30
0.0
 10
-4.0661
 20
-17.9013
 30
0.0
 10
-4.1019
 20
-18.0043
 30
0.0
 10
-4.1019
 20
-18.0043
 30
0.0
 10
-4.1296
 20
-18.0833
 30
0.0
 10
-4.1823
 20
-18.1755
 30
0.0
 10
-4.2604
 20
-18.2814
 30
0.0
 10
-4.2604
 20
-18.2814
 30
0.0
 10
-4.2604
 20
-18.2814
 30
0.0
 10
-4.0012
 20
-18.5128
 30
0.0
 10
-4.0012
 20
-18.5128
 30
0.0
 10
-4.0012
 20
-18.5128
 30
0.0
 10
-4.0012
 20
-18.5128
 30
0.0
 10
-4.1169
 20
-18.6492
 30
0.0
 10
-4.1169
 20
-18.6492
 30
0.0
 10
-4.1169
 20
-18.6492
 30
0.0
 10
-4.1169
 20
-18.6492
 30
0.0
 10
-4.3883
 20
-18.4065
 30
0.0
 10
-4.3883
 20
-18.4065
 30
0.0
 10
-4.3883
 20
-18.4065
 30
0.0
 10
-4.5252
 20
-18.4968
 30
0.0
 10
-4.6423
 20
-18.557
 30
0.0
 10
-4.7392
 20
-18.5871
 30
0.0
 10
-4.7392
 20
-18.5871
 30
0.0
 10
-4.8361
 20
-18.6172
 30
0.0
 10
-4.9528
 20
-18.6327
 30
0.0
 10
-5.0887
 20
-18.6327
 30
0.0
 10
-5.0887
 20
-18.6327
 30
0.0
 10
-5.2961
 20
-18.6327
 30
0.0
 10
-5.481
 20
-18.5913
 30
0.0
 10
-5.6433
 20
-18.5086
 30
0.0
 10
-5.6433
 20
-18.5086
 30
0.0
 10
-5.8056
 20
-18.4258
 30
0.0
 10
-5.9283
 20
-18.3101
 30
0.0
 10
-6.012
 20
-18.1605
 30
0.0
 10
-6.012
 20
-18.1605
 30
0.0
 10
-6.0953
 20
-18.0114
 30
0.0
 10
-6.1372
 20
-17.8453
 30
0.0
 10
-6.1372
 20
-17.6624
 30
0.0
 10
-6.1372
 20
-17.6624
 30
0.0
 10
-6.1372
 20
-17.5391
 30
0.0
 10
-6.1212
 20
-17.4314
 30
0.0
 10
-6.0882
 20
-17.3392
 30
0.0
 10
-6.0882
 20
-17.3392
 30
0.0
 10
-6.0558
 20
-17.247
 30
0.0
 10
-5.9989
 20
-17.1473
 30
0.0
 10
-5.918
 20
-17.041
 30
0.0
  0
SPLINE
  5
A5
330
1F
100
AcDbEntity
  8
ROUND
 62
   250
100
AcDbSpline
210
0.0
220
0.0
230
1.0
 70
    11
 71
     3
 72
    32
 73
    28
 74
     0
 42
0.0000000001
 43
0.0000000001
 40
0.0
 40
0.0
 40
0.0
 40
0.0
 40
0.125
 40
0.125
 40
0.125
 40
0.125
 40
0.25
 40
0.25
 40
0.25
 40
0.25
 40
0.375
 40
0.375
 40
0.375
 40
0.375
 40
0.5
 40
0.5
 40
0.5
 40
0.5
 40
0.625
 40
0.625
 40
0.625
 40
0.625
 40
0.75
 40
0.75
 40
0.75
 40
0.75
 40
1.0
 40
1.0
 40
1.0
 40
1.0
 10
-5.7322
 20
-17.2061
 30
0.0
 10
-5.7999
 20
-17.2927
 30
0.0
 10
-5.8465
 20
-17.3684
 30
0.0
 10
-5.8714
 20
-17.4328
 30
0.0
 10
-5.8714
 20
-17.4328
 30
0.0
 10
-5.8959
 20
-17.4977
 30
0.0
 10
-5.9086
 20
-17.5739
 30
0.0
 10
-5.9086
 20
-17.661
 30
0.0
 10
-5.9086
 20
-17.661
 30
0.0
 10
-5.9086
 20
-17.8623
 30
0.0
 10
-5.8404
 20
-18.0283
 30
0.0
 10
-5.704
 20
-18.16
 30
0.0
 10
-5.704
 20
-18.16
 30
0.0
 10
-5.5675
 20
-18.2913
 30
0.0
 10
-5.3639
 20
-18.3571
 30
0.0
 10
-5.0925
 20
-18.3571
 30
0.0
 10
-5.0925
 20
-18.3571
 30
0.0
 10
-4.9862
 20
-18.3571
 30
0.0
 10
-4.8916
 20
-18.3468
 30
0.0
 10
-4.8088
 20
-18.3265
 30
0.0
 10
-4.8088
 20
-18.3265
 30
0.0
 10
-4.7472
 20
-18.3119
 30
0.0
 10
-4.6715
 20
-18.2814
 30
0.0
 10
-4.5817
 20
-18.2343
 30
0.0
 10
-4.5817
 20
-18.2343
 30
0.0
 10
-4.5817
 20
-18.2343
 30
0.0
 10
-5.7322
 20
-17.2061
 30
0.0
 10
-5.7322
 20
-17.2061
 30
0.0
  0
SPLINE
  5
A6
330
1F
100
AcDbEntity
  8
ROUND
 62
   250
100
AcDbSpline
210
0.0
220
0.0
230
1.0
 70
    11
 71
     3
 72
    28
 73
    24
 74
     0
 42
0.0000000001
 43
0.0000000001
 40
0.0
 40
0.0
 40
0.0
 40
0.0
 40
0.1428571428571428
 40
0.1428571428571428
 40
0.1428571428571428
 40
0.1428571428571428
 40
0.2857142857142857
 40
0.2857142857142857
 40
0.2857142857142857
 40
0.2857142857142857
 40
0.4285714285714285
 40
0.4285714285714285
 40
0.4285714285714285
 40
0.4285714285714285
 40
0.5714285714285714
 40
0.5714285714285714
 40
0.5714285714285714
 40
0.5714285714285714
 40
0.7142857142857143
 40
0.7142857142857143
 40
0.7142857142857143
 40
0.7142857142857143
 40
1.0
 40
1.0
 40
1.0
 40
1.0
 10
-5.5901
 20
-17.0932
 30
0.0
 10
-5.5901
 20
-17.0932
 30
0.0
 10
-4.4438
 20
-18.1172
 30
0.0
 10
-4.4438
 20
-18.1172
 30
0.0
 10
-4.4438
 20
-18.1172
 30
0.0
 10
-4.386
 20
-18.0467
 30
0.0
 10
-4.3455
 20
-17.9813
 30
0.0
 10
-4.3225
 20
-17.9215
 30
0.0
 10
-4.3225
 20
-17.9215
 30
0.0
 10
-4.2919
 20
-17.8435
 30
0.0
 10
-4.2769
 20
-17.7588
 30
0.0
 10
-4.2769
 20
-17.668
 30
0.0
 10
-4.2769
 20
-17.668
 30
0.0
 10
-4.2769
 20
-17.4676
 30
0.0
 10
-4.3474
 20
-17.3025
 30
0.0
 10
-4.489
 20
-17.1718
 30
0.0
 10
-4.489
 20
-17.1718
 30
0.0
 10
-4.6306
 20
-17.0415
 30
0.0
 10
-4.8291
 20
-16.9761
 30
0.0
 10
-5.0845
 20
-16.9761
 30
0.0
 10
-5.0845
 20
-16.9761
 30
0.0
 10
-5.2754
 20
-16.9761
 30
0.0
 10
-5.4443
 20
-17.0151
 30
0.0
 10
-5.5901
 20
-17.0932
 30
0.0
  0
SPLINE
  5
A7
330
1F
100
AcDbEntity
  8
ROUND
 62
   250
100
AcDbSpline
210
0.0
220
0.0
230
1.0
 70
    11
 71
     3
 72
   124
 73
   120
 74
     0
 42
0.0000000001
 43
0.0000000001
 40
0.0
 40
0.0
 40
0.0
 40
0.0
 40
0.032258064516129
 40
0.032258064516129
 40
0.032258064516129
 40
0.032258064516129
 40
0.0645161290322581
 40
0.0645161290322581
 40
0.0645161290322581
 40
0.0645161290322581
 40
0.0967741935483871
 40
0.0967741935483871
 40
0.0967741935483871
 40
0.0967741935483871
 40
0.1290322580645161
 40
0.1290322580645161
 40
0.1290322580645161
 40
0.1290322580645161
 40
0.1612903225806452
 40
0.1612903225806452
 40
0.1612903225806452
 40
0.1612903225806452
 40
0.1935483870967742
 40
0.1935483870967742
 40
0.1935483870967742
 40
0.1935483870967742
 40
0.2258064516129032
 40
0.2258064516129032
 40
0.2258064516129032
 40
0.2258064516129032
 40
0.2580645161290323
 40
0.2580645161290323
 40
0.2580645161290323
 40
0.2580645161290323
 40
0.2903225806451613
 40
0.2903225806451613
 40
0.2903225806451613
 40
0.2903225806451613
 40
0.3225806451612903
 40
0.3225806451612903
 40
0.3225806451612903
 40
0.3225806451612903
 40
0.3548387096774194
 40
0.3548387096774194
 40
0.3548387096774194
 40
0.3548387096774194
 40
0.3870967741935484
 40
0.3870967741935484
 40
0.3870967741935484
 40
0.3870967741935484
 40
0.4193548387096774
 40
0.4193548387096774
 40
0.4193548387096774
 40
0.4193548387096774
 40
0.4516129032258064
 40
0.4516129032258064
 40
0.4516129032258064
 40
0.4516129032258064
 40
0.4838709677419355
 40
0.4838709677419355
 40
0.4838709677419355
 40
0.4838709677419355
 40
0.5161290322580645
 40
0.5161290322580645
 40
0.5161290322580645
 40
0.5161290322580645
 40
0.5483870967741935
 40
0.5483870967741935
 40
0.5483870967741935
 40
0.5483870967741935
 40
0.5806451612903226
 40
0.5806451612903226
 40
0.5806451612903226
 40
0.5806451612903226
 40
0.6129032258064516
 40
0.6129032258064516
 40
0.6129032258064516
 40
0.6129032258064516
 40
0.6451612903225806
 40
0.6451612903225806
 40
0.6451612903225806
 40
0.6451612903225806
 40
0.6774193548387096
 40
0.6774193548387096
 40
0.6774193548387096
 40
0.6774193548387096
 40
0.7096774193548387
 40
0.7096774193548387
 40
0.7096774193548387
 40
0.7096774193548387
 40
0.7419354838709677
 40
0.7419354838709677
 40
0.7419354838709677
 40
0.7419354838709677
 40
0.7741935483870968
 40
0.7741935483870968
 40
0.7741935483870968
 40
0.7741935483870968
 40
0.8064516129032258
 40
0.8064516129032258
 40
0.8064516129032258
 40
0.8064516129032258
 40
0.8387096774193549
 40
0.8387096774193549
 40
0.8387096774193549
 40
0.8387096774193549
 40
0.8709677419354839
 40
0.8709677419354839
 40
0.8709677419354839
 40
0.8709677419354839
 40
0.9032258064516129
 40
0.9032258064516129
 40
0.9032258064516129
 40
0.9032258064516129
 40
0.9354838709677419
 40
0.9354838709677419
 40
0.9354838709677419
 40
0.9354838709677419
 40
1.0
 40
1.0
 40
1.0
 40
1.0
 10
-4.616
 20
-16.4498
 30
0.0
 10
-4.616
 20
-16.4498
 30
0.0
 10
-4.6489
 20
-16.2019
 30
0.0
 10
-4.6489
 20
-16.2019
 30
0.0
 10
-4.6489
 20
-16.2019
 30
0.0
 10
-4.5083
 20
-16.1732
 30
0.0
 10
-4.4072
 20
-16.1247
 30
0.0
 10
-4.3451
 20
-16.0565
 30
0.0
 10
-4.3451
 20
-16.0565
 30
0.0
 10
-4.283
 20
-15.9879
 30
0.0
 10
-4.2519
 20
-15.9046
 30
0.0
 10
-4.2519
 20
-15.8063
 30
0.0
 10
-4.2519
 20
-15.8063
 30
0.0
 10
-4.2519
 20
-15.6897
 30
0.0
 10
-4.2924
 20
-15.5909
 30
0.0
 10
-4.3733
 20
-15.5104
 30
0.0
 10
-4.3733
 20
-15.5104
 30
0.0
 10
-4.4542
 20
-15.4305
 30
0.0
 10
-4.5544
 20
-15.39
 30
0.0
 10
-4.6739
 20
-15.39
 30
0.0
 10
-4.6739
 20
-15.39
 30
0.0
 10
-4.7877
 20
-15.39
 30
0.0
 10
-4.8818
 20
-15.4272
 30
0.0
 10
-4.9556
 20
-15.5015
 30
0.0
 10
-4.9556
 20
-15.5015
 30
0.0
 10
-5.0294
 20
-15.5763
 30
0.0
 10
-5.0666
 20
-15.6708
 30
0.0
 10
-5.0666
 20
-15.7856
 30
0.0
 10
-5.0666
 20
-15.7856
 30
0.0
 10
-5.0666
 20
-15.8326
 30
0.0
 10
-5.0572
 20
-15.891
 30
0.0
 10
-5.0389
 20
-15.9606
 30
0.0
 10
-5.0389
 20
-15.9606
 30
0.0
 10
-5.0389
 20
-15.9606
 30
0.0
 10
-5.2566
 20
-15.9328
 30
0.0
 10
-5.2566
 20
-15.9328
 30
0.0
 10
-5.2566
 20
-15.9328
 30
0.0
 10
-5.2548
 20
-15.9164
 30
0.0
 10
-5.2538
 20
-15.9032
 30
0.0
 10
-5.2538
 20
-15.8929
 30
0.0
 10
-5.2538
 20
-15.8929
 30
0.0
 10
-5.2538
 20
-15.7875
 30
0.0
 10
-5.2816
 20
-15.6925
 30
0.0
 10
-5.3366
 20
-15.6078
 30
0.0
 10
-5.3366
 20
-15.6078
 30
0.0
 10
-5.3916
 20
-15.5231
 30
0.0
 10
-5.4768
 20
-15.4808
 30
0.0
 10
-5.5915
 20
-15.4808
 30
0.0
 10
-5.5915
 20
-15.4808
 30
0.0
 10
-5.6823
 20
-15.4808
 30
0.0
 10
-5.758
 20
-15.5119
 30
0.0
 10
-5.8173
 20
-15.5735
 30
0.0
 10
-5.8173
 20
-15.5735
 30
0.0
 10
-5.877
 20
-15.6351
 30
0.0
 10
-5.9072
 20
-15.7146
 30
0.0
 10
-5.9072
 20
-15.812
 30
0.0
 10
-5.9072
 20
-15.812
 30
0.0
 10
-5.9072
 20
-15.9084
 30
0.0
 10
-5.8766
 20
-15.9888
 30
0.0
 10
-5.8164
 20
-16.0528
 30
0.0
 10
-5.8164
 20
-16.0528
 30
0.0
 10
-5.7557
 20
-16.1172
 30
0.0
 10
-5.6644
 20
-16.1586
 30
0.0
 10
-5.5431
 20
-16.177
 30
0.0
 10
-5.5431
 20
-16.177
 30
0.0
 10
-5.5431
 20
-16.177
 30
0.0
 10
-5.5873
 20
-16.4248
 30
0.0
 10
-5.5873
 20
-16.4248
 30
0.0
 10
-5.5873
 20
-16.4248
 30
0.0
 10
-5.7538
 20
-16.3947
 30
0.0
 10
-5.8827
 20
-16.3256
 30
0.0
 10
-5.9739
 20
-16.2183
 30
0.0
 10
-5.9739
 20
-16.2183
 30
0.0
 10
-6.0652
 20
-16.1106
 30
0.0
 10
-6.1113
 20
-15.977
 30
0.0
 10
-6.1113
 20
-15.8171
 30
0.0
 10
-6.1113
 20
-15.8171
 30
0.0
 10
-6.1113
 20
-15.7071
 30
0.0
 10
-6.0873
 20
-15.6055
 30
0.0
 10
-6.0403
 20
-15.5128
 30
0.0
 10
-6.0403
 20
-15.5128
 30
0.0
 10
-5.9928
 20
-15.4201
 30
0.0
 10
-5.9283
 20
-15.3491
 30
0.0
 10
-5.8465
 20
-15.2997
 30
0.0
 10
-5.8465
 20
-15.2997
 30
0.0
 10
-5.7646
 20
-15.2508
 30
0.0
 10
-5.6781
 20
-15.2259
 30
0.0
 10
-5.5859
 20
-15.2259
 30
0.0
 10
-5.5859
 20
-15.2259
 30
0.0
 10
-5.4989
 20
-15.2259
 30
0.0
 10
-5.4194
 20
-15.2494
 30
0.0
 10
-5.3474
 20
-15.2964
 30
0.0
 10
-5.3474
 20
-15.2964
 30
0.0
 10
-5.2759
 20
-15.3435
 30
0.0
 10
-5.219
 20
-15.4126
 30
0.0
 10
-5.1767
 20
-15.5043
 30
0.0
 10
-5.1767
 20
-15.5043
 30
0.0
 10
-5.1494
 20
-15.3849
 30
0.0
 10
-5.092
 20
-15.2922
 30
0.0
 10
-5.005
 20
-15.2259
 30
0.0
 10
-5.005
 20
-15.2259
 30
0.0
 10
-4.9184
 20
-15.16
 30
0.0
 10
-4.8098
 20
-15.1271
 30
0.0
 10
-4.6795
 20
-15.1271
 30
0.0
 10
-4.6795
 20
-15.1271
 30
0.0
 10
-4.5031
 20
-15.1271
 30
0.0
 10
-4.3535
 20
-15.1911
 30
0.0
 10
-4.2308
 20
-15.3199
 30
0.0
 10
-4.2308
 20
-15.3199
 30
0.0
 10
-4.108
 20
-15.4484
 30
0.0
 10
-4.0469
 20
-15.6111
 30
0.0
 10
-4.0469
 20
-15.8077
 30
0.0
 10
-4.0469
 20
-15.8077
 30
0.0
 10
-4.0469
 20
-15.985
 30
0.0
 10
-4.0995
 20
-16.1323
 30
0.0
 10
-4.2054
 20
-16.2494
 30
0.0
 10
-4.2054
 20
-16.2494
 30
0.0
 10
-4.3107
 20
-16.3665
 30
0.0
 10
-4.4476
 20
-16.4333
 30
0.0
 10
-4.616
 20
-16.4498
 30
0.0
  0
SPLINE
  5
A8
330
1F
100
AcDbEntity
  8
ROUND
 62
   250
100
AcDbSpline
210
0.0
220
0.0
230
1.0
 70
    11
 71
     3
 72
    92
 73
    88
 74
     0
 42
0.0000000001
 43
0.0000000001
 40
0.0
 40
0.0
 40
0.0
 40
0.0
 40
0.0434782608695652
 40
0.0434782608695652
 40
0.0434782608695652
 40
0.0434782608695652
 40
0.0869565217391304
 40
0.0869565217391304
 40
0.0869565217391304
 40
0.0869565217391304
 40
0.1304347826086956
 40
0.1304347826086956
 40
0.1304347826086956
 40
0.1304347826086956
 40
0.1739130434782609
 40
0.1739130434782609
 40
0.1739130434782609
 40
0.1739130434782609
 40
0.2173913043478261
 40
0.2173913043478261
 40
0.2173913043478261
 40
0.2173913043478261
 40
0.2608695652173913
 40
0.2608695652173913
 40
0.2608695652173913
 40
0.2608695652173913
 40
0.3043478260869565
 40
0.3043478260869565
 40
0.3043478260869565
 40
0.3043478260869565
 40
0.3478260869565217
 40
0.3478260869565217
 40
0.3478260869565217
 40
0.3478260869565217
 40
0.391304347826087
 40
0.391304347826087
 40
0.391304347826087
 40
0.391304347826087
 40
0.4347826086956522
 40
0.4347826086956522
 40
0.4347826086956522
 40
0.4347826086956522
 40
0.4782608695652174
 40
0.4782608695652174
 40
0.4782608695652174
 40
0.4782608695652174
 40
0.5217391304347826
 40
0.5217391304347826
 40
0.5217391304347826
 40
0.5217391304347826
 40
0.5652173913043478
 40
0.5652173913043478
 40
0.5652173913043478
 40
0.5652173913043478
 40
0.6086956521739131
 40
0.6086956521739131
 40
0.6086956521739131
 40
0.6086956521739131
 40
0.6521739130434783
 40
0.6521739130434783
 40
0.6521739130434783
 40
0.6521739130434783
 40
0.6956521739130435
 40
0.6956521739130435
 40
0.6956521739130435
 40
0.6956521739130435
 40
0.7391304347826086
 40
0.7391304347826086
 40
0.7391304347826086
 40
0.7391304347826086
 40
0.782608695652174
 40
0.782608695652174
 40
0.782608695652174
 40
0.782608695652174
 40
0.8260869565217391
 40
0.8260869565217391
 40
0.8260869565217391
 40
0.8260869565217391
 40
0.8695652173913043
 40
0.8695652173913043
 40
0.8695652173913043
 40
0.8695652173913043
 40
0.9130434782608695
 40
0.9130434782608695
 40
0.9130434782608695
 40
0.9130434782608695
 40
1.0
 40
1.0
 40
1.0
 40
1.0
 10
-4.3211
 20
-13.5777
 30
0.0
 10
-4.3211
 20
-13.5777
 30
0.0
 10
-4.0826
 20
-13.5777
 30
0.0
 10
-4.0826
 20
-13.5777
 30
0.0
 10
-4.0826
 20
-13.5777
 30
0.0
 10
-4.0826
 20
-13.5777
 30
0.0
 10
-4.0826
 20
-14.9131
 30
0.0
 10
-4.0826
 20
-14.9131
 30
0.0
 10
-4.0826
 20
-14.9131
 30
0.0
 10
-4.1423
 20
-14.915
 30
0.0
 10
-4.1997
 20
-14.9056
 30
0.0
 10
-4.2548
 20
-14.8844
 30
0.0
 10
-4.2548
 20
-14.8844
 30
0.0
 10
-4.346
 20
-14.8505
 30
0.0
 10
-4.4354
 20
-14.796
 30
0.0
 10
-4.5238
 20
-14.7212
 30
0.0
 10
-4.5238
 20
-14.7212
 30
0.0
 10
-4.6118
 20
-14.6459
 30
0.0
 10
-4.7138
 20
-14.5377
 30
0.0
 10
-4.8295
 20
-14.3966
 30
0.0
 10
-4.8295
 20
-14.3966
 30
0.0
 10
-5.0097
 20
-14.177
 30
0.0
 10
-5.1522
 20
-14.0283
 30
0.0
 10
-5.2576
 20
-13.9512
 30
0.0
 10
-5.2576
 20
-13.9512
 30
0.0
 10
-5.3625
 20
-13.8741
 30
0.0
 10
-5.4622
 20
-13.8355
 30
0.0
 10
-5.5558
 20
-13.8355
 30
0.0
 10
-5.5558
 20
-13.8355
 30
0.0
 10
-5.6541
 20
-13.8355
 30
0.0
 10
-5.7369
 20
-13.8708
 30
0.0
 10
-5.8046
 20
-13.9408
 30
0.0
 10
-5.8046
 20
-13.9408
 30
0.0
 10
-5.8719
 20
-14.0114
 30
0.0
 10
-5.9057
 20
-14.1031
 30
0.0
 10
-5.9057
 20
-14.216
 30
0.0
 10
-5.9057
 20
-14.216
 30
0.0
 10
-5.9057
 20
-14.3355
 30
0.0
 10
-5.87
 20
-14.431
 30
0.0
 10
-5.798
 20
-14.5025
 30
0.0
 10
-5.798
 20
-14.5025
 30
0.0
 10
-5.7265
 20
-14.5744
 30
0.0
 10
-5.6273
 20
-14.6106
 30
0.0
 10
-5.5008
 20
-14.6116
 30
0.0
 10
-5.5008
 20
-14.6116
 30
0.0
 10
-5.5008
 20
-14.6116
 30
0.0
 10
-5.5266
 20
-14.8665
 30
0.0
 10
-5.5266
 20
-14.8665
 30
0.0
 10
-5.5266
 20
-14.8665
 30
0.0
 10
-5.7171
 20
-14.8491
 30
0.0
 10
-5.862
 20
-14.7833
 30
0.0
 10
-5.9617
 20
-14.6694
 30
0.0
 10
-5.9617
 20
-14.6694
 30
0.0
 10
-6.0614
 20
-14.5556
 30
0.0
 10
-6.1113
 20
-14.4023
 30
0.0
 10
-6.1113
 20
-14.2104
 30
0.0
 10
-6.1113
 20
-14.2104
 30
0.0
 10
-6.1113
 20
-14.0166
 30
0.0
 10
-6.0572
 20
-13.8632
 30
0.0
 10
-5.95
 20
-13.7503
 30
0.0
 10
-5.95
 20
-13.7503
 30
0.0
 10
-5.8422
 20
-13.637
 30
0.0
 10
-5.7091
 20
-13.5805
 30
0.0
 10
-5.5501
 20
-13.5805
 30
0.0
 10
-5.5501
 20
-13.5805
 30
0.0
 10
-5.4692
 20
-13.5805
 30
0.0
 10
-5.3897
 20
-13.597
 30
0.0
 10
-5.3117
 20
-13.6304
 30
0.0
 10
-5.3117
 20
-13.6304
 30
0.0
 10
-5.2336
 20
-13.6633
 30
0.0
 10
-5.1513
 20
-13.7184
 30
0.0
 10
-5.0652
 20
-13.795
 30
0.0
 10
-5.0652
 20
-13.795
 30
0.0
 10
-4.9786
 20
-13.8717
 30
0.0
 10
-4.8601
 20
-13.9992
 30
0.0
 10
-4.7096
 20
-14.1774
 30
0.0
 10
-4.7096
 20
-14.1774
 30
0.0
 10
-4.5845
 20
-14.3261
 30
0.0
 10
-4.4998
 20
-14.4216
 30
0.0
 10
-4.4551
 20
-14.4639
 30
0.0
 10
-4.4551
 20
-14.4639
 30
0.0
 10
-4.4109
 20
-14.5062
 30
0.0
 10
-4.3662
 20
-14.541
 30
0.0
 10
-4.3211
 20
-14.5688
 30
0.0
 10
-4.3211
 20
-14.5688
 30
0.0
 10
-4.3211
 20
-14.5688
 30
0.0
 10
-4.3211
 20
-13.5777
 30
0.0
 10
-4.3211
 20
-13.5777
 30
0.0
  0
SPLINE
  5
A9
330
1F
100
AcDbEntity
  8
ROUND
 62
   250
100
AcDbSpline
210
0.0
220
0.0
230
1.0
 70
    11
 71
     3
 72
    20
 73
    16
 74
     0
 42
0.0000000001
 43
0.0000000001
 40
0.0
 40
0.0
 40
0.0
 40
0.0
 40
0.2
 40
0.2
 40
0.2
 40
0.2
 40
0.4
 40
0.4
 40
0.4
 40
0.4
 40
0.6
 40
0.6
 40
0.6
 40
0.6
 40
1.0
 40
1.0
 40
1.0
 40
1.0
 10
36.0726
 20
-4.5213
 30
0.0
 10
36.0726
 20
-4.5213
 30
0.0
 10
36.496
 20
-1.5213
 30
0.0
 10
36.496
 20
-1.5213
 30
0.0
 10
36.496
 20
-1.5213
 30
0.0
 10
36.496
 20
-1.5213
 30
0.0
 10
36.5901
 20
-1.5213
 30
0.0
 10
36.5901
 20
-1.5213
 30
0.0
 10
36.5901
 20
-1.5213
 30
0.0
 10
36.5901
 20
-1.5213
 30
0.0
 10
37.0416
 20
-4.5213
 30
0.0
 10
37.0416
 20
-4.5213
 30
0.0
 10
37.0416
 20
-4.5213
 30
0.0
 10
37.0416
 20
-4.5213
 30
0.0
 10
36.0726
 20
-4.5213
 30
0.0
 10
36.0726
 20
-4.5213
 30
0.0
  0
SPLINE
  5
AA
330
1F
100
AcDbEntity
  8
ROUND
 62
   250
100
AcDbSpline
210
0.0
220
0.0
230
1.0
 70
    11
 71
     3
 72
    20
 73
    16
 74
     0
 42
0.0000000001
 43
0.0000000001
 40
0.0
 40
0.0
 40
0.0
 40
0.0
 40
0.2
 40
0.2
 40
0.2
 40
0.2
 40
0.4
 40
0.4
 40
0.4
 40
0.4
 40
0.6
 40
0.6
 40
0.6
 40
0.6
 40
1.0
 40
1.0
 40
1.0
 40
1.0
 10
37.0168
 20
-12.525
 30
0.0
 10
37.0168
 20
-12.525
 30
0.0
 10
36.5934
 20
-15.525
 30
0.0
 10
36.5934
 20
-15.525
 30
0.0
 10
36.5934
 20
-15.525
 30
0.0
 10
36.5934
 20
-15.525
 30
0.0
 10
36.4994
 20
-15.525
 30
0.0
 10
36.4994
 20
-15.525
 30
0.0
 10
36.4994
 20
-15.525
 30
0.0
 10
36.4994
 20
-15.525
 30
0.0
 10
36.0479
 20
-12.525
 30
0.0
 10
36.0479
 20
-12.525
 30
0.0
 10
36.0479
 20
-12.525
 30
0.0
 10
36.0479
 20
-12.525
 30
0.0
 10
37.0168
 20
-12.525
 30
0.0
 10
37.0168
 20
-12.525
 30
0.0
  0
SPLINE
  5
AB
330
1F
100
AcDbEntity
  8
ROUND
 62
   250
100
AcDbSpline
210
0.0
220
0.0
230
1.0
 70
    11
 71
     3
 72
    80
 73
    76
 74
     0
 42
0.0000000001
 43
0.0000000001
 40
0.0
 40
0.0
 40
0.0
 40
0.0
 40
0.05
 40
0.05
 40
0.05
 40
0.05
 40
0.1
 40
0.1
 40
0.1
 40
0.1
 40
0.15
 40
0.15
 40
0.15
 40
0.15
 40
0.2
 40
0.2
 40
0.2
 40
0.2
 40
0.25
 40
0.25
 40
0.25
 40
0.25
 40
0.3
 40
0.3
 40
0.3
 40
0.3
 40
0.35
 40
0.35
 40
0.35
 40
0.35
 40
0.4
 40
0.4
 40
0.4
 40
0.4
 40
0.45
 40
0.45
 40
0.45
 40
0.45
 40
0.5
 40
0.5
 40
0.5
 40
0.5
 40
0.55
 40
0.55
 40
0.55
 40
0.55
 40
0.6
 40
0.6
 40
0.6
 40
0.6
 40
0.65
 40
0.65
 40
0.65
 40
0.65
 40
0.7
 40
0.7
 40
0.7
 40
0.7
 40
0.75
 40
0.75
 40
0.75
 40
0.75
 40
0.8
 40
0.8
 40
0.8
 40
0.8
 40
0.85
 40
0.85
 40
0.85
 40
0.85
 40
0.9
 40
0.9
 40
0.9
 40
0.9
 40
1.0
 40
1.0
 40
1.0
 40
1.0
 10
34.3923
 20
-11.0319
 30
0.0
 10
34.3923
 20
-11.0319
 30
0.0
 10
34.4116
 20
-11.2783
 30
0.0
 10
34.4116
 20
-11.2783
 30
0.0
 10
34.4116
 20
-11.2783
 30
0.0
 10
34.3142
 20
-11.3004
 30
0.0
 10
34.2432
 20
-11.3315
 30
0.0
 10
34.1995
 20
-11.3719
 30
0.0
 10
34.1995
 20
-11.3719
 30
0.0
 10
34.1284
 20
-11.4392
 30
0.0
 10
34.0931
 20
-11.522
 30
0.0
 10
34.0931
 20
-11.6203
 30
0.0
 10
34.0931
 20
-11.6203
 30
0.0
 10
34.0931
 20
-11.6993
 30
0.0
 10
34.1153
 20
-11.7684
 30
0.0
 10
34.1595
 20
-11.8282
 30
0.0
 10
34.1595
 20
-11.8282
 30
0.0
 10
34.2164
 20
-11.9063
 30
0.0
 10
34.2996
 20
-11.9679
 30
0.0
 10
34.4088
 20
-12.013
 30
0.0
 10
34.4088
 20
-12.013
 30
0.0
 10
34.5179
 20
-12.0577
 30
0.0
 10
34.6736
 20
-12.0812
 30
0.0
 10
34.8758
 20
-12.0831
 30
0.0
 10
34.8758
 20
-12.0831
 30
0.0
 10
34.7851
 20
-12.0234
 30
0.0
 10
34.7173
 20
-11.9505
 30
0.0
 10
34.6731
 20
-11.8639
 30
0.0
 10
34.6731
 20
-11.8639
 30
0.0
 10
34.6294
 20
-11.7779
 30
0.0
 10
34.6073
 20
-11.6871
 30
0.0
 10
34.6073
 20
-11.5925
 30
0.0
 10
34.6073
 20
-11.5925
 30
0.0
 10
34.6073
 20
-11.427
 30
0.0
 10
34.6679
 20
-11.2863
 30
0.0
 10
34.7898
 20
-11.1701
 30
0.0
 10
34.7898
 20
-11.1701
 30
0.0
 10
34.9116
 20
-11.054
 30
0.0
 10
35.0687
 20
-10.9956
 30
0.0
 10
35.2615
 20
-10.9956
 30
0.0
 10
35.2615
 20
-10.9956
 30
0.0
 10
35.3885
 20
-10.9956
 30
0.0
 10
35.5061
 20
-11.0234
 30
0.0
 10
35.6153
 20
-11.078
 30
0.0
 10
35.6153
 20
-11.078
 30
0.0
 10
35.7239
 20
-11.1325
 30
0.0
 10
35.8076
 20
-11.2078
 30
0.0
 10
35.8655
 20
-11.3033
 30
0.0
 10
35.8655
 20
-11.3033
 30
0.0
 10
35.9233
 20
-11.3987
 30
0.0
 10
35.952
 20
-11.5069
 30
0.0
 10
35.952
 20
-11.6283
 30
0.0
 10
35.952
 20
-11.6283
 30
0.0
 10
35.952
 20
-11.8352
 30
0.0
 10
35.8763
 20
-12.0036
 30
0.0
 10
35.7239
 20
-12.1339
 30
0.0
 10
35.7239
 20
-12.1339
 30
0.0
 10
35.572
 20
-12.2647
 30
0.0
 10
35.3213
 20
-12.3296
 30
0.0
 10
34.9723
 20
-12.3296
 30
0.0
 10
34.9723
 20
-12.3296
 30
0.0
 10
34.5819
 20
-12.3296
 30
0.0
 10
34.2982
 20
-12.2576
 30
0.0
 10
34.1209
 20
-12.1132
 30
0.0
 10
34.1209
 20
-12.1132
 30
0.0
 10
33.9666
 20
-11.9876
 30
0.0
 10
33.889
 20
-11.8183
 30
0.0
 10
33.889
 20
-11.6048
 30
0.0
 10
33.889
 20
-11.6048
 30
0.0
 10
33.889
 20
-11.4462
 30
0.0
 10
33.9337
 20
-11.316
 30
0.0
 10
34.0231
 20
-11.2144
 30
0.0
 10
34.0231
 20
-11.2144
 30
0.0
 10
34.112
 20
-11.1128
 30
0.0
 10
34.2352
 20
-11.0521
 30
0.0
 10
34.3923
 20
-11.0319
 30
0.0
  0
SPLINE
  5
AC
330
1F
100
AcDbEntity
  8
ROUND
 62
   250
100
AcDbSpline
210
0.0
220
0.0
230
1.0
 70
    11
 71
     3
 72
    40
 73
    36
 74
     0
 42
0.0000000001
 43
0.0000000001
 40
0.0
 40
0.0
 40
0.0
 40
0.0
 40
0.1
 40
0.1
 40
0.1
 40
0.1
 40
0.2
 40
0.2
 40
0.2
 40
0.2
 40
0.3
 40
0.3
 40
0.3
 40
0.3
 40
0.4
 40
0.4
 40
0.4
 40
0.4
 40
0.5
 40
0.5
 40
0.5
 40
0.5
 40
0.6
 40
0.6
 40
0.6
 40
0.6
 40
0.7
 40
0.7
 40
0.7
 40
0.7
 40
0.8
 40
0.8
 40
0.8
 40
0.8
 40
1.0
 40
1.0
 40
1.0
 40
1.0
 10
35.2629
 20
-12.0446
 30
0.0
 10
35.3486
 20
-12.0446
 30
0.0
 10
35.4304
 20
-12.0262
 30
0.0
 10
35.5085
 20
-11.99
 30
0.0
 10
35.5085
 20
-11.99
 30
0.0
 10
35.5866
 20
-11.9538
 30
0.0
 10
35.6458
 20
-11.903
 30
0.0
 10
35.6867
 20
-11.8381
 30
0.0
 10
35.6867
 20
-11.8381
 30
0.0
 10
35.7277
 20
-11.7727
 30
0.0
 10
35.7484
 20
-11.704
 30
0.0
 10
35.7484
 20
-11.6325
 30
0.0
 10
35.7484
 20
-11.6325
 30
0.0
 10
35.7484
 20
-11.5276
 30
0.0
 10
35.706
 20
-11.4378
 30
0.0
 10
35.6214
 20
-11.3625
 30
0.0
 10
35.6214
 20
-11.3625
 30
0.0
 10
35.5367
 20
-11.2873
 30
0.0
 10
35.4219
 20
-11.2496
 30
0.0
 10
35.2771
 20
-11.2496
 30
0.0
 10
35.2771
 20
-11.2496
 30
0.0
 10
35.1374
 20
-11.2496
 30
0.0
 10
35.0273
 20
-11.2868
 30
0.0
 10
34.9469
 20
-11.3611
 30
0.0
 10
34.9469
 20
-11.3611
 30
0.0
 10
34.8664
 20
-11.4354
 30
0.0
 10
34.8264
 20
-11.529
 30
0.0
 10
34.8264
 20
-11.6419
 30
0.0
 10
34.8264
 20
-11.6419
 30
0.0
 10
34.8264
 20
-11.7543
 30
0.0
 10
34.8664
 20
-11.8494
 30
0.0
 10
34.9469
 20
-11.9274
 30
0.0
 10
34.9469
 20
-11.9274
 30
0.0
 10
35.0273
 20
-12.0055
 30
0.0
 10
35.1327
 20
-12.0446
 30
0.0
 10
35.2629
 20
-12.0446
 30
0.0
  0
SPLINE
  5
AD
330
1F
100
AcDbEntity
  8
ROUND
 62
   250
100
AcDbSpline
210
0.0
220
0.0
230
1.0
 70
    11
 71
     3
 72
    92
 73
    88
 74
     0
 42
0.0000000001
 43
0.0000000001
 40
0.0
 40
0.0
 40
0.0
 40
0.0
 40
0.0434782608695652
 40
0.0434782608695652
 40
0.0434782608695652
 40
0.0434782608695652
 40
0.0869565217391304
 40
0.0869565217391304
 40
0.0869565217391304
 40
0.0869565217391304
 40
0.1304347826086956
 40
0.1304347826086956
 40
0.1304347826086956
 40
0.1304347826086956
 40
0.1739130434782609
 40
0.1739130434782609
 40
0.1739130434782609
 40
0.1739130434782609
 40
0.2173913043478261
 40
0.2173913043478261
 40
0.2173913043478261
 40
0.2173913043478261
 40
0.2608695652173913
 40
0.2608695652173913
 40
0.2608695652173913
 40
0.2608695652173913
 40
0.3043478260869565
 40
0.3043478260869565
 40
0.3043478260869565
 40
0.3043478260869565
 40
0.3478260869565217
 40
0.3478260869565217
 40
0.3478260869565217
 40
0.3478260869565217
 40
0.391304347826087
 40
0.391304347826087
 40
0.391304347826087
 40
0.391304347826087
 40
0.4347826086956522
 40
0.4347826086956522
 40
0.4347826086956522
 40
0.4347826086956522
 40
0.4782608695652174
 40
0.4782608695652174
 40
0.4782608695652174
 40
0.4782608695652174
 40
0.5217391304347826
 40
0.5217391304347826
 40
0.5217391304347826
 40
0.5217391304347826
 40
0.5652173913043478
 40
0.5652173913043478
 40
0.5652173913043478
 40
0.5652173913043478
 40
0.6086956521739131
 40
0.6086956521739131
 40
0.6086956521739131
 40
0.6086956521739131
 40
0.6521739130434783
 40
0.6521739130434783
 40
0.6521739130434783
 40
0.6521739130434783
 40
0.6956521739130435
 40
0.6956521739130435
 40
0.6956521739130435
 40
0.6956521739130435
 40
0.7391304347826086
 40
0.7391304347826086
 40
0.7391304347826086
 40
0.7391304347826086
 40
0.782608695652174
 40
0.782608695652174
 40
0.782608695652174
 40
0.782608695652174
 40
0.8260869565217391
 40
0.8260869565217391
 40
0.8260869565217391
 40
0.8260869565217391
 40
0.8695652173913043
 40
0.8695652173913043
 40
0.8695652173913043
 40
0.8695652173913043
 40
0.9130434782608695
 40
0.9130434782608695
 40
0.9130434782608695
 40
0.9130434782608695
 40
1.0
 40
1.0
 40
1.0
 40
1.0
 10
35.3885
 20
-10.7492
 30
0.0
 10
35.3885
 20
-10.7492
 30
0.0
 10
35.3664
 20
-10.4886
 30
0.0
 10
35.3664
 20
-10.4886
 30
0.0
 10
35.3664
 20
-10.4886
 30
0.0
 10
35.4934
 20
-10.4693
 30
0.0
 10
35.5884
 20
-10.4246
 30
0.0
 10
35.6524
 20
-10.3545
 30
0.0
 10
35.6524
 20
-10.3545
 30
0.0
 10
35.7164
 20
-10.284
 30
0.0
 10
35.7484
 20
-10.1993
 30
0.0
 10
35.7484
 20
-10.1001
 30
0.0
 10
35.7484
 20
-10.1001
 30
0.0
 10
35.7484
 20
-9.9806
 30
0.0
 10
35.7032
 20
-9.8795
 30
0.0
 10
35.6134
 20
-9.7972
 30
0.0
 10
35.6134
 20
-9.7972
 30
0.0
 10
35.5231
 20
-9.7144
 30
0.0
 10
35.4036
 20
-9.673
 30
0.0
 10
35.255
 20
-9.673
 30
0.0
 10
35.255
 20
-9.673
 30
0.0
 10
35.1134
 20
-9.673
 30
0.0
 10
35.0019
 20
-9.7125
 30
0.0
 10
34.9201
 20
-9.792
 30
0.0
 10
34.9201
 20
-9.792
 30
0.0
 10
34.8382
 20
-9.8715
 30
0.0
 10
34.7973
 20
-9.9754
 30
0.0
 10
34.7973
 20
-10.1043
 30
0.0
 10
34.7973
 20
-10.1043
 30
0.0
 10
34.7973
 20
-10.1843
 30
0.0
 10
34.8156
 20
-10.2562
 30
0.0
 10
34.8518
 20
-10.3207
 30
0.0
 10
34.8518
 20
-10.3207
 30
0.0
 10
34.8881
 20
-10.3851
 30
0.0
 10
34.9351
 20
-10.4354
 30
0.0
 10
34.993
 20
-10.4721
 30
0.0
 10
34.993
 20
-10.4721
 30
0.0
 10
34.993
 20
-10.4721
 30
0.0
 10
34.9629
 20
-10.705
 30
0.0
 10
34.9629
 20
-10.705
 30
0.0
 10
34.9629
 20
-10.705
 30
0.0
 10
34.9629
 20
-10.705
 30
0.0
 10
33.9252
 20
-10.5093
 30
0.0
 10
33.9252
 20
-10.5093
 30
0.0
 10
33.9252
 20
-10.5093
 30
0.0
 10
33.9252
 20
-10.5093
 30
0.0
 10
33.9252
 20
-9.5046
 30
0.0
 10
33.9252
 20
-9.5046
 30
0.0
 10
33.9252
 20
-9.5046
 30
0.0
 10
33.9252
 20
-9.5046
 30
0.0
 10
34.1623
 20
-9.5046
 30
0.0
 10
34.1623
 20
-9.5046
 30
0.0
 10
34.1623
 20
-9.5046
 30
0.0
 10
34.1623
 20
-9.5046
 30
0.0
 10
34.1623
 20
-10.3108
 30
0.0
 10
34.1623
 20
-10.3108
 30
0.0
 10
34.1623
 20
-10.3108
 30
0.0
 10
34.1623
 20
-10.3108
 30
0.0
 10
34.7051
 20
-10.4199
 30
0.0
 10
34.7051
 20
-10.4199
 30
0.0
 10
34.7051
 20
-10.4199
 30
0.0
 10
34.6204
 20
-10.2986
 30
0.0
 10
34.5781
 20
-10.1711
 30
0.0
 10
34.5781
 20
-10.038
 30
0.0
 10
34.5781
 20
-10.038
 30
0.0
 10
34.5781
 20
-9.8616
 30
0.0
 10
34.6392
 20
-9.713
 30
0.0
 10
34.7615
 20
-9.5916
 30
0.0
 10
34.7615
 20
-9.5916
 30
0.0
 10
34.8838
 20
-9.4703
 30
0.0
 10
35.0409
 20
-9.4096
 30
0.0
 10
35.2328
 20
-9.4096
 30
0.0
 10
35.2328
 20
-9.4096
 30
0.0
 10
35.4158
 20
-9.4096
 30
0.0
 10
35.5739
 20
-9.4632
 30
0.0
 10
35.707
 20
-9.5695
 30
0.0
 10
35.707
 20
-9.5695
 30
0.0
 10
35.8702
 20
-9.6993
 30
0.0
 10
35.952
 20
-9.8762
 30
0.0
 10
35.952
 20
-10.1001
 30
0.0
 10
35.952
 20
-10.1001
 30
0.0
 10
35.952
 20
-10.284
 30
0.0
 10
35.9008
 20
-10.434
 30
0.0
 10
35.7978
 20
-10.5502
 30
0.0
 10
35.7978
 20
-10.5502
 30
0.0
 10
35.6947
 20
-10.6664
 30
0.0
 10
35.5583
 20
-10.7327
 30
0.0
 10
35.3885
 20
-10.7492
 30
0.0
  0
SPLINE
  5
AE
330
1F
100
AcDbEntity
  8
ROUND
 62
   250
100
AcDbSpline
210
0.0
220
0.0
230
1.0
 70
    11
 71
     3
 72
    64
 73
    60
 74
     0
 42
0.0000000001
 43
0.0000000001
 40
0.0
 40
0.0
 40
0.0
 40
0.0
 40
0.0625
 40
0.0625
 40
0.0625
 40
0.0625
 40
0.125
 40
0.125
 40
0.125
 40
0.125
 40
0.1875
 40
0.1875
 40
0.1875
 40
0.1875
 40
0.25
 40
0.25
 40
0.25
 40
0.25
 40
0.3125
 40
0.3125
 40
0.3125
 40
0.3125
 40
0.375
 40
0.375
 40
0.375
 40
0.375
 40
0.4375
 40
0.4375
 40
0.4375
 40
0.4375
 40
0.5
 40
0.5
 40
0.5
 40
0.5
 40
0.5625
 40
0.5625
 40
0.5625
 40
0.5625
 40
0.625
 40
0.625
 40
0.625
 40
0.625
 40
0.6875
 40
0.6875
 40
0.6875
 40
0.6875
 40
0.75
 40
0.75
 40
0.75
 40
0.75
 40
0.8125
 40
0.8125
 40
0.8125
 40
0.8125
 40
0.875
 40
0.875
 40
0.875
 40
0.875
 40
1.0
 40
1.0
 40
1.0
 40
1.0
 10
35.9177
 20
-9.276
 30
0.0
 10
35.9177
 20
-9.276
 30
0.0
 10
35.1571
 20
-8.7412
 30
0.0
 10
35.1571
 20
-8.7412
 30
0.0
 10
35.1571
 20
-8.7412
 30
0.0
 10
35.1571
 20
-8.7412
 30
0.0
 10
34.4544
 20
-9.236
 30
0.0
 10
34.4544
 20
-9.236
 30
0.0
 10
34.4544
 20
-9.236
 30
0.0
 10
34.4544
 20
-9.236
 30
0.0
 10
34.4544
 20
-8.9261
 30
0.0
 10
34.4544
 20
-8.9261
 30
0.0
 10
34.4544
 20
-8.9261
 30
0.0
 10
34.4544
 20
-8.9261
 30
0.0
 10
34.7973
 20
-8.7012
 30
0.0
 10
34.7973
 20
-8.7012
 30
0.0
 10
34.7973
 20
-8.7012
 30
0.0
 10
34.8627
 20
-8.6594
 30
0.0
 10
34.9172
 20
-8.625
 30
0.0
 10
34.9614
 20
-8.5996
 30
0.0
 10
34.9614
 20
-8.5996
 30
0.0
 10
34.9008
 20
-8.5592
 30
0.0
 10
34.8471
 20
-8.522
 30
0.0
 10
34.8001
 20
-8.4877
 30
0.0
 10
34.8001
 20
-8.4877
 30
0.0
 10
34.8001
 20
-8.4877
 30
0.0
 10
34.4544
 20
-8.2412
 30
0.0
 10
34.4544
 20
-8.2412
 30
0.0
 10
34.4544
 20
-8.2412
 30
0.0
 10
34.4544
 20
-8.2412
 30
0.0
 10
34.4544
 20
-7.9449
 30
0.0
 10
34.4544
 20
-7.9449
 30
0.0
 10
34.4544
 20
-7.9449
 30
0.0
 10
34.4544
 20
-7.9449
 30
0.0
 10
35.1435
 20
-8.4505
 30
0.0
 10
35.1435
 20
-8.4505
 30
0.0
 10
35.1435
 20
-8.4505
 30
0.0
 10
35.1435
 20
-8.4505
 30
0.0
 10
35.9177
 20
-7.9063
 30
0.0
 10
35.9177
 20
-7.9063
 30
0.0
 10
35.9177
 20
-7.9063
 30
0.0
 10
35.9177
 20
-7.9063
 30
0.0
 10
35.9177
 20
-8.2106
 30
0.0
 10
35.9177
 20
-8.2106
 30
0.0
 10
35.9177
 20
-8.2106
 30
0.0
 10
35.9177
 20
-8.2106
 30
0.0
 10
35.4629
 20
-8.5112
 30
0.0
 10
35.4629
 20
-8.5112
 30
0.0
 10
35.4629
 20
-8.5112
 30
0.0
 10
35.4629
 20
-8.5112
 30
0.0
 10
35.3401
 20
-8.5911
 30
0.0
 10
35.3401
 20
-8.5911
 30
0.0
 10
35.3401
 20
-8.5911
 30
0.0
 10
35.3401
 20
-8.5911
 30
0.0
 10
35.9177
 20
-8.9754
 30
0.0
 10
35.9177
 20
-8.9754
 30
0.0
 10
35.9177
 20
-8.9754
 30
0.0
 10
35.9177
 20
-8.9754
 30
0.0
 10
35.9177
 20
-9.276
 30
0.0
 10
35.9177
 20
-9.276
 30
0.0
  0
SPLINE
  5
AF
330
1F
100
AcDbEntity
  8
ROUND
 62
   250
100
AcDbSpline
210
0.0
220
0.0
230
1.0
 70
    11
 71
     3
 72
    80
 73
    76
 74
     0
 42
0.0000000001
 43
0.0000000001
 40
0.0
 40
0.0
 40
0.0
 40
0.0
 40
0.05
 40
0.05
 40
0.05
 40
0.05
 40
0.1
 40
0.1
 40
0.1
 40
0.1
 40
0.15
 40
0.15
 40
0.15
 40
0.15
 40
0.2
 40
0.2
 40
0.2
 40
0.2
 40
0.25
 40
0.25
 40
0.25
 40
0.25
 40
0.3
 40
0.3
 40
0.3
 40
0.3
 40
0.35
 40
0.35
 40
0.35
 40
0.35
 40
0.4
 40
0.4
 40
0.4
 40
0.4
 40
0.45
 40
0.45
 40
0.45
 40
0.45
 40
0.5
 40
0.5
 40
0.5
 40
0.5
 40
0.55
 40
0.55
 40
0.55
 40
0.55
 40
0.6
 40
0.6
 40
0.6
 40
0.6
 40
0.65
 40
0.65
 40
0.65
 40
0.65
 40
0.7
 40
0.7
 40
0.7
 40
0.7
 40
0.75
 40
0.75
 40
0.75
 40
0.75
 40
0.8
 40
0.8
 40
0.8
 40
0.8
 40
0.85
 40
0.85
 40
0.85
 40
0.85
 40
0.9
 40
0.9
 40
0.9
 40
0.9
 40
1.0
 40
1.0
 40
1.0
 40
1.0
 10
34.3923
 20
-6.4816
 30
0.0
 10
34.3923
 20
-6.4816
 30
0.0
 10
34.4116
 20
-6.728
 30
0.0
 10
34.4116
 20
-6.728
 30
0.0
 10
34.4116
 20
-6.728
 30
0.0
 10
34.3142
 20
-6.7501
 30
0.0
 10
34.2432
 20
-6.7812
 30
0.0
 10
34.1995
 20
-6.8216
 30
0.0
 10
34.1995
 20
-6.8216
 30
0.0
 10
34.1284
 20
-6.8889
 30
0.0
 10
34.0931
 20
-6.9717
 30
0.0
 10
34.0931
 20
-7.07
 30
0.0
 10
34.0931
 20
-7.07
 30
0.0
 10
34.0931
 20
-7.149
 30
0.0
 10
34.1153
 20
-7.2181
 30
0.0
 10
34.1595
 20
-7.2779
 30
0.0
 10
34.1595
 20
-7.2779
 30
0.0
 10
34.2164
 20
-7.356
 30
0.0
 10
34.2996
 20
-7.4176
 30
0.0
 10
34.4088
 20
-7.4627
 30
0.0
 10
34.4088
 20
-7.4627
 30
0.0
 10
34.5179
 20
-7.5074
 30
0.0
 10
34.6736
 20
-7.5309
 30
0.0
 10
34.8758
 20
-7.5328
 30
0.0
 10
34.8758
 20
-7.5328
 30
0.0
 10
34.7851
 20
-7.4731
 30
0.0
 10
34.7173
 20
-7.4002
 30
0.0
 10
34.6731
 20
-7.3136
 30
0.0
 10
34.6731
 20
-7.3136
 30
0.0
 10
34.6294
 20
-7.2276
 30
0.0
 10
34.6073
 20
-7.1368
 30
0.0
 10
34.6073
 20
-7.0422
 30
0.0
 10
34.6073
 20
-7.0422
 30
0.0
 10
34.6073
 20
-6.8767
 30
0.0
 10
34.6679
 20
-6.736
 30
0.0
 10
34.7898
 20
-6.6198
 30
0.0
 10
34.7898
 20
-6.6198
 30
0.0
 10
34.9116
 20
-6.5037
 30
0.0
 10
35.0687
 20
-6.4453
 30
0.0
 10
35.2615
 20
-6.4453
 30
0.0
 10
35.2615
 20
-6.4453
 30
0.0
 10
35.3885
 20
-6.4453
 30
0.0
 10
35.5061
 20
-6.4731
 30
0.0
 10
35.6153
 20
-6.5277
 30
0.0
 10
35.6153
 20
-6.5277
 30
0.0
 10
35.7239
 20
-6.5822
 30
0.0
 10
35.8076
 20
-6.6575
 30
0.0
 10
35.8655
 20
-6.753
 30
0.0
 10
35.8655
 20
-6.753
 30
0.0
 10
35.9233
 20
-6.8484
 30
0.0
 10
35.952
 20
-6.9566
 30
0.0
 10
35.952
 20
-7.078
 30
0.0
 10
35.952
 20
-7.078
 30
0.0
 10
35.952
 20
-7.2849
 30
0.0
 10
35.8763
 20
-7.4533
 30
0.0
 10
35.7239
 20
-7.5836
 30
0.0
 10
35.7239
 20
-7.5836
 30
0.0
 10
35.572
 20
-7.7144
 30
0.0
 10
35.3213
 20
-7.7793
 30
0.0
 10
34.9723
 20
-7.7793
 30
0.0
 10
34.9723
 20
-7.7793
 30
0.0
 10
34.5819
 20
-7.7793
 30
0.0
 10
34.2982
 20
-7.7073
 30
0.0
 10
34.1209
 20
-7.5629
 30
0.0
 10
34.1209
 20
-7.5629
 30
0.0
 10
33.9666
 20
-7.4373
 30
0.0
 10
33.889
 20
-7.268
 30
0.0
 10
33.889
 20
-7.0545
 30
0.0
 10
33.889
 20
-7.0545
 30
0.0
 10
33.889
 20
-6.8959
 30
0.0
 10
33.9337
 20
-6.7657
 30
0.0
 10
34.0231
 20
-6.6641
 30
0.0
 10
34.0231
 20
-6.6641
 30
0.0
 10
34.112
 20
-6.5625
 30
0.0
 10
34.2352
 20
-6.5018
 30
0.0
 10
34.3923
 20
-6.4816
 30
0.0
  0
SPLINE
  5
B0
330
1F
100
AcDbEntity
  8
ROUND
 62
   250
100
AcDbSpline
210
0.0
220
0.0
230
1.0
 70
    11
 71
     3
 72
    40
 73
    36
 74
     0
 42
0.0000000001
 43
0.0000000001
 40
0.0
 40
0.0
 40
0.0
 40
0.0
 40
0.1
 40
0.1
 40
0.1
 40
0.1
 40
0.2
 40
0.2
 40
0.2
 40
0.2
 40
0.3
 40
0.3
 40
0.3
 40
0.3
 40
0.4
 40
0.4
 40
0.4
 40
0.4
 40
0.5
 40
0.5
 40
0.5
 40
0.5
 40
0.6
 40
0.6
 40
0.6
 40
0.6
 40
0.7
 40
0.7
 40
0.7
 40
0.7
 40
0.8
 40
0.8
 40
0.8
 40
0.8
 40
1.0
 40
1.0
 40
1.0
 40
1.0
 10
35.2629
 20
-7.4943
 30
0.0
 10
35.3486
 20
-7.4943
 30
0.0
 10
35.4304
 20
-7.4759
 30
0.0
 10
35.5085
 20
-7.4397
 30
0.0
 10
35.5085
 20
-7.4397
 30
0.0
 10
35.5866
 20
-7.4035
 30
0.0
 10
35.6458
 20
-7.3527
 30
0.0
 10
35.6867
 20
-7.2878
 30
0.0
 10
35.6867
 20
-7.2878
 30
0.0
 10
35.7277
 20
-7.2224
 30
0.0
 10
35.7484
 20
-7.1537
 30
0.0
 10
35.7484
 20
-7.0822
 30
0.0
 10
35.7484
 20
-7.0822
 30
0.0
 10
35.7484
 20
-6.9773
 30
0.0
 10
35.706
 20
-6.8875
 30
0.0
 10
35.6214
 20
-6.8122
 30
0.0
 10
35.6214
 20
-6.8122
 30
0.0
 10
35.5367
 20
-6.737
 30
0.0
 10
35.4219
 20
-6.6993
 30
0.0
 10
35.2771
 20
-6.6993
 30
0.0
 10
35.2771
 20
-6.6993
 30
0.0
 10
35.1374
 20
-6.6993
 30
0.0
 10
35.0273
 20
-6.7365
 30
0.0
 10
34.9469
 20
-6.8108
 30
0.0
 10
34.9469
 20
-6.8108
 30
0.0
 10
34.8664
 20
-6.8851
 30
0.0
 10
34.8264
 20
-6.9787
 30
0.0
 10
34.8264
 20
-7.0916
 30
0.0
 10
34.8264
 20
-7.0916
 30
0.0
 10
34.8264
 20
-7.204
 30
0.0
 10
34.8664
 20
-7.2991
 30
0.0
 10
34.9469
 20
-7.3771
 30
0.0
 10
34.9469
 20
-7.3771
 30
0.0
 10
35.0273
 20
-7.4552
 30
0.0
 10
35.1327
 20
-7.4943
 30
0.0
 10
35.2629
 20
-7.4943
 30
0.0
  0
SPLINE
  5
B1
330
1F
100
AcDbEntity
  8
ROUND
 62
   250
100
AcDbSpline
210
0.0
220
0.0
230
1.0
 70
    11
 71
     3
 72
    92
 73
    88
 74
     0
 42
0.0000000001
 43
0.0000000001
 40
0.0
 40
0.0
 40
0.0
 40
0.0
 40
0.0434782608695652
 40
0.0434782608695652
 40
0.0434782608695652
 40
0.0434782608695652
 40
0.0869565217391304
 40
0.0869565217391304
 40
0.0869565217391304
 40
0.0869565217391304
 40
0.1304347826086956
 40
0.1304347826086956
 40
0.1304347826086956
 40
0.1304347826086956
 40
0.1739130434782609
 40
0.1739130434782609
 40
0.1739130434782609
 40
0.1739130434782609
 40
0.2173913043478261
 40
0.2173913043478261
 40
0.2173913043478261
 40
0.2173913043478261
 40
0.2608695652173913
 40
0.2608695652173913
 40
0.2608695652173913
 40
0.2608695652173913
 40
0.3043478260869565
 40
0.3043478260869565
 40
0.3043478260869565
 40
0.3043478260869565
 40
0.3478260869565217
 40
0.3478260869565217
 40
0.3478260869565217
 40
0.3478260869565217
 40
0.391304347826087
 40
0.391304347826087
 40
0.391304347826087
 40
0.391304347826087
 40
0.4347826086956522
 40
0.4347826086956522
 40
0.4347826086956522
 40
0.4347826086956522
 40
0.4782608695652174
 40
0.4782608695652174
 40
0.4782608695652174
 40
0.4782608695652174
 40
0.5217391304347826
 40
0.5217391304347826
 40
0.5217391304347826
 40
0.5217391304347826
 40
0.5652173913043478
 40
0.5652173913043478
 40
0.5652173913043478
 40
0.5652173913043478
 40
0.6086956521739131
 40
0.6086956521739131
 40
0.6086956521739131
 40
0.6086956521739131
 40
0.6521739130434783
 40
0.6521739130434783
 40
0.6521739130434783
 40
0.6521739130434783
 40
0.6956521739130435
 40
0.6956521739130435
 40
0.6956521739130435
 40
0.6956521739130435
 40
0.7391304347826086
 40
0.7391304347826086
 40
0.7391304347826086
 40
0.7391304347826086
 40
0.782608695652174
 40
0.782608695652174
 40
0.782608695652174
 40
0.782608695652174
 40
0.8260869565217391
 40
0.8260869565217391
 40
0.8260869565217391
 40
0.8260869565217391
 40
0.8695652173913043
 40
0.8695652173913043
 40
0.8695652173913043
 40
0.8695652173913043
 40
0.9130434782608695
 40
0.9130434782608695
 40
0.9130434782608695
 40
0.9130434782608695
 40
1.0
 40
1.0
 40
1.0
 40
1.0
 10
35.3885
 20
-6.1989
 30
0.0
 10
35.3885
 20
-6.1989
 30
0.0
 10
35.3664
 20
-5.9383
 30
0.0
 10
35.3664
 20
-5.9383
 30
0.0
 10
35.3664
 20
-5.9383
 30
0.0
 10
35.4934
 20
-5.919
 30
0.0
 10
35.5884
 20
-5.8743
 30
0.0
 10
35.6524
 20
-5.8042
 30
0.0
 10
35.6524
 20
-5.8042
 30
0.0
 10
35.7164
 20
-5.7337
 30
0.0
 10
35.7484
 20
-5.649
 30
0.0
 10
35.7484
 20
-5.5498
 30
0.0
 10
35.7484
 20
-5.5498
 30
0.0
 10
35.7484
 20
-5.4303
 30
0.0
 10
35.7032
 20
-5.3292
 30
0.0
 10
35.6134
 20
-5.2469
 30
0.0
 10
35.6134
 20
-5.2469
 30
0.0
 10
35.5231
 20
-5.1641
 30
0.0
 10
35.4036
 20
-5.1227
 30
0.0
 10
35.255
 20
-5.1227
 30
0.0
 10
35.255
 20
-5.1227
 30
0.0
 10
35.1134
 20
-5.1227
 30
0.0
 10
35.0019
 20
-5.1622
 30
0.0
 10
34.9201
 20
-5.2417
 30
0.0
 10
34.9201
 20
-5.2417
 30
0.0
 10
34.8382
 20
-5.3212
 30
0.0
 10
34.7973
 20
-5.4251
 30
0.0
 10
34.7973
 20
-5.554
 30
0.0
 10
34.7973
 20
-5.554
 30
0.0
 10
34.7973
 20
-5.634
 30
0.0
 10
34.8156
 20
-5.7059
 30
0.0
 10
34.8518
 20
-5.7704
 30
0.0
 10
34.8518
 20
-5.7704
 30
0.0
 10
34.8881
 20
-5.8348
 30
0.0
 10
34.9351
 20
-5.8851
 30
0.0
 10
34.993
 20
-5.9218
 30
0.0
 10
34.993
 20
-5.9218
 30
0.0
 10
34.993
 20
-5.9218
 30
0.0
 10
34.9629
 20
-6.1547
 30
0.0
 10
34.9629
 20
-6.1547
 30
0.0
 10
34.9629
 20
-6.1547
 30
0.0
 10
34.9629
 20
-6.1547
 30
0.0
 10
33.9252
 20
-5.959
 30
0.0
 10
33.9252
 20
-5.959
 30
0.0
 10
33.9252
 20
-5.959
 30
0.0
 10
33.9252
 20
-5.959
 30
0.0
 10
33.9252
 20
-4.9543
 30
0.0
 10
33.9252
 20
-4.9543
 30
0.0
 10
33.9252
 20
-4.9543
 30
0.0
 10
33.9252
 20
-4.9543
 30
0.0
 10
34.1623
 20
-4.9543
 30
0.0
 10
34.1623
 20
-4.9543
 30
0.0
 10
34.1623
 20
-4.9543
 30
0.0
 10
34.1623
 20
-4.9543
 30
0.0
 10
34.1623
 20
-5.7605
 30
0.0
 10
34.1623
 20
-5.7605
 30
0.0
 10
34.1623
 20
-5.7605
 30
0.0
 10
34.1623
 20
-5.7605
 30
0.0
 10
34.7051
 20
-5.8696
 30
0.0
 10
34.7051
 20
-5.8696
 30
0.0
 10
34.7051
 20
-5.8696
 30
0.0
 10
34.6204
 20
-5.7483
 30
0.0
 10
34.5781
 20
-5.6208
 30
0.0
 10
34.5781
 20
-5.4877
 30
0.0
 10
34.5781
 20
-5.4877
 30
0.0
 10
34.5781
 20
-5.3113
 30
0.0
 10
34.6392
 20
-5.1627
 30
0.0
 10
34.7615
 20
-5.0413
 30
0.0
 10
34.7615
 20
-5.0413
 30
0.0
 10
34.8838
 20
-4.92
 30
0.0
 10
35.0409
 20
-4.8593
 30
0.0
 10
35.2328
 20
-4.8593
 30
0.0
 10
35.2328
 20
-4.8593
 30
0.0
 10
35.4158
 20
-4.8593
 30
0.0
 10
35.5739
 20
-4.9129
 30
0.0
 10
35.707
 20
-5.0192
 30
0.0
 10
35.707
 20
-5.0192
 30
0.0
 10
35.8702
 20
-5.149
 30
0.0
 10
35.952
 20
-5.3259
 30
0.0
 10
35.952
 20
-5.5498
 30
0.0
 10
35.952
 20
-5.5498
 30
0.0
 10
35.952
 20
-5.7337
 30
0.0
 10
35.9008
 20
-5.8837
 30
0.0
 10
35.7978
 20
-5.9999
 30
0.0
 10
35.7978
 20
-5.9999
 30
0.0
 10
35.6947
 20
-6.1161
 30
0.0
 10
35.5583
 20
-6.1824
 30
0.0
 10
35.3885
 20
-6.1989
 30
0.0
  0
SPLINE
  5
B2
330
1F
100
AcDbEntity
  8
ROUND
 62
   250
100
AcDbSpline
210
0.0
220
0.0
230
1.0
 70
    11
 71
     3
 72
    20
 73
    16
 74
     0
 42
0.0000000001
 43
0.0000000001
 40
0.0
 40
0.0
 40
0.0
 40
0.0
 40
0.2
 40
0.2
 40
0.2
 40
0.2
 40
0.4
 40
0.4
 40
0.4
 40
0.4
 40
0.6
 40
0.6
 40
0.6
 40
0.6
 40
1.0
 40
1.0
 40
1.0
 40
1.0
 10
-33.3227
 20
-28.8495
 30
0.0
 10
-33.3227
 20
-28.8495
 30
0.0
 10
-30.3226
 20
-29.2728
 30
0.0
 10
-30.3226
 20
-29.2728
 30
0.0
 10
-30.3226
 20
-29.2728
 30
0.0
 10
-30.3226
 20
-29.2728
 30
0.0
 10
-30.3226
 20
-29.3669
 30
0.0
 10
-30.3226
 20
-29.3669
 30
0.0
 10
-30.3226
 20
-29.3669
 30
0.0
 10
-30.3226
 20
-29.3669
 30
0.0
 10
-33.3227
 20
-29.8184
 30
0.0
 10
-33.3227
 20
-29.8184
 30
0.0
 10
-33.3227
 20
-29.8184
 30
0.0
 10
-33.3227
 20
-29.8184
 30
0.0
 10
-33.3227
 20
-28.8495
 30
0.0
 10
-33.3227
 20
-28.8495
 30
0.0
  0
SPLINE
  5
B3
330
1F
100
AcDbEntity
  8
ROUND
 62
   250
100
AcDbSpline
210
0.0
220
0.0
230
1.0
 70
    11
 71
     3
 72
    20
 73
    16
 74
     0
 42
0.0000000001
 43
0.0000000001
 40
0.0
 40
0.0
 40
0.0
 40
0.0
 40
0.2
 40
0.2
 40
0.2
 40
0.2
 40
0.4
 40
0.4
 40
0.4
 40
0.4
 40
0.6
 40
0.6
 40
0.6
 40
0.6
 40
1.0
 40
1.0
 40
1.0
 40
1.0
 10
-17.3083
 20
-29.8184
 30
0.0
 10
-17.3083
 20
-29.8184
 30
0.0
 10
-20.3084
 20
-29.395
 30
0.0
 10
-20.3084
 20
-29.395
 30
0.0
 10
-20.3084
 20
-29.395
 30
0.0
 10
-20.3084
 20
-29.395
 30
0.0
 10
-20.3084
 20
-29.3009
 30
0.0
 10
-20.3084
 20
-29.3009
 30
0.0
 10
-20.3084
 20
-29.3009
 30
0.0
 10
-20.3084
 20
-29.3009
 30
0.0
 10
-17.3083
 20
-28.8494
 30
0.0
 10
-17.3083
 20
-28.8494
 30
0.0
 10
-17.3083
 20
-28.8494
 30
0.0
 10
-17.3083
 20
-28.8494
 30
0.0
 10
-17.3083
 20
-29.8184
 30
0.0
 10
-17.3083
 20
-29.8184
 30
0.0
  0
SPLINE
  5
B4
330
1F
100
AcDbEntity
  8
ROUND
 62
   250
100
AcDbSpline
210
0.0
220
0.0
230
1.0
 70
    11
 71
     3
 72
    48
 73
    44
 74
     0
 42
0.0000000001
 43
0.0000000001
 40
0.0
 40
0.0
 40
0.0
 40
0.0
 40
0.0833333333333333
 40
0.0833333333333333
 40
0.0833333333333333
 40
0.0833333333333333
 40
0.1666666666666667
 40
0.1666666666666667
 40
0.1666666666666667
 40
0.1666666666666667
 40
0.25
 40
0.25
 40
0.25
 40
0.25
 40
0.3333333333333333
 40
0.3333333333333333
 40
0.3333333333333333
 40
0.3333333333333333
 40
0.4166666666666667
 40
0.4166666666666667
 40
0.4166666666666667
 40
0.4166666666666667
 40
0.5
 40
0.5
 40
0.5
 40
0.5
 40
0.5833333333333334
 40
0.5833333333333334
 40
0.5833333333333334
 40
0.5833333333333334
 40
0.6666666666666666
 40
0.6666666666666666
 40
0.6666666666666666
 40
0.6666666666666666
 40
0.75
 40
0.75
 40
0.75
 40
0.75
 40
0.8333333333333334
 40
0.8333333333333334
 40
0.8333333333333334
 40
0.8333333333333334
 40
1.0
 40
1.0
 40
1.0
 40
1.0
 10
-28.0199
 20
-28.8582
 30
0.0
 10
-28.0199
 20
-28.8582
 30
0.0
 10
-28.0199
 20
-28.3747
 30
0.0
 10
-28.0199
 20
-28.3747
 30
0.0
 10
-28.0199
 20
-28.3747
 30
0.0
 10
-28.0199
 20
-28.3747
 30
0.0
 10
-28.8962
 20
-28.3747
 30
0.0
 10
-28.8962
 20
-28.3747
 30
0.0
 10
-28.8962
 20
-28.3747
 30
0.0
 10
-28.8962
 20
-28.3747
 30
0.0
 10
-28.8962
 20
-28.147
 30
0.0
 10
-28.8962
 20
-28.147
 30
0.0
 10
-28.8962
 20
-28.147
 30
0.0
 10
-28.8962
 20
-28.147
 30
0.0
 10
-27.9742
 20
-26.838
 30
0.0
 10
-27.9742
 20
-26.838
 30
0.0
 10
-27.9742
 20
-26.838
 30
0.0
 10
-27.9742
 20
-26.838
 30
0.0
 10
-27.7715
 20
-26.838
 30
0.0
 10
-27.7715
 20
-26.838
 30
0.0
 10
-27.7715
 20
-26.838
 30
0.0
 10
-27.7715
 20
-26.838
 30
0.0
 10
-27.7715
 20
-28.147
 30
0.0
 10
-27.7715
 20
-28.147
 30
0.0
 10
-27.7715
 20
-28.147
 30
0.0
 10
-27.7715
 20
-28.147
 30
0.0
 10
-27.4987
 20
-28.147
 30
0.0
 10
-27.4987
 20
-28.147
 30
0.0
 10
-27.4987
 20
-28.147
 30
0.0
 10
-27.4987
 20
-28.147
 30
0.0
 10
-27.4987
 20
-28.3747
 30
0.0
 10
-27.4987
 20
-28.3747
 30
0.0
 10
-27.4987
 20
-28.3747
 30
0.0
 10
-27.4987
 20
-28.3747
 30
0.0
 10
-27.7715
 20
-28.3747
 30
0.0
 10
-27.7715
 20
-28.3747
 30
0.0
 10
-27.7715
 20
-28.3747
 30
0.0
 10
-27.7715
 20
-28.3747
 30
0.0
 10
-27.7715
 20
-28.8582
 30
0.0
 10
-27.7715
 20
-28.8582
 30
0.0
 10
-27.7715
 20
-28.8582
 30
0.0
 10
-27.7715
 20
-28.8582
 30
0.0
 10
-28.0199
 20
-28.8582
 30
0.0
 10
-28.0199
 20
-28.8582
 30
0.0
  0
SPLINE
  5
B5
330
1F
100
AcDbEntity
  8
ROUND
 62
   250
100
AcDbSpline
210
0.0
220
0.0
230
1.0
 70
    11
 71
     3
 72
    16
 73
    12
 74
     0
 42
0.0000000001
 43
0.0000000001
 40
0.0
 40
0.0
 40
0.0
 40
0.0
 40
0.25
 40
0.25
 40
0.25
 40
0.25
 40
0.5
 40
0.5
 40
0.5
 40
0.5
 40
1.0
 40
1.0
 40
1.0
 40
1.0
 10
-28.0199
 20
-28.147
 30
0.0
 10
-28.0199
 20
-28.147
 30
0.0
 10
-28.0199
 20
-27.2364
 30
0.0
 10
-28.0199
 20
-27.2364
 30
0.0
 10
-28.0199
 20
-27.2364
 30
0.0
 10
-28.0199
 20
-27.2364
 30
0.0
 10
-28.652
 20
-28.147
 30
0.0
 10
-28.652
 20
-28.147
 30
0.0
 10
-28.652
 20
-28.147
 30
0.0
 10
-28.652
 20
-28.147
 30
0.0
 10
-28.0199
 20
-28.147
 30
0.0
 10
-28.0199
 20
-28.147
 30
0.0
  0
SPLINE
  5
B6
330
1F
100
AcDbEntity
  8
ROUND
 62
   250
100
AcDbSpline
210
0.0
220
0.0
230
1.0
 70
    11
 71
     3
 72
    92
 73
    88
 74
     0
 42
0.0000000001
 43
0.0000000001
 40
0.0
 40
0.0
 40
0.0
 40
0.0
 40
0.0434782608695652
 40
0.0434782608695652
 40
0.0434782608695652
 40
0.0434782608695652
 40
0.0869565217391304
 40
0.0869565217391304
 40
0.0869565217391304
 40
0.0869565217391304
 40
0.1304347826086956
 40
0.1304347826086956
 40
0.1304347826086956
 40
0.1304347826086956
 40
0.1739130434782609
 40
0.1739130434782609
 40
0.1739130434782609
 40
0.1739130434782609
 40
0.2173913043478261
 40
0.2173913043478261
 40
0.2173913043478261
 40
0.2173913043478261
 40
0.2608695652173913
 40
0.2608695652173913
 40
0.2608695652173913
 40
0.2608695652173913
 40
0.3043478260869565
 40
0.3043478260869565
 40
0.3043478260869565
 40
0.3043478260869565
 40
0.3478260869565217
 40
0.3478260869565217
 40
0.3478260869565217
 40
0.3478260869565217
 40
0.391304347826087
 40
0.391304347826087
 40
0.391304347826087
 40
0.391304347826087
 40
0.4347826086956522
 40
0.4347826086956522
 40
0.4347826086956522
 40
0.4347826086956522
 40
0.4782608695652174
 40
0.4782608695652174
 40
0.4782608695652174
 40
0.4782608695652174
 40
0.5217391304347826
 40
0.5217391304347826
 40
0.5217391304347826
 40
0.5217391304347826
 40
0.5652173913043478
 40
0.5652173913043478
 40
0.5652173913043478
 40
0.5652173913043478
 40
0.6086956521739131
 40
0.6086956521739131
 40
0.6086956521739131
 40
0.6086956521739131
 40
0.6521739130434783
 40
0.6521739130434783
 40
0.6521739130434783
 40
0.6521739130434783
 40
0.6956521739130435
 40
0.6956521739130435
 40
0.6956521739130435
 40
0.6956521739130435
 40
0.7391304347826086
 40
0.7391304347826086
 40
0.7391304347826086
 40
0.7391304347826086
 40
0.782608695652174
 40
0.782608695652174
 40
0.782608695652174
 40
0.782608695652174
 40
0.8260869565217391
 40
0.8260869565217391
 40
0.8260869565217391
 40
0.8260869565217391
 40
0.8695652173913043
 40
0.8695652173913043
 40
0.8695652173913043
 40
0.8695652173913043
 40
0.9130434782608695
 40
0.9130434782608695
 40
0.9130434782608695
 40
0.9130434782608695
 40
1.0
 40
1.0
 40
1.0
 40
1.0
 10
-27.2452
 20
-28.329
 30
0.0
 10
-27.2452
 20
-28.329
 30
0.0
 10
-26.9846
 20
-28.3069
 30
0.0
 10
-26.9846
 20
-28.3069
 30
0.0
 10
-26.9846
 20
-28.3069
 30
0.0
 10
-26.9653
 20
-28.4339
 30
0.0
 10
-26.9206
 20
-28.5289
 30
0.0
 10
-26.8505
 20
-28.5929
 30
0.0
 10
-26.8505
 20
-28.5929
 30
0.0
 10
-26.78
 20
-28.6569
 30
0.0
 10
-26.6953
 20
-28.6889
 30
0.0
 10
-26.5961
 20
-28.6889
 30
0.0
 10
-26.5961
 20
-28.6889
 30
0.0
 10
-26.4766
 20
-28.6889
 30
0.0
 10
-26.3755
 20
-28.6437
 30
0.0
 10
-26.2932
 20
-28.5539
 30
0.0
 10
-26.2932
 20
-28.5539
 30
0.0
 10
-26.2104
 20
-28.4636
 30
0.0
 10
-26.169
 20
-28.3441
 30
0.0
 10
-26.169
 20
-28.1955
 30
0.0
 10
-26.169
 20
-28.1955
 30
0.0
 10
-26.169
 20
-28.0539
 30
0.0
 10
-26.2085
 20
-27.9424
 30
0.0
 10
-26.288
 20
-27.8606
 30
0.0
 10
-26.288
 20
-27.8606
 30
0.0
 10
-26.3675
 20
-27.7787
 30
0.0
 10
-26.4714
 20
-27.7378
 30
0.0
 10
-26.6003
 20
-27.7378
 30
0.0
 10
-26.6003
 20
-27.7378
 30
0.0
 10
-26.6803
 20
-27.7378
 30
0.0
 10
-26.7522
 20
-27.7561
 30
0.0
 10
-26.8167
 20
-27.7923
 30
0.0
 10
-26.8167
 20
-27.7923
 30
0.0
 10
-26.8811
 20
-27.8286
 30
0.0
 10
-26.9314
 20
-27.8756
 30
0.0
 10
-26.9681
 20
-27.9335
 30
0.0
 10
-26.9681
 20
-27.9335
 30
0.0
 10
-26.9681
 20
-27.9335
 30
0.0
 10
-27.201
 20
-27.9034
 30
0.0
 10
-27.201
 20
-27.9034
 30
0.0
 10
-27.201
 20
-27.9034
 30
0.0
 10
-27.201
 20
-27.9034
 30
0.0
 10
-27.0053
 20
-26.8657
 30
0.0
 10
-27.0053
 20
-26.8657
 30
0.0
 10
-27.0053
 20
-26.8657
 30
0.0
 10
-27.0053
 20
-26.8657
 30
0.0
 10
-26.0006
 20
-26.8657
 30
0.0
 10
-26.0006
 20
-26.8657
 30
0.0
 10
-26.0006
 20
-26.8657
 30
0.0
 10
-26.0006
 20
-26.8657
 30
0.0
 10
-26.0006
 20
-27.1028
 30
0.0
 10
-26.0006
 20
-27.1028
 30
0.0
 10
-26.0006
 20
-27.1028
 30
0.0
 10
-26.0006
 20
-27.1028
 30
0.0
 10
-26.8068
 20
-27.1028
 30
0.0
 10
-26.8068
 20
-27.1028
 30
0.0
 10
-26.8068
 20
-27.1028
 30
0.0
 10
-26.8068
 20
-27.1028
 30
0.0
 10
-26.9159
 20
-27.6456
 30
0.0
 10
-26.9159
 20
-27.6456
 30
0.0
 10
-26.9159
 20
-27.6456
 30
0.0
 10
-26.7946
 20
-27.5609
 30
0.0
 10
-26.6671
 20
-27.5186
 30
0.0
 10
-26.534
 20
-27.5186
 30
0.0
 10
-26.534
 20
-27.5186
 30
0.0
 10
-26.3576
 20
-27.5186
 30
0.0
 10
-26.209
 20
-27.5797
 30
0.0
 10
-26.0876
 20
-27.702
 30
0.0
 10
-26.0876
 20
-27.702
 30
0.0
 10
-25.9663
 20
-27.8243
 30
0.0
 10
-25.9056
 20
-27.9814
 30
0.0
 10
-25.9056
 20
-28.1733
 30
0.0
 10
-25.9056
 20
-28.1733
 30
0.0
 10
-25.9056
 20
-28.3563
 30
0.0
 10
-25.9592
 20
-28.5144
 30
0.0
 10
-26.0655
 20
-28.6475
 30
0.0
 10
-26.0655
 20
-28.6475
 30
0.0
 10
-26.1953
 20
-28.8107
 30
0.0
 10
-26.3722
 20
-28.8925
 30
0.0
 10
-26.5961
 20
-28.8925
 30
0.0
 10
-26.5961
 20
-28.8925
 30
0.0
 10
-26.78
 20
-28.8925
 30
0.0
 10
-26.93
 20
-28.8413
 30
0.0
 10
-27.0462
 20
-28.7383
 30
0.0
 10
-27.0462
 20
-28.7383
 30
0.0
 10
-27.1624
 20
-28.6352
 30
0.0
 10
-27.2287
 20
-28.4988
 30
0.0
 10
-27.2452
 20
-28.329
 30
0.0
  0
SPLINE
  5
B7
330
1F
100
AcDbEntity
  8
ROUND
 62
   250
100
AcDbSpline
210
0.0
220
0.0
230
1.0
 70
    11
 71
     3
 72
    64
 73
    60
 74
     0
 42
0.0000000001
 43
0.0000000001
 40
0.0
 40
0.0
 40
0.0
 40
0.0
 40
0.0625
 40
0.0625
 40
0.0625
 40
0.0625
 40
0.125
 40
0.125
 40
0.125
 40
0.125
 40
0.1875
 40
0.1875
 40
0.1875
 40
0.1875
 40
0.25
 40
0.25
 40
0.25
 40
0.25
 40
0.3125
 40
0.3125
 40
0.3125
 40
0.3125
 40
0.375
 40
0.375
 40
0.375
 40
0.375
 40
0.4375
 40
0.4375
 40
0.4375
 40
0.4375
 40
0.5
 40
0.5
 40
0.5
 40
0.5
 40
0.5625
 40
0.5625
 40
0.5625
 40
0.5625
 40
0.625
 40
0.625
 40
0.625
 40
0.625
 40
0.6875
 40
0.6875
 40
0.6875
 40
0.6875
 40
0.75
 40
0.75
 40
0.75
 40
0.75
 40
0.8125
 40
0.8125
 40
0.8125
 40
0.8125
 40
0.875
 40
0.875
 40
0.875
 40
0.875
 40
1.0
 40
1.0
 40
1.0
 40
1.0
 10
-25.772
 20
-28.8582
 30
0.0
 10
-25.772
 20
-28.8582
 30
0.0
 10
-25.2372
 20
-28.0976
 30
0.0
 10
-25.2372
 20
-28.0976
 30
0.0
 10
-25.2372
 20
-28.0976
 30
0.0
 10
-25.2372
 20
-28.0976
 30
0.0
 10
-25.732
 20
-27.3949
 30
0.0
 10
-25.732
 20
-27.3949
 30
0.0
 10
-25.732
 20
-27.3949
 30
0.0
 10
-25.732
 20
-27.3949
 30
0.0
 10
-25.4221
 20
-27.3949
 30
0.0
 10
-25.4221
 20
-27.3949
 30
0.0
 10
-25.4221
 20
-27.3949
 30
0.0
 10
-25.4221
 20
-27.3949
 30
0.0
 10
-25.1972
 20
-27.7378
 30
0.0
 10
-25.1972
 20
-27.7378
 30
0.0
 10
-25.1972
 20
-27.7378
 30
0.0
 10
-25.1554
 20
-27.8032
 30
0.0
 10
-25.121
 20
-27.8577
 30
0.0
 10
-25.0956
 20
-27.9019
 30
0.0
 10
-25.0956
 20
-27.9019
 30
0.0
 10
-25.0552
 20
-27.8413
 30
0.0
 10
-25.018
 20
-27.7876
 30
0.0
 10
-24.9837
 20
-27.7406
 30
0.0
 10
-24.9837
 20
-27.7406
 30
0.0
 10
-24.9837
 20
-27.7406
 30
0.0
 10
-24.7372
 20
-27.3949
 30
0.0
 10
-24.7372
 20
-27.3949
 30
0.0
 10
-24.7372
 20
-27.3949
 30
0.0
 10
-24.7372
 20
-27.3949
 30
0.0
 10
-24.4409
 20
-27.3949
 30
0.0
 10
-24.4409
 20
-27.3949
 30
0.0
 10
-24.4409
 20
-27.3949
 30
0.0
 10
-24.4409
 20
-27.3949
 30
0.0
 10
-24.9465
 20
-28.084
 30
0.0
 10
-24.9465
 20
-28.084
 30
0.0
 10
-24.9465
 20
-28.084
 30
0.0
 10
-24.9465
 20
-28.084
 30
0.0
 10
-24.4023
 20
-28.8582
 30
0.0
 10
-24.4023
 20
-28.8582
 30
0.0
 10
-24.4023
 20
-28.8582
 30
0.0
 10
-24.4023
 20
-28.8582
 30
0.0
 10
-24.7066
 20
-28.8582
 30
0.0
 10
-24.7066
 20
-28.8582
 30
0.0
 10
-24.7066
 20
-28.8582
 30
0.0
 10
-24.7066
 20
-28.8582
 30
0.0
 10
-25.0072
 20
-28.4034
 30
0.0
 10
-25.0072
 20
-28.4034
 30
0.0
 10
-25.0072
 20
-28.4034
 30
0.0
 10
-25.0072
 20
-28.4034
 30
0.0
 10
-25.0871
 20
-28.2806
 30
0.0
 10
-25.0871
 20
-28.2806
 30
0.0
 10
-25.0871
 20
-28.2806
 30
0.0
 10
-25.0871
 20
-28.2806
 30
0.0
 10
-25.4714
 20
-28.8582
 30
0.0
 10
-25.4714
 20
-28.8582
 30
0.0
 10
-25.4714
 20
-28.8582
 30
0.0
 10
-25.4714
 20
-28.8582
 30
0.0
 10
-25.772
 20
-28.8582
 30
0.0
 10
-25.772
 20
-28.8582
 30
0.0
  0
SPLINE
  5
B8
330
1F
100
AcDbEntity
  8
ROUND
 62
   250
100
AcDbSpline
210
0.0
220
0.0
230
1.0
 70
    11
 71
     3
 72
    48
 73
    44
 74
     0
 42
0.0000000001
 43
0.0000000001
 40
0.0
 40
0.0
 40
0.0
 40
0.0
 40
0.0833333333333333
 40
0.0833333333333333
 40
0.0833333333333333
 40
0.0833333333333333
 40
0.1666666666666667
 40
0.1666666666666667
 40
0.1666666666666667
 40
0.1666666666666667
 40
0.25
 40
0.25
 40
0.25
 40
0.25
 40
0.3333333333333333
 40
0.3333333333333333
 40
0.3333333333333333
 40
0.3333333333333333
 40
0.4166666666666667
 40
0.4166666666666667
 40
0.4166666666666667
 40
0.4166666666666667
 40
0.5
 40
0.5
 40
0.5
 40
0.5
 40
0.5833333333333334
 40
0.5833333333333334
 40
0.5833333333333334
 40
0.5833333333333334
 40
0.6666666666666666
 40
0.6666666666666666
 40
0.6666666666666666
 40
0.6666666666666666
 40
0.75
 40
0.75
 40
0.75
 40
0.75
 40
0.8333333333333334
 40
0.8333333333333334
 40
0.8333333333333334
 40
0.8333333333333334
 40
1.0
 40
1.0
 40
1.0
 40
1.0
 10
-23.4696
 20
-28.8582
 30
0.0
 10
-23.4696
 20
-28.8582
 30
0.0
 10
-23.4696
 20
-28.3747
 30
0.0
 10
-23.4696
 20
-28.3747
 30
0.0
 10
-23.4696
 20
-28.3747
 30
0.0
 10
-23.4696
 20
-28.3747
 30
0.0
 10
-24.3459
 20
-28.3747
 30
0.0
 10
-24.3459
 20
-28.3747
 30
0.0
 10
-24.3459
 20
-28.3747
 30
0.0
 10
-24.3459
 20
-28.3747
 30
0.0
 10
-24.3459
 20
-28.147
 30
0.0
 10
-24.3459
 20
-28.147
 30
0.0
 10
-24.3459
 20
-28.147
 30
0.0
 10
-24.3459
 20
-28.147
 30
0.0
 10
-23.4239
 20
-26.838
 30
0.0
 10
-23.4239
 20
-26.838
 30
0.0
 10
-23.4239
 20
-26.838
 30
0.0
 10
-23.4239
 20
-26.838
 30
0.0
 10
-23.2212
 20
-26.838
 30
0.0
 10
-23.2212
 20
-26.838
 30
0.0
 10
-23.2212
 20
-26.838
 30
0.0
 10
-23.2212
 20
-26.838
 30
0.0
 10
-23.2212
 20
-28.147
 30
0.0
 10
-23.2212
 20
-28.147
 30
0.0
 10
-23.2212
 20
-28.147
 30
0.0
 10
-23.2212
 20
-28.147
 30
0.0
 10
-22.9484
 20
-28.147
 30
0.0
 10
-22.9484
 20
-28.147
 30
0.0
 10
-22.9484
 20
-28.147
 30
0.0
 10
-22.9484
 20
-28.147
 30
0.0
 10
-22.9484
 20
-28.3747
 30
0.0
 10
-22.9484
 20
-28.3747
 30
0.0
 10
-22.9484
 20
-28.3747
 30
0.0
 10
-22.9484
 20
-28.3747
 30
0.0
 10
-23.2212
 20
-28.3747
 30
0.0
 10
-23.2212
 20
-28.3747
 30
0.0
 10
-23.2212
 20
-28.3747
 30
0.0
 10
-23.2212
 20
-28.3747
 30
0.0
 10
-23.2212
 20
-28.8582
 30
0.0
 10
-23.2212
 20
-28.8582
 30
0.0
 10
-23.2212
 20
-28.8582
 30
0.0
 10
-23.2212
 20
-28.8582
 30
0.0
 10
-23.4696
 20
-28.8582
 30
0.0
 10
-23.4696
 20
-28.8582
 30
0.0
  0
SPLINE
  5
B9
330
1F
100
AcDbEntity
  8
ROUND
 62
   250
100
AcDbSpline
210
0.0
220
0.0
230
1.0
 70
    11
 71
     3
 72
    16
 73
    12
 74
     0
 42
0.0000000001
 43
0.0000000001
 40
0.0
 40
0.0
 40
0.0
 40
0.0
 40
0.25
 40
0.25
 40
0.25
 40
0.25
 40
0.5
 40
0.5
 40
0.5
 40
0.5
 40
1.0
 40
1.0
 40
1.0
 40
1.0
 10
-23.4696
 20
-28.147
 30
0.0
 10
-23.4696
 20
-28.147
 30
0.0
 10
-23.4696
 20
-27.2364
 30
0.0
 10
-23.4696
 20
-27.2364
 30
0.0
 10
-23.4696
 20
-27.2364
 30
0.0
 10
-23.4696
 20
-27.2364
 30
0.0
 10
-24.1017
 20
-28.147
 30
0.0
 10
-24.1017
 20
-28.147
 30
0.0
 10
-24.1017
 20
-28.147
 30
0.0
 10
-24.1017
 20
-28.147
 30
0.0
 10
-23.4696
 20
-28.147
 30
0.0
 10
-23.4696
 20
-28.147
 30
0.0
  0
SPLINE
  5
BA
330
1F
100
AcDbEntity
  8
ROUND
 62
   250
100
AcDbSpline
210
0.0
220
0.0
230
1.0
 70
    11
 71
     3
 72
    92
 73
    88
 74
     0
 42
0.0000000001
 43
0.0000000001
 40
0.0
 40
0.0
 40
0.0
 40
0.0
 40
0.0434782608695652
 40
0.0434782608695652
 40
0.0434782608695652
 40
0.0434782608695652
 40
0.0869565217391304
 40
0.0869565217391304
 40
0.0869565217391304
 40
0.0869565217391304
 40
0.1304347826086956
 40
0.1304347826086956
 40
0.1304347826086956
 40
0.1304347826086956
 40
0.1739130434782609
 40
0.1739130434782609
 40
0.1739130434782609
 40
0.1739130434782609
 40
0.2173913043478261
 40
0.2173913043478261
 40
0.2173913043478261
 40
0.2173913043478261
 40
0.2608695652173913
 40
0.2608695652173913
 40
0.2608695652173913
 40
0.2608695652173913
 40
0.3043478260869565
 40
0.3043478260869565
 40
0.3043478260869565
 40
0.3043478260869565
 40
0.3478260869565217
 40
0.3478260869565217
 40
0.3478260869565217
 40
0.3478260869565217
 40
0.391304347826087
 40
0.391304347826087
 40
0.391304347826087
 40
0.391304347826087
 40
0.4347826086956522
 40
0.4347826086956522
 40
0.4347826086956522
 40
0.4347826086956522
 40
0.4782608695652174
 40
0.4782608695652174
 40
0.4782608695652174
 40
0.4782608695652174
 40
0.5217391304347826
 40
0.5217391304347826
 40
0.5217391304347826
 40
0.5217391304347826
 40
0.5652173913043478
 40
0.5652173913043478
 40
0.5652173913043478
 40
0.5652173913043478
 40
0.6086956521739131
 40
0.6086956521739131
 40
0.6086956521739131
 40
0.6086956521739131
 40
0.6521739130434783
 40
0.6521739130434783
 40
0.6521739130434783
 40
0.6521739130434783
 40
0.6956521739130435
 40
0.6956521739130435
 40
0.6956521739130435
 40
0.6956521739130435
 40
0.7391304347826086
 40
0.7391304347826086
 40
0.7391304347826086
 40
0.7391304347826086
 40
0.782608695652174
 40
0.782608695652174
 40
0.782608695652174
 40
0.782608695652174
 40
0.8260869565217391
 40
0.8260869565217391
 40
0.8260869565217391
 40
0.8260869565217391
 40
0.8695652173913043
 40
0.8695652173913043
 40
0.8695652173913043
 40
0.8695652173913043
 40
0.9130434782608695
 40
0.9130434782608695
 40
0.9130434782608695
 40
0.9130434782608695
 40
1.0
 40
1.0
 40
1.0
 40
1.0
 10
-22.6949
 20
-28.329
 30
0.0
 10
-22.6949
 20
-28.329
 30
0.0
 10
-22.4343
 20
-28.3069
 30
0.0
 10
-22.4343
 20
-28.3069
 30
0.0
 10
-22.4343
 20
-28.3069
 30
0.0
 10
-22.415
 20
-28.4339
 30
0.0
 10
-22.3703
 20
-28.5289
 30
0.0
 10
-22.3002
 20
-28.5929
 30
0.0
 10
-22.3002
 20
-28.5929
 30
0.0
 10
-22.2297
 20
-28.6569
 30
0.0
 10
-22.145
 20
-28.6889
 30
0.0
 10
-22.0458
 20
-28.6889
 30
0.0
 10
-22.0458
 20
-28.6889
 30
0.0
 10
-21.9263
 20
-28.6889
 30
0.0
 10
-21.8252
 20
-28.6437
 30
0.0
 10
-21.7429
 20
-28.5539
 30
0.0
 10
-21.7429
 20
-28.5539
 30
0.0
 10
-21.6601
 20
-28.4636
 30
0.0
 10
-21.6187
 20
-28.3441
 30
0.0
 10
-21.6187
 20
-28.1955
 30
0.0
 10
-21.6187
 20
-28.1955
 30
0.0
 10
-21.6187
 20
-28.0539
 30
0.0
 10
-21.6582
 20
-27.9424
 30
0.0
 10
-21.7377
 20
-27.8606
 30
0.0
 10
-21.7377
 20
-27.8606
 30
0.0
 10
-21.8172
 20
-27.7787
 30
0.0
 10
-21.9211
 20
-27.7378
 30
0.0
 10
-22.05
 20
-27.7378
 30
0.0
 10
-22.05
 20
-27.7378
 30
0.0
 10
-22.13
 20
-27.7378
 30
0.0
 10
-22.2019
 20
-27.7561
 30
0.0
 10
-22.2664
 20
-27.7923
 30
0.0
 10
-22.2664
 20
-27.7923
 30
0.0
 10
-22.3308
 20
-27.8286
 30
0.0
 10
-22.3811
 20
-27.8756
 30
0.0
 10
-22.4178
 20
-27.9335
 30
0.0
 10
-22.4178
 20
-27.9335
 30
0.0
 10
-22.4178
 20
-27.9335
 30
0.0
 10
-22.6507
 20
-27.9034
 30
0.0
 10
-22.6507
 20
-27.9034
 30
0.0
 10
-22.6507
 20
-27.9034
 30
0.0
 10
-22.6507
 20
-27.9034
 30
0.0
 10
-22.455
 20
-26.8657
 30
0.0
 10
-22.455
 20
-26.8657
 30
0.0
 10
-22.455
 20
-26.8657
 30
0.0
 10
-22.455
 20
-26.8657
 30
0.0
 10
-21.4503
 20
-26.8657
 30
0.0
 10
-21.4503
 20
-26.8657
 30
0.0
 10
-21.4503
 20
-26.8657
 30
0.0
 10
-21.4503
 20
-26.8657
 30
0.0
 10
-21.4503
 20
-27.1028
 30
0.0
 10
-21.4503
 20
-27.1028
 30
0.0
 10
-21.4503
 20
-27.1028
 30
0.0
 10
-21.4503
 20
-27.1028
 30
0.0
 10
-22.2565
 20
-27.1028
 30
0.0
 10
-22.2565
 20
-27.1028
 30
0.0
 10
-22.2565
 20
-27.1028
 30
0.0
 10
-22.2565
 20
-27.1028
 30
0.0
 10
-22.3656
 20
-27.6456
 30
0.0
 10
-22.3656
 20
-27.6456
 30
0.0
 10
-22.3656
 20
-27.6456
 30
0.0
 10
-22.2443
 20
-27.5609
 30
0.0
 10
-22.1168
 20
-27.5186
 30
0.0
 10
-21.9837
 20
-27.5186
 30
0.0
 10
-21.9837
 20
-27.5186
 30
0.0
 10
-21.8073
 20
-27.5186
 30
0.0
 10
-21.6587
 20
-27.5797
 30
0.0
 10
-21.5373
 20
-27.702
 30
0.0
 10
-21.5373
 20
-27.702
 30
0.0
 10
-21.416
 20
-27.8243
 30
0.0
 10
-21.3553
 20
-27.9814
 30
0.0
 10
-21.3553
 20
-28.1733
 30
0.0
 10
-21.3553
 20
-28.1733
 30
0.0
 10
-21.3553
 20
-28.3563
 30
0.0
 10
-21.4089
 20
-28.5144
 30
0.0
 10
-21.5152
 20
-28.6475
 30
0.0
 10
-21.5152
 20
-28.6475
 30
0.0
 10
-21.645
 20
-28.8107
 30
0.0
 10
-21.8219
 20
-28.8925
 30
0.0
 10
-22.0458
 20
-28.8925
 30
0.0
 10
-22.0458
 20
-28.8925
 30
0.0
 10
-22.2297
 20
-28.8925
 30
0.0
 10
-22.3797
 20
-28.8413
 30
0.0
 10
-22.4959
 20
-28.7383
 30
0.0
 10
-22.4959
 20
-28.7383
 30
0.0
 10
-22.6121
 20
-28.6352
 30
0.0
 10
-22.6784
 20
-28.4988
 30
0.0
 10
-22.6949
 20
-28.329
 30
0.0
  0
SPLINE
  5
BB
330
1F
100
AcDbEntity
  8
ROUND
 62
   250
100
AcDbSpline
210
0.0
220
0.0
230
1.0
 70
    11
 71
     3
 72
    20
 73
    16
 74
     0
 42
0.0000000001
 43
0.0000000001
 40
0.0
 40
0.0
 40
0.0
 40
0.0
 40
0.2
 40
0.2
 40
0.2
 40
0.2
 40
0.4
 40
0.4
 40
0.4
 40
0.4
 40
0.6
 40
0.6
 40
0.6
 40
0.6
 40
1.0
 40
1.0
 40
1.0
 40
1.0
 10
-32.9292
 20
27.1887
 30
0.0
 10
-32.9292
 20
27.1887
 30
0.0
 10
-29.9292
 20
26.7653
 30
0.0
 10
-29.9292
 20
26.7653
 30
0.0
 10
-29.9292
 20
26.7653
 30
0.0
 10
-29.9292
 20
26.7653
 30
0.0
 10
-29.9292
 20
26.6713
 30
0.0
 10
-29.9292
 20
26.6713
 30
0.0
 10
-29.9292
 20
26.6713
 30
0.0
 10
-29.9292
 20
26.6713
 30
0.0
 10
-32.9292
 20
26.2197
 30
0.0
 10
-32.9292
 20
26.2197
 30
0.0
 10
-32.9292
 20
26.2197
 30
0.0
 10
-32.9292
 20
26.2197
 30
0.0
 10
-32.9292
 20
27.1887
 30
0.0
 10
-32.9292
 20
27.1887
 30
0.0
  0
SPLINE
  5
BC
330
1F
100
AcDbEntity
  8
ROUND
 62
   250
100
AcDbSpline
210
0.0
220
0.0
230
1.0
 70
    11
 71
     3
 72
    20
 73
    16
 74
     0
 42
0.0000000001
 43
0.0000000001
 40
0.0
 40
0.0
 40
0.0
 40
0.0
 40
0.2
 40
0.2
 40
0.2
 40
0.2
 40
0.4
 40
0.4
 40
0.4
 40
0.4
 40
0.6
 40
0.6
 40
0.6
 40
0.6
 40
1.0
 40
1.0
 40
1.0
 40
1.0
 10
-17.6701
 20
26.2197
 30
0.0
 10
-17.6701
 20
26.2197
 30
0.0
 10
-20.6701
 20
26.6431
 30
0.0
 10
-20.6701
 20
26.6431
 30
0.0
 10
-20.6701
 20
26.6431
 30
0.0
 10
-20.6701
 20
26.6431
 30
0.0
 10
-20.6701
 20
26.7371
 30
0.0
 10
-20.6701
 20
26.7371
 30
0.0
 10
-20.6701
 20
26.7371
 30
0.0
 10
-20.6701
 20
26.7371
 30
0.0
 10
-17.6701
 20
27.1887
 30
0.0
 10
-17.6701
 20
27.1887
 30
0.0
 10
-17.6701
 20
27.1887
 30
0.0
 10
-17.6701
 20
27.1887
 30
0.0
 10
-17.6701
 20
26.2197
 30
0.0
 10
-17.6701
 20
26.2197
 30
0.0
  0
SPLINE
  5
BD
330
1F
100
AcDbEntity
  8
ROUND
 62
   250
100
AcDbSpline
210
0.0
220
0.0
230
1.0
 70
    11
 71
     3
 72
   120
 73
   116
 74
     0
 42
0.0000000001
 43
0.0000000001
 40
0.0
 40
0.0
 40
0.0
 40
0.0
 40
0.0333333333333333
 40
0.0333333333333333
 40
0.0333333333333333
 40
0.0333333333333333
 40
0.0666666666666667
 40
0.0666666666666667
 40
0.0666666666666667
 40
0.0666666666666667
 40
0.1
 40
0.1
 40
0.1
 40
0.1
 40
0.1333333333333333
 40
0.1333333333333333
 40
0.1333333333333333
 40
0.1333333333333333
 40
0.1666666666666667
 40
0.1666666666666667
 40
0.1666666666666667
 40
0.1666666666666667
 40
0.2
 40
0.2
 40
0.2
 40
0.2
 40
0.2333333333333333
 40
0.2333333333333333
 40
0.2333333333333333
 40
0.2333333333333333
 40
0.2666666666666667
 40
0.2666666666666667
 40
0.2666666666666667
 40
0.2666666666666667
 40
0.3
 40
0.3
 40
0.3
 40
0.3
 40
0.3333333333333333
 40
0.3333333333333333
 40
0.3333333333333333
 40
0.3333333333333333
 40
0.3666666666666666
 40
0.3666666666666666
 40
0.3666666666666666
 40
0.3666666666666666
 40
0.4
 40
0.4
 40
0.4
 40
0.4
 40
0.4333333333333333
 40
0.4333333333333333
 40
0.4333333333333333
 40
0.4333333333333333
 40
0.4666666666666667
 40
0.4666666666666667
 40
0.4666666666666667
 40
0.4666666666666667
 40
0.5
 40
0.5
 40
0.5
 40
0.5
 40
0.5333333333333333
 40
0.5333333333333333
 40
0.5333333333333333
 40
0.5333333333333333
 40
0.5666666666666667
 40
0.5666666666666667
 40
0.5666666666666667
 40
0.5666666666666667
 40
0.6
 40
0.6
 40
0.6
 40
0.6
 40
0.6333333333333333
 40
0.6333333333333333
 40
0.6333333333333333
 40
0.6333333333333333
 40
0.6666666666666666
 40
0.6666666666666666
 40
0.6666666666666666
 40
0.6666666666666666
 40
0.7
 40
0.7
 40
0.7
 40
0.7
 40
0.7333333333333333
 40
0.7333333333333333
 40
0.7333333333333333
 40
0.7333333333333333
 40
0.7666666666666667
 40
0.7666666666666667
 40
0.7666666666666667
 40
0.7666666666666667
 40
0.8
 40
0.8
 40
0.8
 40
0.8
 40
0.8333333333333334
 40
0.8333333333333334
 40
0.8333333333333334
 40
0.8333333333333334
 40
0.8666666666666667
 40
0.8666666666666667
 40
0.8666666666666667
 40
0.8666666666666667
 40
0.9
 40
0.9
 40
0.9
 40
0.9
 40
0.9333333333333333
 40
0.9333333333333333
 40
0.9333333333333333
 40
0.9333333333333333
 40
1.0
 40
1.0
 40
1.0
 40
1.0
 10
-27.9938
 20
28.8087
 30
0.0
 10
-27.9938
 20
28.8087
 30
0.0
 10
-27.9938
 20
29.0453
 30
0.0
 10
-27.9938
 20
29.0453
 30
0.0
 10
-27.9938
 20
29.0453
 30
0.0
 10
-27.9938
 20
29.0453
 30
0.0
 10
-27.1382
 20
29.0467
 30
0.0
 10
-27.1382
 20
29.0467
 30
0.0
 10
-27.1382
 20
29.0467
 30
0.0
 10
-27.1382
 20
29.0467
 30
0.0
 10
-27.1382
 20
28.2974
 30
0.0
 10
-27.1382
 20
28.2974
 30
0.0
 10
-27.1382
 20
28.2974
 30
0.0
 10
-27.2694
 20
28.1925
 30
0.0
 10
-27.4049
 20
28.1139
 30
0.0
 10
-27.5446
 20
28.0608
 30
0.0
 10
-27.5446
 20
28.0608
 30
0.0
 10
-27.6843
 20
28.0081
 30
0.0
 10
-27.8277
 20
27.9818
 30
0.0
 10
-27.9745
 20
27.9818
 30
0.0
 10
-27.9745
 20
27.9818
 30
0.0
 10
-28.173
 20
27.9818
 30
0.0
 10
-28.3536
 20
28.0241
 30
0.0
 10
-28.5154
 20
28.1092
 30
0.0
 10
-28.5154
 20
28.1092
 30
0.0
 10
-28.6777
 20
28.1939
 30
0.0
 10
-28.8
 20
28.3171
 30
0.0
 10
-28.8828
 20
28.4775
 30
0.0
 10
-28.8828
 20
28.4775
 30
0.0
 10
-28.9656
 20
28.6384
 30
0.0
 10
-29.007
 20
28.8181
 30
0.0
 10
-29.007
 20
29.0166
 30
0.0
 10
-29.007
 20
29.0166
 30
0.0
 10
-29.007
 20
29.2132
 30
0.0
 10
-28.9656
 20
29.3966
 30
0.0
 10
-28.8832
 20
29.5669
 30
0.0
 10
-28.8832
 20
29.5669
 30
0.0
 10
-28.8014
 20
29.7376
 30
0.0
 10
-28.6829
 20
29.8642
 30
0.0
 10
-28.5286
 20
29.947
 30
0.0
 10
-28.5286
 20
29.947
 30
0.0
 10
-28.3743
 20
30.0293
 30
0.0
 10
-28.1965
 20
30.0707
 30
0.0
 10
-27.9952
 20
30.0707
 30
0.0
 10
-27.9952
 20
30.0707
 30
0.0
 10
-27.8494
 20
30.0707
 30
0.0
 10
-27.7172
 20
30.0471
 30
0.0
 10
-27.5991
 20
29.9996
 30
0.0
 10
-27.5991
 20
29.9996
 30
0.0
 10
-27.4811
 20
29.9526
 30
0.0
 10
-27.3884
 20
29.8867
 30
0.0
 10
-27.3216
 20
29.8021
 30
0.0
 10
-27.3216
 20
29.8021
 30
0.0
 10
-27.2544
 20
29.7174
 30
0.0
 10
-27.2036
 20
29.6074
 30
0.0
 10
-27.1683
 20
29.4714
 30
0.0
 10
-27.1683
 20
29.4714
 30
0.0
 10
-27.1683
 20
29.4714
 30
0.0
 10
-27.4096
 20
29.4051
 30
0.0
 10
-27.4096
 20
29.4051
 30
0.0
 10
-27.4096
 20
29.4051
 30
0.0
 10
-27.4402
 20
29.5081
 30
0.0
 10
-27.4778
 20
29.589
 30
0.0
 10
-27.5225
 20
29.6478
 30
0.0
 10
-27.5225
 20
29.6478
 30
0.0
 10
-27.5676
 20
29.7066
 30
0.0
 10
-27.6321
 20
29.7536
 30
0.0
 10
-27.7158
 20
29.7889
 30
0.0
 10
-27.7158
 20
29.7889
 30
0.0
 10
-27.7991
 20
29.8242
 30
0.0
 10
-27.8922
 20
29.8421
 30
0.0
 10
-27.9938
 20
29.8421
 30
0.0
 10
-27.9938
 20
29.8421
 30
0.0
 10
-28.1161
 20
29.8421
 30
0.0
 10
-28.2219
 20
29.8232
 30
0.0
 10
-28.3108
 20
29.7861
 30
0.0
 10
-28.3108
 20
29.7861
 30
0.0
 10
-28.4002
 20
29.7489
 30
0.0
 10
-28.4717
 20
29.7
 30
0.0
 10
-28.5267
 20
29.6393
 30
0.0
 10
-28.5267
 20
29.6393
 30
0.0
 10
-28.5813
 20
29.5787
 30
0.0
 10
-28.6236
 20
29.5123
 30
0.0
 10
-28.6542
 20
29.4394
 30
0.0
 10
-28.6542
 20
29.4394
 30
0.0
 10
-28.7054
 20
29.3148
 30
0.0
 10
-28.7313
 20
29.1793
 30
0.0
 10
-28.7313
 20
29.033
 30
0.0
 10
-28.7313
 20
29.033
 30
0.0
 10
-28.7313
 20
28.8529
 30
0.0
 10
-28.7003
 20
28.7024
 30
0.0
 10
-28.6382
 20
28.581
 30
0.0
 10
-28.6382
 20
28.581
 30
0.0
 10
-28.5761
 20
28.4597
 30
0.0
 10
-28.4858
 20
28.3698
 30
0.0
 10
-28.3673
 20
28.311
 30
0.0
 10
-28.3673
 20
28.311
 30
0.0
 10
-28.2487
 20
28.2522
 30
0.0
 10
-28.1231
 20
28.2226
 30
0.0
 10
-27.99
 20
28.2226
 30
0.0
 10
-27.99
 20
28.2226
 30
0.0
 10
-27.8738
 20
28.2226
 30
0.0
 10
-27.761
 20
28.2452
 30
0.0
 10
-27.6509
 20
28.2899
 30
0.0
 10
-27.6509
 20
28.2899
 30
0.0
 10
-27.5403
 20
28.3341
 30
0.0
 10
-27.4571
 20
28.3816
 30
0.0
 10
-27.4002
 20
28.4324
 30
0.0
 10
-27.4002
 20
28.4324
 30
0.0
 10
-27.4002
 20
28.4324
 30
0.0
 10
-27.4002
 20
28.8087
 30
0.0
 10
-27.4002
 20
28.8087
 30
0.0
 10
-27.4002
 20
28.8087
 30
0.0
 10
-27.4002
 20
28.8087
 30
0.0
 10
-27.9938
 20
28.8087
 30
0.0
 10
-27.9938
 20
28.8087
 30
0.0
  0
SPLINE
  5
BE
330
1F
100
AcDbEntity
  8
ROUND
 62
   250
100
AcDbSpline
210
0.0
220
0.0
230
1.0
 70
    11
 71
     3
 72
    92
 73
    88
 74
     0
 42
0.0000000001
 43
0.0000000001
 40
0.0
 40
0.0
 40
0.0
 40
0.0
 40
0.0434782608695652
 40
0.0434782608695652
 40
0.0434782608695652
 40
0.0434782608695652
 40
0.0869565217391304
 40
0.0869565217391304
 40
0.0869565217391304
 40
0.0869565217391304
 40
0.1304347826086956
 40
0.1304347826086956
 40
0.1304347826086956
 40
0.1304347826086956
 40
0.1739130434782609
 40
0.1739130434782609
 40
0.1739130434782609
 40
0.1739130434782609
 40
0.2173913043478261
 40
0.2173913043478261
 40
0.2173913043478261
 40
0.2173913043478261
 40
0.2608695652173913
 40
0.2608695652173913
 40
0.2608695652173913
 40
0.2608695652173913
 40
0.3043478260869565
 40
0.3043478260869565
 40
0.3043478260869565
 40
0.3043478260869565
 40
0.3478260869565217
 40
0.3478260869565217
 40
0.3478260869565217
 40
0.3478260869565217
 40
0.391304347826087
 40
0.391304347826087
 40
0.391304347826087
 40
0.391304347826087
 40
0.4347826086956522
 40
0.4347826086956522
 40
0.4347826086956522
 40
0.4347826086956522
 40
0.4782608695652174
 40
0.4782608695652174
 40
0.4782608695652174
 40
0.4782608695652174
 40
0.5217391304347826
 40
0.5217391304347826
 40
0.5217391304347826
 40
0.5217391304347826
 40
0.5652173913043478
 40
0.5652173913043478
 40
0.5652173913043478
 40
0.5652173913043478
 40
0.6086956521739131
 40
0.6086956521739131
 40
0.6086956521739131
 40
0.6086956521739131
 40
0.6521739130434783
 40
0.6521739130434783
 40
0.6521739130434783
 40
0.6521739130434783
 40
0.6956521739130435
 40
0.6956521739130435
 40
0.6956521739130435
 40
0.6956521739130435
 40
0.7391304347826086
 40
0.7391304347826086
 40
0.7391304347826086
 40
0.7391304347826086
 40
0.782608695652174
 40
0.782608695652174
 40
0.782608695652174
 40
0.782608695652174
 40
0.8260869565217391
 40
0.8260869565217391
 40
0.8260869565217391
 40
0.8260869565217391
 40
0.8695652173913043
 40
0.8695652173913043
 40
0.8695652173913043
 40
0.8695652173913043
 40
0.9130434782608695
 40
0.9130434782608695
 40
0.9130434782608695
 40
0.9130434782608695
 40
1.0
 40
1.0
 40
1.0
 40
1.0
 10
-26.0606
 20
28.5453
 30
0.0
 10
-26.0606
 20
28.5453
 30
0.0
 10
-25.8
 20
28.5674
 30
0.0
 10
-25.8
 20
28.5674
 30
0.0
 10
-25.8
 20
28.5674
 30
0.0
 10
-25.7807
 20
28.4404
 30
0.0
 10
-25.736
 20
28.3454
 30
0.0
 10
-25.6659
 20
28.2814
 30
0.0
 10
-25.6659
 20
28.2814
 30
0.0
 10
-25.5954
 20
28.2174
 30
0.0
 10
-25.5107
 20
28.1854
 30
0.0
 10
-25.4115
 20
28.1854
 30
0.0
 10
-25.4115
 20
28.1854
 30
0.0
 10
-25.292
 20
28.1854
 30
0.0
 10
-25.1909
 20
28.2306
 30
0.0
 10
-25.1086
 20
28.3204
 30
0.0
 10
-25.1086
 20
28.3204
 30
0.0
 10
-25.0258
 20
28.4107
 30
0.0
 10
-24.9844
 20
28.5302
 30
0.0
 10
-24.9844
 20
28.6788
 30
0.0
 10
-24.9844
 20
28.6788
 30
0.0
 10
-24.9844
 20
28.8204
 30
0.0
 10
-25.0239
 20
28.9319
 30
0.0
 10
-25.1034
 20
29.0137
 30
0.0
 10
-25.1034
 20
29.0137
 30
0.0
 10
-25.1829
 20
29.0956
 30
0.0
 10
-25.2868
 20
29.1365
 30
0.0
 10
-25.4157
 20
29.1365
 30
0.0
 10
-25.4157
 20
29.1365
 30
0.0
 10
-25.4957
 20
29.1365
 30
0.0
 10
-25.5676
 20
29.1182
 30
0.0
 10
-25.6321
 20
29.082
 30
0.0
 10
-25.6321
 20
29.082
 30
0.0
 10
-25.6965
 20
29.0457
 30
0.0
 10
-25.7468
 20
28.9987
 30
0.0
 10
-25.7835
 20
28.9408
 30
0.0
 10
-25.7835
 20
28.9408
 30
0.0
 10
-25.7835
 20
28.9408
 30
0.0
 10
-26.0164
 20
28.9709
 30
0.0
 10
-26.0164
 20
28.9709
 30
0.0
 10
-26.0164
 20
28.9709
 30
0.0
 10
-26.0164
 20
28.9709
 30
0.0
 10
-25.8207
 20
30.0086
 30
0.0
 10
-25.8207
 20
30.0086
 30
0.0
 10
-25.8207
 20
30.0086
 30
0.0
 10
-25.8207
 20
30.0086
 30
0.0
 10
-24.816
 20
30.0086
 30
0.0
 10
-24.816
 20
30.0086
 30
0.0
 10
-24.816
 20
30.0086
 30
0.0
 10
-24.816
 20
30.0086
 30
0.0
 10
-24.816
 20
29.7715
 30
0.0
 10
-24.816
 20
29.7715
 30
0.0
 10
-24.816
 20
29.7715
 30
0.0
 10
-24.816
 20
29.7715
 30
0.0
 10
-25.6222
 20
29.7715
 30
0.0
 10
-25.6222
 20
29.7715
 30
0.0
 10
-25.6222
 20
29.7715
 30
0.0
 10
-25.6222
 20
29.7715
 30
0.0
 10
-25.7313
 20
29.2287
 30
0.0
 10
-25.7313
 20
29.2287
 30
0.0
 10
-25.7313
 20
29.2287
 30
0.0
 10
-25.61
 20
29.3134
 30
0.0
 10
-25.4825
 20
29.3557
 30
0.0
 10
-25.3494
 20
29.3557
 30
0.0
 10
-25.3494
 20
29.3557
 30
0.0
 10
-25.173
 20
29.3557
 30
0.0
 10
-25.0244
 20
29.2946
 30
0.0
 10
-24.903
 20
29.1723
 30
0.0
 10
-24.903
 20
29.1723
 30
0.0
 10
-24.7817
 20
29.05
 30
0.0
 10
-24.721
 20
28.8929
 30
0.0
 10
-24.721
 20
28.701
 30
0.0
 10
-24.721
 20
28.701
 30
0.0
 10
-24.721
 20
28.518
 30
0.0
 10
-24.7746
 20
28.3599
 30
0.0
 10
-24.8809
 20
28.2268
 30
0.0
 10
-24.8809
 20
28.2268
 30
0.0
 10
-25.0107
 20
28.0636
 30
0.0
 10
-25.1876
 20
27.9818
 30
0.0
 10
-25.4115
 20
27.9818
 30
0.0
 10
-25.4115
 20
27.9818
 30
0.0
 10
-25.5954
 20
27.9818
 30
0.0
 10
-25.7454
 20
28.033
 30
0.0
 10
-25.8616
 20
28.136
 30
0.0
 10
-25.8616
 20
28.136
 30
0.0
 10
-25.9778
 20
28.2391
 30
0.0
 10
-26.0441
 20
28.3755
 30
0.0
 10
-26.0606
 20
28.5453
 30
0.0
  0
SPLINE
  5
BF
330
1F
100
AcDbEntity
  8
ROUND
 62
   250
100
AcDbSpline
210
0.0
220
0.0
230
1.0
 70
    11
 71
     3
 72
    20
 73
    16
 74
     0
 42
0.0000000001
 43
0.0000000001
 40
0.0
 40
0.0
 40
0.0
 40
0.0
 40
0.2
 40
0.2
 40
0.2
 40
0.2
 40
0.4
 40
0.4
 40
0.4
 40
0.4
 40
0.6
 40
0.6
 40
0.6
 40
0.6
 40
1.0
 40
1.0
 40
1.0
 40
1.0
 10
-24.6081
 20
27.9818
 30
0.0
 10
-24.6081
 20
27.9818
 30
0.0
 10
-24.0225
 20
30.0707
 30
0.0
 10
-24.0225
 20
30.0707
 30
0.0
 10
-24.0225
 20
30.0707
 30
0.0
 10
-24.0225
 20
30.0707
 30
0.0
 10
-23.824
 20
30.0707
 30
0.0
 10
-23.824
 20
30.0707
 30
0.0
 10
-23.824
 20
30.0707
 30
0.0
 10
-23.824
 20
30.0707
 30
0.0
 10
-24.4082
 20
27.9818
 30
0.0
 10
-24.4082
 20
27.9818
 30
0.0
 10
-24.4082
 20
27.9818
 30
0.0
 10
-24.4082
 20
27.9818
 30
0.0
 10
-24.6081
 20
27.9818
 30
0.0
 10
-24.6081
 20
27.9818
 30
0.0
  0
SPLINE
  5
C0
330
1F
100
AcDbEntity
  8
ROUND
 62
   250
100
AcDbSpline
210
0.0
220
0.0
230
1.0
 70
    11
 71
     3
 72
    48
 73
    44
 74
     0
 42
0.0000000001
 43
0.0000000001
 40
0.0
 40
0.0
 40
0.0
 40
0.0
 40
0.0833333333333333
 40
0.0833333333333333
 40
0.0833333333333333
 40
0.0833333333333333
 40
0.1666666666666667
 40
0.1666666666666667
 40
0.1666666666666667
 40
0.1666666666666667
 40
0.25
 40
0.25
 40
0.25
 40
0.25
 40
0.3333333333333333
 40
0.3333333333333333
 40
0.3333333333333333
 40
0.3333333333333333
 40
0.4166666666666667
 40
0.4166666666666667
 40
0.4166666666666667
 40
0.4166666666666667
 40
0.5
 40
0.5
 40
0.5
 40
0.5
 40
0.5833333333333334
 40
0.5833333333333334
 40
0.5833333333333334
 40
0.5833333333333334
 40
0.6666666666666666
 40
0.6666666666666666
 40
0.6666666666666666
 40
0.6666666666666666
 40
0.75
 40
0.75
 40
0.75
 40
0.75
 40
0.8333333333333334
 40
0.8333333333333334
 40
0.8333333333333334
 40
0.8333333333333334
 40
1.0
 40
1.0
 40
1.0
 40
1.0
 10
-22.912
 20
28.0161
 30
0.0
 10
-22.912
 20
28.0161
 30
0.0
 10
-22.912
 20
28.4996
 30
0.0
 10
-22.912
 20
28.4996
 30
0.0
 10
-22.912
 20
28.4996
 30
0.0
 10
-22.912
 20
28.4996
 30
0.0
 10
-23.7883
 20
28.4996
 30
0.0
 10
-23.7883
 20
28.4996
 30
0.0
 10
-23.7883
 20
28.4996
 30
0.0
 10
-23.7883
 20
28.4996
 30
0.0
 10
-23.7883
 20
28.7273
 30
0.0
 10
-23.7883
 20
28.7273
 30
0.0
 10
-23.7883
 20
28.7273
 30
0.0
 10
-23.7883
 20
28.7273
 30
0.0
 10
-22.8663
 20
30.0363
 30
0.0
 10
-22.8663
 20
30.0363
 30
0.0
 10
-22.8663
 20
30.0363
 30
0.0
 10
-22.8663
 20
30.0363
 30
0.0
 10
-22.6636
 20
30.0363
 30
0.0
 10
-22.6636
 20
30.0363
 30
0.0
 10
-22.6636
 20
30.0363
 30
0.0
 10
-22.6636
 20
30.0363
 30
0.0
 10
-22.6636
 20
28.7273
 30
0.0
 10
-22.6636
 20
28.7273
 30
0.0
 10
-22.6636
 20
28.7273
 30
0.0
 10
-22.6636
 20
28.7273
 30
0.0
 10
-22.3908
 20
28.7273
 30
0.0
 10
-22.3908
 20
28.7273
 30
0.0
 10
-22.3908
 20
28.7273
 30
0.0
 10
-22.3908
 20
28.7273
 30
0.0
 10
-22.3908
 20
28.4996
 30
0.0
 10
-22.3908
 20
28.4996
 30
0.0
 10
-22.3908
 20
28.4996
 30
0.0
 10
-22.3908
 20
28.4996
 30
0.0
 10
-22.6636
 20
28.4996
 30
0.0
 10
-22.6636
 20
28.4996
 30
0.0
 10
-22.6636
 20
28.4996
 30
0.0
 10
-22.6636
 20
28.4996
 30
0.0
 10
-22.6636
 20
28.0161
 30
0.0
 10
-22.6636
 20
28.0161
 30
0.0
 10
-22.6636
 20
28.0161
 30
0.0
 10
-22.6636
 20
28.0161
 30
0.0
 10
-22.912
 20
28.0161
 30
0.0
 10
-22.912
 20
28.0161
 30
0.0
  0
SPLINE
  5
C1
330
1F
100
AcDbEntity
  8
ROUND
 62
   250
100
AcDbSpline
210
0.0
220
0.0
230
1.0
 70
    11
 71
     3
 72
    16
 73
    12
 74
     0
 42
0.0000000001
 43
0.0000000001
 40
0.0
 40
0.0
 40
0.0
 40
0.0
 40
0.25
 40
0.25
 40
0.25
 40
0.25
 40
0.5
 40
0.5
 40
0.5
 40
0.5
 40
1.0
 40
1.0
 40
1.0
 40
1.0
 10
-22.912
 20
28.7273
 30
0.0
 10
-22.912
 20
28.7273
 30
0.0
 10
-22.912
 20
29.6379
 30
0.0
 10
-22.912
 20
29.6379
 30
0.0
 10
-22.912
 20
29.6379
 30
0.0
 10
-22.912
 20
29.6379
 30
0.0
 10
-23.5441
 20
28.7273
 30
0.0
 10
-23.5441
 20
28.7273
 30
0.0
 10
-23.5441
 20
28.7273
 30
0.0
 10
-23.5441
 20
28.7273
 30
0.0
 10
-22.912
 20
28.7273
 30
0.0
 10
-22.912
 20
28.7273
 30
0.0
  0
SPLINE
  5
C2
330
1F
100
AcDbEntity
  8
ROUND
 62
   250
100
AcDbSpline
210
0.0
220
0.0
230
1.0
 70
    11
 71
     3
 72
    28
 73
    24
 74
     0
 42
0.0000000001
 43
0.0000000001
 40
0.0
 40
0.0
 40
0.0
 40
0.0
 40
0.1428571428571428
 40
0.1428571428571428
 40
0.1428571428571428
 40
0.1428571428571428
 40
0.2857142857142857
 40
0.2857142857142857
 40
0.2857142857142857
 40
0.2857142857142857
 40
0.4285714285714285
 40
0.4285714285714285
 40
0.4285714285714285
 40
0.4285714285714285
 40
0.5714285714285714
 40
0.5714285714285714
 40
0.5714285714285714
 40
0.5714285714285714
 40
0.7142857142857143
 40
0.7142857142857143
 40
0.7142857142857143
 40
0.7142857142857143
 40
1.0
 40
1.0
 40
1.0
 40
1.0
 10
-22.0559
 20
29.3209
 30
0.0
 10
-22.0559
 20
29.3209
 30
0.0
 10
-22.125
 20
29.7057
 30
0.0
 10
-22.125
 20
29.7057
 30
0.0
 10
-22.125
 20
29.7057
 30
0.0
 10
-22.125
 20
29.7057
 30
0.0
 10
-22.125
 20
30.0363
 30
0.0
 10
-22.125
 20
30.0363
 30
0.0
 10
-22.125
 20
30.0363
 30
0.0
 10
-22.125
 20
30.0363
 30
0.0
 10
-21.8424
 20
30.0363
 30
0.0
 10
-21.8424
 20
30.0363
 30
0.0
 10
-21.8424
 20
30.0363
 30
0.0
 10
-21.8424
 20
30.0363
 30
0.0
 10
-21.8424
 20
29.7057
 30
0.0
 10
-21.8424
 20
29.7057
 30
0.0
 10
-21.8424
 20
29.7057
 30
0.0
 10
-21.8424
 20
29.7057
 30
0.0
 10
-21.9044
 20
29.3209
 30
0.0
 10
-21.9044
 20
29.3209
 30
0.0
 10
-21.9044
 20
29.3209
 30
0.0
 10
-21.9044
 20
29.3209
 30
0.0
 10
-22.0559
 20
29.3209
 30
0.0
 10
-22.0559
 20
29.3209
 30
0.0
  0
SPLINE
  5
C3
330
1F
100
AcDbEntity
  8
ROUND
 62
   250
100
AcDbSpline
210
0.0
220
0.0
230
1.0
 70
    11
 71
     3
 72
    28
 73
    24
 74
     0
 42
0.0000000001
 43
0.0000000001
 40
0.0
 40
0.0
 40
0.0
 40
0.0
 40
0.1428571428571428
 40
0.1428571428571428
 40
0.1428571428571428
 40
0.1428571428571428
 40
0.2857142857142857
 40
0.2857142857142857
 40
0.2857142857142857
 40
0.2857142857142857
 40
0.4285714285714285
 40
0.4285714285714285
 40
0.4285714285714285
 40
0.4285714285714285
 40
0.5714285714285714
 40
0.5714285714285714
 40
0.5714285714285714
 40
0.5714285714285714
 40
0.7142857142857143
 40
0.7142857142857143
 40
0.7142857142857143
 40
0.7142857142857143
 40
1.0
 40
1.0
 40
1.0
 40
1.0
 10
-21.5996
 20
29.3209
 30
0.0
 10
-21.5996
 20
29.3209
 30
0.0
 10
-21.6674
 20
29.7057
 30
0.0
 10
-21.6674
 20
29.7057
 30
0.0
 10
-21.6674
 20
29.7057
 30
0.0
 10
-21.6674
 20
29.7057
 30
0.0
 10
-21.6674
 20
30.0363
 30
0.0
 10
-21.6674
 20
30.0363
 30
0.0
 10
-21.6674
 20
30.0363
 30
0.0
 10
-21.6674
 20
30.0363
 30
0.0
 10
-21.3847
 20
30.0363
 30
0.0
 10
-21.3847
 20
30.0363
 30
0.0
 10
-21.3847
 20
30.0363
 30
0.0
 10
-21.3847
 20
30.0363
 30
0.0
 10
-21.3847
 20
29.7057
 30
0.0
 10
-21.3847
 20
29.7057
 30
0.0
 10
-21.3847
 20
29.7057
 30
0.0
 10
-21.3847
 20
29.7057
 30
0.0
 10
-21.451
 20
29.3209
 30
0.0
 10
-21.451
 20
29.3209
 30
0.0
 10
-21.451
 20
29.3209
 30
0.0
 10
-21.451
 20
29.3209
 30
0.0
 10
-21.5996
 20
29.3209
 30
0.0
 10
-21.5996
 20
29.3209
 30
0.0
  0
ENDSEC
  0
SECTION
  2
OBJECTS
  0
DICTIONARY
  5
C
330
0
100
AcDbDictionary
  3
ACAD_GROUP
350
D
  3
ACAD_LAYOUT
350
1A
  3
ACAD_MATERIAL
350
3B
  3
ACAD_MLEADERSTYLE
350
E6
  3
ACAD_MLINESTYLE
350
17
  3
ACAD_PLOTSETTINGS
350
19
  3
ACAD_VISUALSTYLE
350
2A
  3
ACDBHEADERROUNDTRIPXREC
350
C4
  3
ACDBVARIABLEDICTIONARY
350
E4
  0
DICTIONARY
  5
D
102
{ACAD_REACTORS
330
C
102
}
330
C
100
AcDbDictionary
  0
DICTIONARY
  5
1A
102
{ACAD_REACTORS
330
C
102
}
330
C
100
AcDbDictionary
  0
DICTIONARY
  5
3B
102
{ACAD_REACTORS
330
C
102
}
330
C
100
AcDbDictionary
  3
BYBLOCK
350
3D
  3
BYLAYER
350
3C
  3
GLOBAL
350
3E
  0
DICTIONARY
  5
E6
102
{ACAD_REACTORS
330
C
102
}
330
C
100
AcDbDictionary
  0
DICTIONARY
  5
17
102
{ACAD_REACTORS
330
C
102
}
330
C
100
AcDbDictionary
  3
STANDARD
350
18
  0
DICTIONARY
  5
19
102
{ACAD_REACTORS
330
C
102
}
330
C
100
AcDbDictionary
  0
DICTIONARY
  5
2A
102
{ACAD_REACTORS
330
C
102
}
330
C
100
AcDbDictionary
  3
2DWIREFRAME
350
2F
  3
3D_HIDDEN
350
31
  3
3DWIREFRAME
350
30
  3
BASIC
350
32
  3
BRIGHTEN
350
36
  3
COLORCHANGE
350
3A
  3
CONCEPTUAL
350
34
  3
DIM
350
35
  3
FACEPATTERN
350
39
  3
FLAT
350
2B
  3
FLATWITHEDGES
350
2C
  3
GOURAUD
350
2D
  3
GOURAUDWITHEDGES
350
2E
  3
LINEPATTERN
350
38
  3
REALISTIC
350
33
  3
THICKEN
350
37
  0
DICTIONARY
  5
C4
102
{ACAD_REACTORS
330
C
102
}
330
C
100
AcDbDictionary
  3
CEPSNTYPE
350
CD
  3
DIMSTYLEDATA
350
E3
  3
FINGERPRINTGUID
350
CE
  3
HYPERLINKBASE
350
C7
  3
INSUNITS
350
CC
  3
LAYOUTDICT
350
C9
  3
LWETCUNION
350
CB
  3
PLOTSETDICT
350
CA
  3
PSVPSCALE
350
D0
  3
PUCSBASE
350
D3
  3
PUCSORGBACK
350
D9
  3
PUCSORGBOTTOM
350
D5
  3
PUCSORGFRONT
350
D8
  3
PUCSORGLEFT
350
D6
  3
PUCSORGRIGHT
350
D7
  3
PUCSORGTOP
350
D4
  3
PUCSORTHOREF
350
D1
  3
PUCSORTHOVIEW
350
D2
  3
STYLESHEET
350
C8
  3
TSTACKALIGN
350
C5
  3
TSTACKSIZE
350
C6
  3
UCSBASE
350
DC
  3
UCSORGBACK
350
E2
  3
UCSORGBOTTOM
350
DE
  3
UCSORGFRONT
350
E1
  3
UCSORGLEFT
350
DF
  3
UCSORGRIGHT
350
E0
  3
UCSORGTOP
350
DD
  3
UCSORTHOREF
350
DA
  3
UCSORTHOVIEW
350
DB
  3
VERSIONGUID
350
CF
  0
DICTIONARY
  5
E4
102
{ACAD_REACTORS
330
C
102
}
330
C
100
AcDbDictionary
  3
DIMASSOC
350
E7
  3
HIDETEXT
350
E8
  0
MATERIAL
  5
3D
102
{ACAD_REACTORS
330
3B
102
}
102
{ACAD_XDICTIONARY
360
EB
102
}
330
3B
100
AcDbMaterial
  1
ByBlock
  0
MATERIAL
  5
3C
102
{ACAD_REACTORS
330
3B
102
}
102
{ACAD_XDICTIONARY
360
E9
102
}
330
3B
100
AcDbMaterial
  1
ByLayer
  0
MATERIAL
  5
3E
102
{ACAD_REACTORS
330
3B
102
}
102
{ACAD_XDICTIONARY
360
ED
102
}
330
3B
100
AcDbMaterial
  1
Global
  0
MLINESTYLE
  5
18
102
{ACAD_REACTORS
330
17
102
}
330
17
100
AcDbMlineStyle
  2
Standard
 70
     0
  3

 62
   256
 51
90.0
 52
90.0
 71
     2
 49
0.5
 62
   256
  6
BYLAYER
 49
-0.5
 62
   256
  6
BYLAYER
  0
ACAD_PROXY_OBJECT
  5
2F
102
{ACAD_REACTORS
330
2A
102
}
330
2A
100
AcDbProxyObject
 90
      499
 91
      501
 93
      436
310
42CC9915DA5C99599C985B595049028333333333333E3BF0000000000000FB0107901411070040501600405405064090741402480A0340
1001
ACAD
1000
AcDbSavedByObjectVersion
1070
     0
  0
ACAD_PROXY_OBJECT
  5
31
102
{ACAD_REACTORS
330
2A
102
}
330
2A
100
AcDbProxyObject
 90
      499
 91
      501
 93
      500
310
424CD108121A5919195B90640502408333333333333E3BF0000000000000FB01079024090700405020000000000001110200405405064090740C02480A0340
1001
ACAD
1000
AcDbSavedByObjectVersion
1070
     0
  0
ACAD_PROXY_OBJECT
  5
30
102
{ACAD_REACTORS
330
2A
102
}
330
2A
100
AcDbProxyObject
 90
      499
 91
      501
 93
      436
310
42CCD915DA5C99599C985B595059028333333333333E3BF0000000000000FB0107901411070040501600405405064090741402480A0340
1001
ACAD
1000
AcDbSavedByObjectVersion
1070
     0
  0
ACAD_PROXY_OBJECT
  5
32
102
{ACAD_REACTORS
330
2A
102
}
330
2A
100
AcDbProxyObject
 90
      499
 91
      501
 93
      388
310
4150985CDA58D07406404333333333333E3BF0000000000000FB0107A41107004050150841D405064090741402480A0350
1001
ACAD
1000
AcDbSavedByObjectVersion
1070
     0
  0
ACAD_PROXY_OBJECT
  5
36
102
{ACAD_REACTORS
330
2A
102
}
330
2A
100
AcDbProxyObject
 90
      499
 91
      501
 93
      428
310
42109C9A59DA1D195B90C409028333333333333E3BF0000000000000FB010790141107004050150841D405064090741402480A029950
1001
ACAD
1000
AcDbSavedByObjectVersion
1070
     0
  0
ACAD_PROXY_OBJECT
  5
3A
102
{ACAD_REACTORS
330
2A
102
}
330
2A
100
AcDbProxyObject
 90
      499
 91
      501
 93
      452
310
42D0DBDB1BDC90DA185B99D95104090240C333333333333E3BF0000000000000FB0108901411070040501508421405064090741402480A0350
1001
ACAD
1000
AcDbSavedByObjectVersion
1070
     0
  0
ACAD_PROXY_OBJECT
  5
34
102
{ACAD_REACTORS
330
2A
102
}
330
2A
100
AcDbProxyObject
 90
      499
 91
      501
 93
      500
310
4290DBDB98D95C1D1D585B10940D028333333333333E3BF0000000000000FB0107902409070040501000000000000111010841D405064090740C02480A0340
1001
ACAD
1000
AcDbSavedByObjectVersion
1070
     0
  0
ACAD_PROXY_OBJECT
  5
35
102
{ACAD_REACTORS
330
2A
102
}
330
2A
100
AcDbProxyObject
 90
      499
 91
      501
 93
      412
310
40D11A5B50B409028333333333333E3BF0000000000000FB010790141107004050150841D405064090741402480A02677FFFFFD0
1001
ACAD
1000
AcDbSavedByObjectVersion
1070
     0
  0
ACAD_PROXY_OBJECT
  5
39
102
{ACAD_REACTORS
330
2A
102
}
330
2A
100
AcDbProxyObject
 90
      499
 91
      501
 93
      444
310
42D19858D95C185D1D195C9B90F409028333333333333E3BF0000000000000FB010790141107004050150841D405064090741402480A0350
1001
ACAD
1000
AcDbSavedByObjectVersion
1070
     0
  0
ACAD_PROXY_OBJECT
  5
2B
102
{ACAD_REACTORS
330
2A
102
}
330
2A
100
AcDbProxyObject
 90
      499
 91
      501
 93
      388
310
41119B185D240901404333333333333E3BF0000000000000F9010740A41107004050150841D405064090741402480A1B50
1001
ACAD
1000
AcDbSavedByObjectVersion
1070
     0
  0
ACAD_PROXY_OBJECT
  5
2C
102
{ACAD_REACTORS
330
2A
102
}
330
2A
100
AcDbProxyObject
 90
      499
 91
      501
 93
      476
310
43519B185D15DA5D1A115919D95CD0140901404333333333333E3BF0000000000000F9010740901411070040501600405405064090741402480A1B50
1001
ACAD
1000
AcDbSavedByObjectVersion
1070
     0
  0
ACAD_PROXY_OBJECT
  5
2D
102
{ACAD_REACTORS
330
2A
102
}
330
2A
100
AcDbProxyObject
 90
      499
 91
      501
 93
      412
310
41D1DBDD5C985D5910240902404333333333333E3BF0000000000000F9010740A411070040501641D405064090741402480A1B50
1001
ACAD
1000
AcDbSavedByObjectVersion
1070
     0
  0
ACAD_PROXY_OBJECT
  5
2E
102
{ACAD_REACTORS
330
2A
102
}
330
2A
100
AcDbProxyObject
 90
      499
 91
      501
 93
      500
310
4411DBDD5C985D5915DA5D1A115919D95CD0340902404333333333333E3BF0000000000000F9010740901411070040501600405405064090741402480A1B50
1001
ACAD
1000
AcDbSavedByObjectVersion
1070
     0
  0
ACAD_PROXY_OBJECT
  5
38
102
{ACAD_REACTORS
330
2A
102
}
330
2A
100
AcDbProxyObject
 90
      499
 91
      501
 93
      444
310
42D31A5B995C185D1D195C9B90E409028333333333333E3BF0000000000000FB010790141107004050750841D405064090741402483A0350
1001
ACAD
1000
AcDbSavedByObjectVersion
1070
     0
  0
ACAD_PROXY_OBJECT
  5
33
102
{ACAD_REACTORS
330
2A
102
}
330
2A
100
AcDbProxyObject
 90
      499
 91
      501
 93
      420
310
425499585B1A5CDD1A58D08409028333333333333E3BF0000000000000FB01079019070040501508421405064090741402480A1B40
1001
ACAD
1000
AcDbSavedByObjectVersion
1070
     0
  0
ACAD_PROXY_OBJECT
  5
37
102
{ACAD_REACTORS
330
2A
102
}
330
2A
100
AcDbProxyObject
 90
      499
 91
      501
 93
      412
310
41D51A1A58DAD95B90D409028333333333333E3BF0000000000000FB010790141107004050150C41D405064090741402480A0350
1001
ACAD
1000
AcDbSavedByObjectVersion
1070
     0
  0
XRECORD
  5
CD
102
{ACAD_REACTORS
330
C4
102
}
330
C4
100
AcDbXrecord
 90
        0
  0
XRECORD
  5
E3
102
{ACAD_REACTORS
330
C4
102
}
330
C4
100
AcDbXrecord
1000
DSTYLE
1002
{
1070
   340
340
11
1002
}
  0
XRECORD
  5
CE
102
{ACAD_REACTORS
330
C4
102
}
330
C4
100
AcDbXrecord
  1
{5AD53287-0CD8-4A1A-AAD1-50FBAFFC369A}
  0
XRECORD
  5
C7
102
{ACAD_REACTORS
330
C4
102
}
330
C4
100
AcDbXrecord
  1

  0
XRECORD
  5
CC
102
{ACAD_REACTORS
330
C4
102
}
330
C4
100
AcDbXrecord
 90
        4
  0
XRECORD
  5
C9
102
{ACAD_REACTORS
330
C4
102
}
330
C4
100
AcDbXrecord
340
1A
  0
XRECORD
  5
CB
102
{ACAD_REACTORS
330
C4
102
}
330
C4
100
AcDbXrecord
 90
    10781
  0
XRECORD
  5
CA
102
{ACAD_REACTORS
330
C4
102
}
330
C4
100
AcDbXrecord
340
19
  0
XRECORD
  5
D0
102
{ACAD_REACTORS
330
C4
102
}
330
C4
100
AcDbXrecord
 40
0.0
  0
XRECORD
  5
D3
102
{ACAD_REACTORS
330
C4
102
}
330
C4
100
AcDbXrecord
340
0
  0
XRECORD
  5
D9
102
{ACAD_REACTORS
330
C4
102
}
330
C4
100
AcDbXrecord
 10
0.0
 20
0.0
 30
0.0
  0
XRECORD
  5
D5
102
{ACAD_REACTORS
330
C4
102
}
330
C4
100
AcDbXrecord
 10
0.0
 20
0.0
 30
0.0
  0
XRECORD
  5
D8
102
{ACAD_REACTORS
330
C4
102
}
330
C4
100
AcDbXrecord
 10
0.0
 20
0.0
 30
0.0
  0
XRECORD
  5
D6
102
{ACAD_REACTORS
330
C4
102
}
330
C4
100
AcDbXrecord
 10
0.0
 20
0.0
 30
0.0
  0
XRECORD
  5
D7
102
{ACAD_REACTORS
330
C4
102
}
330
C4
100
AcDbXrecord
 10
0.0
 20
0.0
 30
0.0
  0
XRECORD
  5
D4
102
{ACAD_REACTORS
330
C4
102
}
330
C4
100
AcDbXrecord
 10
0.0
 20
0.0
 30
0.0
  0
XRECORD
  5
D1
102
{ACAD_REACTORS
330
C4
102
}
330
C4
100
AcDbXrecord
340
0
  0
XRECORD
  5
D2
102
{ACAD_REACTORS
330
C4
102
}
330
C4
100
AcDbXrecord
 70
     0
  0
XRECORD
  5
C8
102
{ACAD_REACTORS
330
C4
102
}
330
C4
100
AcDbXrecord
  1

  0
XRECORD
  5
C5
102
{ACAD_REACTORS
330
C4
102
}
330
C4
100
AcDbXrecord
 90
        1
  0
XRECORD
  5
C6
102
{ACAD_REACTORS
330
C4
102
}
330
C4
100
AcDbXrecord
 90
       70
  0
XRECORD
  5
DC
102
{ACAD_REACTORS
330
C4
102
}
330
C4
100
AcDbXrecord
340
0
  0
XRECORD
  5
E2
102
{ACAD_REACTORS
330
C4
102
}
330
C4
100
AcDbXrecord
 10
0.0
 20
0.0
 30
0.0
  0
XRECORD
  5
DE
102
{ACAD_REACTORS
330
C4
102
}
330
C4
100
AcDbXrecord
 10
0.0
 20
0.0
 30
0.0
  0
XRECORD
  5
E1
102
{ACAD_REACTORS
330
C4
102
}
330
C4
100
AcDbXrecord
 10
0.0
 20
0.0
 30
0.0
  0
XRECORD
  5
DF
102
{ACAD_REACTORS
330
C4
102
}
330
C4
100
AcDbXrecord
 10
0.0
 20
0.0
 30
0.0
  0
XRECORD
  5
E0
102
{ACAD_REACTORS
330
C4
102
}
330
C4
100
AcDbXrecord
 10
0.0
 20
0.0
 30
0.0
  0
XRECORD
  5
DD
102
{ACAD_REACTORS
330
C4
102
}
330
C4
100
AcDbXrecord
 10
0.0
 20
0.0
 30
0.0
  0
XRECORD
  5
DA
102
{ACAD_REACTORS
330
C4
102
}
330
C4
100
AcDbXrecord
340
0
  0
XRECORD
  5
DB
102
{ACAD_REACTORS
330
C4
102
}
330
C4
100
AcDbXrecord
 70
     0
  0
XRECORD
  5
CF
102
{ACAD_REACTORS
330
C4
102
}
330
C4
100
AcDbXrecord
  1
{FAEB1C32-E019-11D5-929B-00C0DF256EC4}
  0
DICTIONARYVAR
  5
E7
102
{ACAD_REACTORS
330
E4
102
}
330
E4
100
DictionaryVariables
280
     0
  1
2
  0
DICTIONARYVAR
  5
E8
102
{ACAD_REACTORS
330
E4
102
}
330
E4
100
DictionaryVariables
280
     0
  1
1
  0
DICTIONARY
  5
EB
330
3D
100
AcDbDictionary
280
     1
  3
ACAD_XREC_ROUNDTRIP
360
EC
  0
DICTIONARY
  5
E9
330
3C
100
AcDbDictionary
280
     1
  3
ACAD_XREC_ROUNDTRIP
360
EA
  0
DICTIONARY
  5
ED
330
3E
100
AcDbDictionary
280
     1
  3
ACAD_XREC_ROUNDTRIP
360
EE
  0
XRECORD
  5
EC
102
{ACAD_REACTORS
330
EB
102
}
330
EB
100
AcDbXrecord
102
MATERIAL
148
0.0
149
0.0
149
0.0
 93
        0
 94
      127
282
     0
 72
     1
 77
     1
171
     1
175
     1
179
     1
273
     0
  0
XRECORD
  5
EA
102
{ACAD_REACTORS
330
E9
102
}
330
E9
100
AcDbXrecord
102
MATERIAL
148
0.0
149
0.0
149
0.0
 93
        0
 94
      127
282
     0
 72
     1
 77
     1
171
     1
175
     1
179
     1
273
     0
  0
XRECORD
  5
EE
102
{ACAD_REACTORS
330
ED
102
}
330
ED
100
AcDbXrecord
102
MATERIAL
148
0.0
149
0.0
149
0.0
 93
        0
 94
      127
282
     0
 72
     1
 77
     1
171
     1
175
     1
179
     1
273
     0
  0
ENDSEC
  0
EOF
