  0
SECTION
  2
HEADER
  9
$ACADVER
  1
AC1014
  9
$ACADMAINTVER
 70
     9
  9
$DWGCODEPAGE
  3
ANSI_1250
  9
$INSBASE
 10
0.0
 20
0.0
 30
0.0
  9
$EXTMIN
 10
-29.5031
 20
-32.7518
 30
0.0
  9
$EXTMAX
 10
29.5011
 20
32.7518
 30
0.0
  9
$LIMMIN
 10
0.0
 20
0.0
  9
$LIMMAX
 10
12.0
 20
9.0
  9
$ORTHOMODE
 70
     0
  9
$REGENMODE
 70
     1
  9
$FILLMODE
 70
     1
  9
$QTEXTMODE
 70
     0
  9
$MIRRTEXT
 70
     1
  9
$DRAGMODE
 70
     2
  9
$LTSCALE
 40
1.0
  9
$OSMODE
 70
    37
  9
$ATTMODE
 70
     1
  9
$TEXTSIZE
 40
0.2
  9
$TRACEWID
 40
0.05
  9
$TEXTSTYLE
  7
STANDARD
  9
$CLAYER
  8
0
  9
$CELTYPE
  6
BYLAYER
  9
$CECOLOR
 62
   256
  9
$CELTSCALE
 40
1.0
  9
$DELOBJ
 70
     1
  9
$DISPSILH
 70
     0
  9
$DIMSCALE
 40
1.0
  9
$DIMASZ
 40
0.18
  9
$DIMEXO
 40
0.0625
  9
$DIMDLI
 40
0.38
  9
$DIMRND
 40
0.0
  9
$DIMDLE
 40
0.0
  9
$DIMEXE
 40
0.18
  9
$DIMTP
 40
0.0
  9
$DIMTM
 40
0.0
  9
$DIMTXT
 40
0.18
  9
$DIMCEN
 40
0.09
  9
$DIMTSZ
 40
0.0
  9
$DIMTOL
 70
     0
  9
$DIMLIM
 70
     0
  9
$DIMTIH
 70
     1
  9
$DIMTOH
 70
     1
  9
$DIMSE1
 70
     0
  9
$DIMSE2
 70
     0
  9
$DIMTAD
 70
     0
  9
$DIMZIN
 70
     0
  9
$DIMBLK
  1

  9
$DIMASO
 70
     1
  9
$DIMSHO
 70
     1
  9
$DIMPOST
  1

  9
$DIMAPOST
  1

  9
$DIMALT
 70
     0
  9
$DIMALTD
 70
     2
  9
$DIMALTF
 40
25.4
  9
$DIMLFAC
 40
1.0
  9
$DIMTOFL
 70
     0
  9
$DIMTVP
 40
0.0
  9
$DIMTIX
 70
     0
  9
$DIMSOXD
 70
     0
  9
$DIMSAH
 70
     0
  9
$DIMBLK1
  1

  9
$DIMBLK2
  1

  9
$DIMSTYLE
  2
STANDARD
  9
$DIMCLRD
 70
     0
  9
$DIMCLRE
 70
     0
  9
$DIMCLRT
 70
     0
  9
$DIMTFAC
 40
1.0
  9
$DIMGAP
 40
0.09
  9
$DIMJUST
 70
     0
  9
$DIMSD1
 70
     0
  9
$DIMSD2
 70
     0
  9
$DIMTOLJ
 70
     1
  9
$DIMTZIN
 70
     0
  9
$DIMALTZ
 70
     0
  9
$DIMALTTZ
 70
     0
  9
$DIMFIT
 70
     3
  9
$DIMUPT
 70
     0
  9
$DIMUNIT
 70
     2
  9
$DIMDEC
 70
     4
  9
$DIMTDEC
 70
     4
  9
$DIMALTU
 70
     2
  9
$DIMALTTD
 70
     2
  9
$DIMTXSTY
  7
STANDARD
  9
$DIMAUNIT
 70
     0
  9
$LUNITS
 70
     2
  9
$LUPREC
 70
     4
  9
$SKETCHINC
 40
0.1
  9
$FILLETRAD
 40
0.5
  9
$AUNITS
 70
     0
  9
$AUPREC
 70
     0
  9
$MENU
  1
.
  9
$ELEVATION
 40
0.0
  9
$PELEVATION
 40
0.0
  9
$THICKNESS
 40
0.0
  9
$LIMCHECK
 70
     0
  9
$CHAMFERA
 40
0.5
  9
$CHAMFERB
 40
0.5
  9
$CHAMFERC
 40
1.0
  9
$CHAMFERD
 40
0.0
  9
$SKPOLY
 70
     0
  9
$TDCREATE
 40
2456247.41175037
  9
$TDUPDATE
 40
2456247.411750382
  9
$TDINDWG
 40
0.0000000116
  9
$TDUSRTIMER
 40
0.0000000116
  9
$USRTIMER
 70
     1
  9
$ANGBASE
 50
0.0
  9
$ANGDIR
 70
     0
  9
$PDMODE
 70
     0
  9
$PDSIZE
 40
0.0
  9
$PLINEWID
 40
0.0
  9
$COORDS
 70
     1
  9
$SPLFRAME
 70
     0
  9
$SPLINETYPE
 70
     6
  9
$SPLINESEGS
 70
     8
  9
$ATTDIA
 70
     0
  9
$ATTREQ
 70
     1
  9
$HANDLING
 70
     1
  9
$HANDSEED
  5
EF
  9
$SURFTAB1
 70
     6
  9
$SURFTAB2
 70
     6
  9
$SURFTYPE
 70
     6
  9
$SURFU
 70
     6
  9
$SURFV
 70
     6
  9
$UCSNAME
  2

  9
$UCSORG
 10
0.0
 20
0.0
 30
0.0
  9
$UCSXDIR
 10
1.0
 20
0.0
 30
0.0
  9
$UCSYDIR
 10
0.0
 20
1.0
 30
0.0
  9
$PUCSNAME
  2

  9
$PUCSORG
 10
0.0
 20
0.0
 30
0.0
  9
$PUCSXDIR
 10
1.0
 20
0.0
 30
0.0
  9
$PUCSYDIR
 10
0.0
 20
1.0
 30
0.0
  9
$USERI1
 70
     0
  9
$USERI2
 70
     0
  9
$USERI3
 70
     0
  9
$USERI4
 70
     0
  9
$USERI5
 70
     0
  9
$USERR1
 40
0.0
  9
$USERR2
 40
0.0
  9
$USERR3
 40
0.0
  9
$USERR4
 40
0.0
  9
$USERR5
 40
0.0
  9
$WORLDVIEW
 70
     1
  9
$SHADEDGE
 70
     3
  9
$SHADEDIF
 70
    70
  9
$TILEMODE
 70
     1
  9
$MAXACTVP
 70
    64
  9
$PINSBASE
 10
0.0
 20
0.0
 30
0.0
  9
$PLIMCHECK
 70
     0
  9
$PEXTMIN
 10
1.000000000000000E+20
 20
1.000000000000000E+20
 30
1.000000000000000E+20
  9
$PEXTMAX
 10
-1.000000000000000E+20
 20
-1.000000000000000E+20
 30
-1.000000000000000E+20
  9
$PLIMMIN
 10
0.0
 20
0.0
  9
$PLIMMAX
 10
12.0
 20
9.0
  9
$UNITMODE
 70
     0
  9
$VISRETAIN
 70
     1
  9
$PLINEGEN
 70
     0
  9
$PSLTSCALE
 70
     1
  9
$TREEDEPTH
 70
  3020
  9
$PICKSTYLE
 70
     1
  9
$CMLSTYLE
  2
STANDARD
  9
$CMLJUST
 70
     0
  9
$CMLSCALE
 40
1.0
  9
$PROXYGRAPHICS
 70
     1
  9
$MEASUREMENT
 70
     0
  0
ENDSEC
  0
SECTION
  2
CLASSES
  0
CLASS
  1
ACDBDICTIONARYWDFLT
  2
AcDbDictionaryWithDefault
  3
ObjectDBX Classes
 90
        0
280
     0
281
     0
  0
CLASS
  1
VISUALSTYLE
  2
AcDbVisualStyle
  3
ObjectDBX Classes
 90
     4095
280
     0
281
     0
  0
CLASS
  1
MATERIAL
  2
AcDbMaterial
  3
ObjectDBX Classes
 90
     1153
280
     0
281
     0
  0
CLASS
  1
DICTIONARYVAR
  2
AcDbDictionaryVar
  3
ObjectDBX Classes
 90
        0
280
     0
281
     0
  0
CLASS
  1
XRECORD
  2
AcDbXrecord
  3
AutoCAD 2000
 90
        0
280
     0
281
     0
  0
CLASS
  1
LWPOLYLINE
  2
AcDbPolyline
  3
AutoCAD 2000
 90
        0
280
     0
281
     1
  0
CLASS
  1
HATCH
  2
AcDbHatch
  3
AutoCAD 2000
 90
        0
280
     0
281
     1
  0
CLASS
  1
ACDBPLACEHOLDER
  2
AcDbPlaceHolder
  3
ObjectDBX Classes
 90
        0
280
     0
281
     0
  0
CLASS
  1
LAYOUT
  2
AcDbLayout
  3
ObjectDBX Classes
 90
        0
280
     0
281
     0
  0
ENDSEC
  0
SECTION
  2
TABLES
  0
TABLE
  2
VPORT
  5
8
330
0
100
AcDbSymbolTable
 70
     1
  0
VPORT
  5
29
330
8
100
AcDbSymbolTableRecord
100
AcDbViewportTableRecord
  2
*ACTIVE
 70
     0
 10
0.0
 20
0.0
 11
1.0
 21
1.0
 12
10.42990654205607
 22
4.5
 13
0.0
 23
0.0
 14
0.5
 24
0.5
 15
0.5
 25
0.5
 16
0.0
 26
0.0
 36
1.0
 17
0.0
 27
0.0
 37
0.0
 40
9.0
 41
1.972972972850329
 42
50.0
 43
0.0
 44
0.0
 50
0.0
 51
0.0
 71
     0
 72
   100
 73
     1
 74
     3
 75
     0
 76
     0
 77
     0
 78
     0
  0
ENDTAB
  0
TABLE
  2
LTYPE
  5
5
330
0
100
AcDbSymbolTable
 70
     4
  0
LTYPE
  5
14
330
5
100
AcDbSymbolTableRecord
100
AcDbLinetypeTableRecord
  2
BYBLOCK
 70
     0
  3

 72
    65
 73
     0
 40
0.0
  0
LTYPE
  5
15
330
5
100
AcDbSymbolTableRecord
100
AcDbLinetypeTableRecord
  2
BYLAYER
 70
     0
  3

 72
    65
 73
     0
 40
0.0
  0
LTYPE
  5
16
330
5
100
AcDbSymbolTableRecord
100
AcDbLinetypeTableRecord
  2
CONTINUOUS
 70
     0
  3
Solid line
 72
    65
 73
     0
 40
0.0
  0
LTYPE
  5
AA
330
5
100
AcDbSymbolTableRecord
100
AcDbLinetypeTableRecord
  2
NEW_LINE1
 70
     0
  3

 72
    65
 73
     4
 40
1.2
 49
0.5
 74
     4
 75
     0
340
0
 46
1.0
 50
0.0
 44
0.0
 45
0.0
 49
-0.3
 74
     4
 75
     0
340
0
 46
1.0
 50
0.0
 44
0.0
 45
0.0
 49
0.1
 74
     4
 75
     0
340
0
 46
1.0
 50
0.0
 44
0.0
 45
0.0
 49
-0.3
 74
     4
 75
     0
340
0
 46
1.0
 50
0.0
 44
0.0
 45
0.0
  0
LTYPE
  5
AD
330
5
100
AcDbSymbolTableRecord
100
AcDbLinetypeTableRecord
  2
NEW_LINE2
 70
     0
  3

 72
    65
 73
     4
 40
1.2
 49
0.5
 74
     4
 75
     0
340
0
 46
1.0
 50
0.0
 44
0.0
 45
0.0
 49
-0.3
 74
     4
 75
     0
340
0
 46
1.0
 50
0.0
 44
0.0
 45
0.0
 49
0.1
 74
     4
 75
     0
340
0
 46
1.0
 50
0.0
 44
0.0
 45
0.0
 49
-0.3
 74
     4
 75
     0
340
0
 46
1.0
 50
0.0
 44
0.0
 45
0.0
  0
LTYPE
  5
B9
330
5
100
AcDbSymbolTableRecord
100
AcDbLinetypeTableRecord
  2
NEW_LINE3
 70
     0
  3

 72
    65
 73
     4
 40
1.2
 49
0.5
 74
     4
 75
     0
340
0
 46
1.0
 50
0.0
 44
0.0
 45
0.0
 49
-0.3
 74
     4
 75
     0
340
0
 46
1.0
 50
0.0
 44
0.0
 45
0.0
 49
0.1
 74
     4
 75
     0
340
0
 46
1.0
 50
0.0
 44
0.0
 45
0.0
 49
-0.3
 74
     4
 75
     0
340
0
 46
1.0
 50
0.0
 44
0.0
 45
0.0
  0
ENDTAB
  0
TABLE
  2
LAYER
  5
2
330
0
100
AcDbSymbolTable
 70
     2
  0
LAYER
  5
10
330
2
100
AcDbSymbolTableRecord
100
AcDbLayerTableRecord
  2
0
 70
     0
 62
     7
  6
CONTINUOUS
  0
LAYER
  5
40
330
2
100
AcDbSymbolTableRecord
100
AcDbLayerTableRecord
  2
DEFAULT_1
 70
     0
 62
     7
  6
CONTINUOUS
  0
ENDTAB
  0
TABLE
  2
STYLE
  5
3
330
0
100
AcDbSymbolTable
 70
     1
  0
STYLE
  5
11
330
3
100
AcDbSymbolTableRecord
100
AcDbTextStyleTableRecord
  2
STANDARD
 70
     0
 40
0.0
 41
1.0
 50
0.0
 71
     0
 42
0.2
  3
txt
  4

  0
ENDTAB
  0
TABLE
  2
VIEW
  5
6
330
0
100
AcDbSymbolTable
 70
     0
  0
ENDTAB
  0
TABLE
  2
UCS
  5
7
330
0
100
AcDbSymbolTable
 70
     0
  0
ENDTAB
  0
TABLE
  2
APPID
  5
9
330
0
100
AcDbSymbolTable
 70
     2
  0
APPID
  5
12
330
9
100
AcDbSymbolTableRecord
100
AcDbRegAppTableRecord
  2
ACAD
 70
     0
  0
APPID
  5
3F
330
9
100
AcDbSymbolTableRecord
100
AcDbRegAppTableRecord
  2
ODA
 70
     0
  0
ENDTAB
  0
TABLE
  2
DIMSTYLE
  5
A
330
0
100
AcDbSymbolTable
 70
     1
  0
DIMSTYLE
105
27
330
A
100
AcDbSymbolTableRecord
100
AcDbDimStyleTableRecord
  2
STANDARD
 70
     0
  3

  4

  5

  6

  7

 40
1.0
 41
0.18
 42
0.0625
 43
0.38
 44
0.18
 45
0.0
 46
0.0
 47
0.0
 48
0.0
140
0.18
141
0.09
142
0.0
143
25.4
144
1.0
145
0.0
146
1.0
147
0.09
 71
     0
 72
     0
 73
     1
 74
     1
 75
     0
 76
     0
 77
     0
 78
     0
170
     0
171
     2
172
     0
173
     0
174
     0
175
     0
176
     0
177
     0
178
     0
270
     2
271
     4
272
     4
273
     2
274
     2
340
11
275
     0
280
     0
281
     0
282
     0
283
     1
284
     0
285
     0
286
     0
287
     3
288
     0
  0
ENDTAB
  0
TABLE
  2
BLOCK_RECORD
  5
1
330
0
100
AcDbSymbolTable
 70
     1
  0
BLOCK_RECORD
  5
1F
330
1
100
AcDbSymbolTableRecord
100
AcDbBlockTableRecord
  2
*MODEL_SPACE
  0
BLOCK_RECORD
  5
1B
330
1
100
AcDbSymbolTableRecord
100
AcDbBlockTableRecord
  2
*PAPER_SPACE
  0
ENDTAB
  0
ENDSEC
  0
SECTION
  2
BLOCKS
  0
BLOCK
  5
20
330
1F
100
AcDbEntity
  8
0
100
AcDbBlockBegin
  2
*MODEL_SPACE
 70
     0
 10
0.0
 20
0.0
 30
0.0
  3
*MODEL_SPACE
  1

  0
ENDBLK
  5
21
330
1F
100
AcDbEntity
  8
0
100
AcDbBlockEnd
  0
BLOCK
  5
1C
330
1B
100
AcDbEntity
 67
     1
  8
0
100
AcDbBlockBegin
  2
*PAPER_SPACE
 70
     0
 10
0.0
 20
0.0
 30
0.0
  3
*PAPER_SPACE
  1

  0
ENDBLK
  5
1D
330
1B
100
AcDbEntity
 67
     1
  8
0
100
AcDbBlockEnd
  0
ENDSEC
  0
SECTION
  2
ENTITIES
  0
SPLINE
  5
41
330
1F
100
AcDbEntity
  8
DEFAULT_1
 62
   250
100
AcDbSpline
210
0.0
220
0.0
230
1.0
 70
    11
 71
     3
 72
    68
 73
    64
 74
     0
 42
0.0000000001
 43
0.0000000001
 40
0.0
 40
0.0
 40
0.0
 40
0.0
 40
0.0588235294117647
 40
0.0588235294117647
 40
0.0588235294117647
 40
0.0588235294117647
 40
0.1176470588235294
 40
0.1176470588235294
 40
0.1176470588235294
 40
0.1176470588235294
 40
0.1764705882352941
 40
0.1764705882352941
 40
0.1764705882352941
 40
0.1764705882352941
 40
0.2352941176470588
 40
0.2352941176470588
 40
0.2352941176470588
 40
0.2352941176470588
 40
0.2941176470588235
 40
0.2941176470588235
 40
0.2941176470588235
 40
0.2941176470588235
 40
0.3529411764705883
 40
0.3529411764705883
 40
0.3529411764705883
 40
0.3529411764705883
 40
0.4117647058823529
 40
0.4117647058823529
 40
0.4117647058823529
 40
0.4117647058823529
 40
0.4705882352941176
 40
0.4705882352941176
 40
0.4705882352941176
 40
0.4705882352941176
 40
0.5294117647058824
 40
0.5294117647058824
 40
0.5294117647058824
 40
0.5294117647058824
 40
0.5882352941176471
 40
0.5882352941176471
 40
0.5882352941176471
 40
0.5882352941176471
 40
0.6470588235294118
 40
0.6470588235294118
 40
0.6470588235294118
 40
0.6470588235294118
 40
0.7058823529411765
 40
0.7058823529411765
 40
0.7058823529411765
 40
0.7058823529411765
 40
0.7647058823529411
 40
0.7647058823529411
 40
0.7647058823529411
 40
0.7647058823529411
 40
0.8235294117647058
 40
0.8235294117647058
 40
0.8235294117647058
 40
0.8235294117647058
 40
0.8823529411764706
 40
0.8823529411764706
 40
0.8823529411764706
 40
0.8823529411764706
 40
1.0
 40
1.0
 40
1.0
 40
1.0
 10
5.1625
 20
-30.5342
 30
0.0
 10
5.0594
 20
-30.4966
 30
0.0
 10
4.9832
 20
-30.443
 30
0.0
 10
4.9334
 20
-30.3729
 30
0.0
 10
4.9334
 20
-30.3729
 30
0.0
 10
4.884
 20
-30.3033
 30
0.0
 10
4.8591
 20
-30.2195
 30
0.0
 10
4.8591
 20
-30.1222
 30
0.0
 10
4.8591
 20
-30.1222
 30
0.0
 10
4.8591
 20
-29.975
 30
0.0
 10
4.9118
 20
-29.8517
 30
0.0
 10
5.0176
 20
-29.7515
 30
0.0
 10
5.0176
 20
-29.7515
 30
0.0
 10
5.1234
 20
-29.6513
 30
0.0
 10
5.2636
 20
-29.601
 30
0.0
 10
5.439
 20
-29.601
 30
0.0
 10
5.439
 20
-29.601
 30
0.0
 10
5.6154
 20
-29.601
 30
0.0
 10
5.7575
 20
-29.6523
 30
0.0
 10
5.8652
 20
-29.7548
 30
0.0
 10
5.8652
 20
-29.7548
 30
0.0
 10
5.9724
 20
-29.8574
 30
0.0
 10
6.0261
 20
-29.982
 30
0.0
 10
6.0261
 20
-30.1292
 30
0.0
 10
6.0261
 20
-30.1292
 30
0.0
 10
6.0261
 20
-30.2228
 30
0.0
 10
6.0016
 20
-30.3042
 30
0.0
 10
5.9527
 20
-30.3738
 30
0.0
 10
5.9527
 20
-30.3738
 30
0.0
 10
5.9033
 20
-30.443
 30
0.0
 10
5.829
 20
-30.4966
 30
0.0
 10
5.7288
 20
-30.5342
 30
0.0
 10
5.7288
 20
-30.5342
 30
0.0
 10
5.8525
 20
-30.5747
 30
0.0
 10
5.947
 20
-30.6396
 30
0.0
 10
6.0119
 20
-30.7299
 30
0.0
 10
6.0119
 20
-30.7299
 30
0.0
 10
6.0764
 20
-30.8197
 30
0.0
 10
6.1088
 20
-30.9274
 30
0.0
 10
6.1088
 20
-31.0521
 30
0.0
 10
6.1088
 20
-31.0521
 30
0.0
 10
6.1088
 20
-31.2252
 30
0.0
 10
6.0477
 20
-31.3701
 30
0.0
 10
5.9259
 20
-31.4876
 30
0.0
 10
5.9259
 20
-31.4876
 30
0.0
 10
5.8036
 20
-31.6052
 30
0.0
 10
5.6427
 20
-31.664
 30
0.0
 10
5.4433
 20
-31.664
 30
0.0
 10
5.4433
 20
-31.664
 30
0.0
 10
5.2438
 20
-31.664
 30
0.0
 10
5.0834
 20
-31.6052
 30
0.0
 10
4.9611
 20
-31.4872
 30
0.0
 10
4.9611
 20
-31.4872
 30
0.0
 10
4.8388
 20
-31.3691
 30
0.0
 10
4.7777
 20
-31.2219
 30
0.0
 10
4.7777
 20
-31.0455
 30
0.0
 10
4.7777
 20
-31.0455
 30
0.0
 10
4.7777
 20
-30.9143
 30
0.0
 10
4.8111
 20
-30.8042
 30
0.0
 10
4.8779
 20
-30.7153
 30
0.0
 10
4.8779
 20
-30.7153
 30
0.0
 10
4.9442
 20
-30.6269
 30
0.0
 10
5.0392
 20
-30.5662
 30
0.0
 10
5.1625
 20
-30.5342
 30
0.0
  0
SPLINE
  5
42
330
1F
100
AcDbEntity
  8
DEFAULT_1
 62
   250
100
AcDbSpline
210
0.0
220
0.0
230
1.0
 70
    11
 71
     3
 72
    36
 73
    32
 74
     0
 42
0.0000000001
 43
0.0000000001
 40
0.0
 40
0.0
 40
0.0
 40
0.0
 40
0.1111111111111111
 40
0.1111111111111111
 40
0.1111111111111111
 40
0.1111111111111111
 40
0.2222222222222222
 40
0.2222222222222222
 40
0.2222222222222222
 40
0.2222222222222222
 40
0.3333333333333333
 40
0.3333333333333333
 40
0.3333333333333333
 40
0.3333333333333333
 40
0.4444444444444444
 40
0.4444444444444444
 40
0.4444444444444444
 40
0.4444444444444444
 40
0.5555555555555556
 40
0.5555555555555556
 40
0.5555555555555556
 40
0.5555555555555556
 40
0.6666666666666666
 40
0.6666666666666666
 40
0.6666666666666666
 40
0.6666666666666666
 40
0.7777777777777778
 40
0.7777777777777778
 40
0.7777777777777778
 40
0.7777777777777778
 40
1.0
 40
1.0
 40
1.0
 40
1.0
 10
5.1126
 20
-30.1137
 30
0.0
 10
5.1126
 20
-30.2092
 30
0.0
 10
5.1436
 20
-30.2873
 30
0.0
 10
5.2048
 20
-30.348
 30
0.0
 10
5.2048
 20
-30.348
 30
0.0
 10
5.2664
 20
-30.4086
 30
0.0
 10
5.3464
 20
-30.4392
 30
0.0
 10
5.4447
 20
-30.4392
 30
0.0
 10
5.4447
 20
-30.4392
 30
0.0
 10
5.5402
 20
-30.4392
 30
0.0
 10
5.6187
 20
-30.4091
 30
0.0
 10
5.6799
 20
-30.3489
 30
0.0
 10
5.6799
 20
-30.3489
 30
0.0
 10
5.741
 20
-30.2887
 30
0.0
 10
5.7711
 20
-30.2148
 30
0.0
 10
5.7711
 20
-30.1278
 30
0.0
 10
5.7711
 20
-30.1278
 30
0.0
 10
5.7711
 20
-30.0366
 30
0.0
 10
5.7401
 20
-29.9604
 30
0.0
 10
5.677
 20
-29.8983
 30
0.0
 10
5.677
 20
-29.8983
 30
0.0
 10
5.614
 20
-29.8362
 30
0.0
 10
5.5359
 20
-29.8051
 30
0.0
 10
5.4419
 20
-29.8051
 30
0.0
 10
5.4419
 20
-29.8051
 30
0.0
 10
5.3473
 20
-29.8051
 30
0.0
 10
5.2688
 20
-29.8357
 30
0.0
 10
5.2062
 20
-29.8959
 30
0.0
 10
5.2062
 20
-29.8959
 30
0.0
 10
5.1436
 20
-29.9566
 30
0.0
 10
5.1126
 20
-30.0295
 30
0.0
 10
5.1126
 20
-30.1137
 30
0.0
  0
SPLINE
  5
43
330
1F
100
AcDbEntity
  8
DEFAULT_1
 62
   250
100
AcDbSpline
210
0.0
220
0.0
230
1.0
 70
    11
 71
     3
 72
    40
 73
    36
 74
     0
 42
0.0000000001
 43
0.0000000001
 40
0.0
 40
0.0
 40
0.0
 40
0.0
 40
0.1
 40
0.1
 40
0.1
 40
0.1
 40
0.2
 40
0.2
 40
0.2
 40
0.2
 40
0.3
 40
0.3
 40
0.3
 40
0.3
 40
0.4
 40
0.4
 40
0.4
 40
0.4
 40
0.5
 40
0.5
 40
0.5
 40
0.5
 40
0.6
 40
0.6
 40
0.6
 40
0.6
 40
0.7
 40
0.7
 40
0.7
 40
0.7
 40
0.8
 40
0.8
 40
0.8
 40
0.8
 40
1.0
 40
1.0
 40
1.0
 40
1.0
 10
5.0326
 20
-31.0469
 30
0.0
 10
5.0326
 20
-31.1175
 30
0.0
 10
5.0496
 20
-31.1861
 30
0.0
 10
5.083
 20
-31.252
 30
0.0
 10
5.083
 20
-31.252
 30
0.0
 10
5.1164
 20
-31.3183
 30
0.0
 10
5.1662
 20
-31.3696
 30
0.0
 10
5.2325
 20
-31.4058
 30
0.0
 10
5.2325
 20
-31.4058
 30
0.0
 10
5.2989
 20
-31.442
 30
0.0
 10
5.3699
 20
-31.4604
 30
0.0
 10
5.4461
 20
-31.4604
 30
0.0
 10
5.4461
 20
-31.4604
 30
0.0
 10
5.5646
 20
-31.4604
 30
0.0
 10
5.6625
 20
-31.4223
 30
0.0
 10
5.7396
 20
-31.3456
 30
0.0
 10
5.7396
 20
-31.3456
 30
0.0
 10
5.8167
 20
-31.2694
 30
0.0
 10
5.8553
 20
-31.1725
 30
0.0
 10
5.8553
 20
-31.0549
 30
0.0
 10
5.8553
 20
-31.0549
 30
0.0
 10
5.8553
 20
-30.9354
 30
0.0
 10
5.8158
 20
-30.8367
 30
0.0
 10
5.7363
 20
-30.7586
 30
0.0
 10
5.7363
 20
-30.7586
 30
0.0
 10
5.6568
 20
-30.6805
 30
0.0
 10
5.5571
 20
-30.6415
 30
0.0
 10
5.4376
 20
-30.6415
 30
0.0
 10
5.4376
 20
-30.6415
 30
0.0
 10
5.321
 20
-30.6415
 30
0.0
 10
5.2245
 20
-30.68
 30
0.0
 10
5.1479
 20
-30.7572
 30
0.0
 10
5.1479
 20
-30.7572
 30
0.0
 10
5.0712
 20
-30.8348
 30
0.0
 10
5.0326
 20
-30.9312
 30
0.0
 10
5.0326
 20
-31.0469
 30
0.0
  0
SPLINE
  5
44
330
1F
100
AcDbEntity
  8
DEFAULT_1
 62
   250
100
AcDbSpline
210
0.0
220
0.0
230
1.0
 70
    11
 71
     3
 72
    92
 73
    88
 74
     0
 42
0.0000000001
 43
0.0000000001
 40
0.0
 40
0.0
 40
0.0
 40
0.0
 40
0.0434782608695652
 40
0.0434782608695652
 40
0.0434782608695652
 40
0.0434782608695652
 40
0.0869565217391304
 40
0.0869565217391304
 40
0.0869565217391304
 40
0.0869565217391304
 40
0.1304347826086956
 40
0.1304347826086956
 40
0.1304347826086956
 40
0.1304347826086956
 40
0.1739130434782609
 40
0.1739130434782609
 40
0.1739130434782609
 40
0.1739130434782609
 40
0.2173913043478261
 40
0.2173913043478261
 40
0.2173913043478261
 40
0.2173913043478261
 40
0.2608695652173913
 40
0.2608695652173913
 40
0.2608695652173913
 40
0.2608695652173913
 40
0.3043478260869565
 40
0.3043478260869565
 40
0.3043478260869565
 40
0.3043478260869565
 40
0.3478260869565217
 40
0.3478260869565217
 40
0.3478260869565217
 40
0.3478260869565217
 40
0.391304347826087
 40
0.391304347826087
 40
0.391304347826087
 40
0.391304347826087
 40
0.4347826086956522
 40
0.4347826086956522
 40
0.4347826086956522
 40
0.4347826086956522
 40
0.4782608695652174
 40
0.4782608695652174
 40
0.4782608695652174
 40
0.4782608695652174
 40
0.5217391304347826
 40
0.5217391304347826
 40
0.5217391304347826
 40
0.5217391304347826
 40
0.5652173913043478
 40
0.5652173913043478
 40
0.5652173913043478
 40
0.5652173913043478
 40
0.6086956521739131
 40
0.6086956521739131
 40
0.6086956521739131
 40
0.6086956521739131
 40
0.6521739130434783
 40
0.6521739130434783
 40
0.6521739130434783
 40
0.6521739130434783
 40
0.6956521739130435
 40
0.6956521739130435
 40
0.6956521739130435
 40
0.6956521739130435
 40
0.7391304347826086
 40
0.7391304347826086
 40
0.7391304347826086
 40
0.7391304347826086
 40
0.782608695652174
 40
0.782608695652174
 40
0.782608695652174
 40
0.782608695652174
 40
0.8260869565217391
 40
0.8260869565217391
 40
0.8260869565217391
 40
0.8260869565217391
 40
0.8695652173913043
 40
0.8695652173913043
 40
0.8695652173913043
 40
0.8695652173913043
 40
0.9130434782608695
 40
0.9130434782608695
 40
0.9130434782608695
 40
0.9130434782608695
 40
1.0
 40
1.0
 40
1.0
 40
1.0
 10
6.3501
 20
-31.1005
 30
0.0
 10
6.3501
 20
-31.1005
 30
0.0
 10
6.6107
 20
-31.0784
 30
0.0
 10
6.6107
 20
-31.0784
 30
0.0
 10
6.6107
 20
-31.0784
 30
0.0
 10
6.63
 20
-31.2054
 30
0.0
 10
6.6747
 20
-31.3004
 30
0.0
 10
6.7448
 20
-31.3644
 30
0.0
 10
6.7448
 20
-31.3644
 30
0.0
 10
6.8153
 20
-31.4284
 30
0.0
 10
6.9
 20
-31.4604
 30
0.0
 10
6.9992
 20
-31.4604
 30
0.0
 10
6.9992
 20
-31.4604
 30
0.0
 10
7.1187
 20
-31.4604
 30
0.0
 10
7.2198
 20
-31.4152
 30
0.0
 10
7.3021
 20
-31.3254
 30
0.0
 10
7.3021
 20
-31.3254
 30
0.0
 10
7.3849
 20
-31.2351
 30
0.0
 10
7.4263
 20
-31.1156
 30
0.0
 10
7.4263
 20
-30.967
 30
0.0
 10
7.4263
 20
-30.967
 30
0.0
 10
7.4263
 20
-30.8254
 30
0.0
 10
7.3868
 20
-30.7139
 30
0.0
 10
7.3073
 20
-30.6321
 30
0.0
 10
7.3073
 20
-30.6321
 30
0.0
 10
7.2278
 20
-30.5502
 30
0.0
 10
7.1239
 20
-30.5093
 30
0.0
 10
6.995
 20
-30.5093
 30
0.0
 10
6.995
 20
-30.5093
 30
0.0
 10
6.915
 20
-30.5093
 30
0.0
 10
6.8431
 20
-30.5276
 30
0.0
 10
6.7786
 20
-30.5638
 30
0.0
 10
6.7786
 20
-30.5638
 30
0.0
 10
6.7142
 20
-30.6001
 30
0.0
 10
6.6639
 20
-30.6471
 30
0.0
 10
6.6272
 20
-30.705
 30
0.0
 10
6.6272
 20
-30.705
 30
0.0
 10
6.6272
 20
-30.705
 30
0.0
 10
6.3943
 20
-30.6749
 30
0.0
 10
6.3943
 20
-30.6749
 30
0.0
 10
6.3943
 20
-30.6749
 30
0.0
 10
6.3943
 20
-30.6749
 30
0.0
 10
6.59
 20
-29.6372
 30
0.0
 10
6.59
 20
-29.6372
 30
0.0
 10
6.59
 20
-29.6372
 30
0.0
 10
6.59
 20
-29.6372
 30
0.0
 10
7.5947
 20
-29.6372
 30
0.0
 10
7.5947
 20
-29.6372
 30
0.0
 10
7.5947
 20
-29.6372
 30
0.0
 10
7.5947
 20
-29.6372
 30
0.0
 10
7.5947
 20
-29.8743
 30
0.0
 10
7.5947
 20
-29.8743
 30
0.0
 10
7.5947
 20
-29.8743
 30
0.0
 10
7.5947
 20
-29.8743
 30
0.0
 10
6.7885
 20
-29.8743
 30
0.0
 10
6.7885
 20
-29.8743
 30
0.0
 10
6.7885
 20
-29.8743
 30
0.0
 10
6.7885
 20
-29.8743
 30
0.0
 10
6.6794
 20
-30.4171
 30
0.0
 10
6.6794
 20
-30.4171
 30
0.0
 10
6.6794
 20
-30.4171
 30
0.0
 10
6.8007
 20
-30.3324
 30
0.0
 10
6.9282
 20
-30.2901
 30
0.0
 10
7.0613
 20
-30.2901
 30
0.0
 10
7.0613
 20
-30.2901
 30
0.0
 10
7.2377
 20
-30.2901
 30
0.0
 10
7.3863
 20
-30.3512
 30
0.0
 10
7.5077
 20
-30.4735
 30
0.0
 10
7.5077
 20
-30.4735
 30
0.0
 10
7.629
 20
-30.5958
 30
0.0
 10
7.6897
 20
-30.7529
 30
0.0
 10
7.6897
 20
-30.9448
 30
0.0
 10
7.6897
 20
-30.9448
 30
0.0
 10
7.6897
 20
-31.1278
 30
0.0
 10
7.6361
 20
-31.2859
 30
0.0
 10
7.5298
 20
-31.419
 30
0.0
 10
7.5298
 20
-31.419
 30
0.0
 10
7.4
 20
-31.5822
 30
0.0
 10
7.2231
 20
-31.664
 30
0.0
 10
6.9992
 20
-31.664
 30
0.0
 10
6.9992
 20
-31.664
 30
0.0
 10
6.8153
 20
-31.664
 30
0.0
 10
6.6653
 20
-31.6128
 30
0.0
 10
6.5491
 20
-31.5098
 30
0.0
 10
6.5491
 20
-31.5098
 30
0.0
 10
6.4329
 20
-31.4067
 30
0.0
 10
6.3666
 20
-31.2703
 30
0.0
 10
6.3501
 20
-31.1005
 30
0.0
  0
SPLINE
  5
45
330
1F
100
AcDbEntity
  8
DEFAULT_1
 62
   250
100
AcDbSpline
210
0.0
220
0.0
230
1.0
 70
    11
 71
     3
 72
    20
 73
    16
 74
     0
 42
0.0000000001
 43
0.0000000001
 40
0.0
 40
0.0
 40
0.0
 40
0.0
 40
0.2
 40
0.2
 40
0.2
 40
0.2
 40
0.4
 40
0.4
 40
0.4
 40
0.4
 40
0.6
 40
0.6
 40
0.6
 40
0.6
 40
1.0
 40
1.0
 40
1.0
 40
1.0
 10
16.6639
 20
-27.5979
 30
0.0
 10
16.6639
 20
-27.5979
 30
0.0
 10
19.1639
 20
-27.9508
 30
0.0
 10
19.1639
 20
-27.9508
 30
0.0
 10
19.1639
 20
-27.9508
 30
0.0
 10
19.1639
 20
-27.9508
 30
0.0
 10
19.1639
 20
-28.0291
 30
0.0
 10
19.1639
 20
-28.0291
 30
0.0
 10
19.1639
 20
-28.0291
 30
0.0
 10
19.1639
 20
-28.0291
 30
0.0
 10
16.6639
 20
-28.4054
 30
0.0
 10
16.6639
 20
-28.4054
 30
0.0
 10
16.6639
 20
-28.4054
 30
0.0
 10
16.6639
 20
-28.4054
 30
0.0
 10
16.6639
 20
-27.5979
 30
0.0
 10
16.6639
 20
-27.5979
 30
0.0
  0
SPLINE
  5
46
330
1F
100
AcDbEntity
  8
DEFAULT_1
 62
   250
100
AcDbSpline
210
0.0
220
0.0
230
1.0
 70
    11
 71
     3
 72
    20
 73
    16
 74
     0
 42
0.0000000001
 43
0.0000000001
 40
0.0
 40
0.0
 40
0.0
 40
0.0
 40
0.2
 40
0.2
 40
0.2
 40
0.2
 40
0.4
 40
0.4
 40
0.4
 40
0.4
 40
0.6
 40
0.6
 40
0.6
 40
0.6
 40
1.0
 40
1.0
 40
1.0
 40
1.0
 10
28.1867
 20
-28.3761
 30
0.0
 10
28.1867
 20
-28.3761
 30
0.0
 10
25.6867
 20
-28.0232
 30
0.0
 10
25.6867
 20
-28.0232
 30
0.0
 10
25.6867
 20
-28.0232
 30
0.0
 10
25.6867
 20
-28.0232
 30
0.0
 10
25.6867
 20
-27.9449
 30
0.0
 10
25.6867
 20
-27.9449
 30
0.0
 10
25.6867
 20
-27.9449
 30
0.0
 10
25.6867
 20
-27.9449
 30
0.0
 10
28.1867
 20
-27.5686
 30
0.0
 10
28.1867
 20
-27.5686
 30
0.0
 10
28.1867
 20
-27.5686
 30
0.0
 10
28.1867
 20
-27.5686
 30
0.0
 10
28.1867
 20
-28.3761
 30
0.0
 10
28.1867
 20
-28.3761
 30
0.0
  0
SPLINE
  5
47
330
1F
100
AcDbEntity
  8
DEFAULT_1
 62
   250
100
AcDbSpline
210
0.0
220
0.0
230
1.0
 70
    11
 71
     3
 72
    92
 73
    88
 74
     0
 42
0.0000000001
 43
0.0000000001
 40
0.0
 40
0.0
 40
0.0
 40
0.0
 40
0.0434782608695652
 40
0.0434782608695652
 40
0.0434782608695652
 40
0.0434782608695652
 40
0.0869565217391304
 40
0.0869565217391304
 40
0.0869565217391304
 40
0.0869565217391304
 40
0.1304347826086956
 40
0.1304347826086956
 40
0.1304347826086956
 40
0.1304347826086956
 40
0.1739130434782609
 40
0.1739130434782609
 40
0.1739130434782609
 40
0.1739130434782609
 40
0.2173913043478261
 40
0.2173913043478261
 40
0.2173913043478261
 40
0.2173913043478261
 40
0.2608695652173913
 40
0.2608695652173913
 40
0.2608695652173913
 40
0.2608695652173913
 40
0.3043478260869565
 40
0.3043478260869565
 40
0.3043478260869565
 40
0.3043478260869565
 40
0.3478260869565217
 40
0.3478260869565217
 40
0.3478260869565217
 40
0.3478260869565217
 40
0.391304347826087
 40
0.391304347826087
 40
0.391304347826087
 40
0.391304347826087
 40
0.4347826086956522
 40
0.4347826086956522
 40
0.4347826086956522
 40
0.4347826086956522
 40
0.4782608695652174
 40
0.4782608695652174
 40
0.4782608695652174
 40
0.4782608695652174
 40
0.5217391304347826
 40
0.5217391304347826
 40
0.5217391304347826
 40
0.5217391304347826
 40
0.5652173913043478
 40
0.5652173913043478
 40
0.5652173913043478
 40
0.5652173913043478
 40
0.6086956521739131
 40
0.6086956521739131
 40
0.6086956521739131
 40
0.6086956521739131
 40
0.6521739130434783
 40
0.6521739130434783
 40
0.6521739130434783
 40
0.6521739130434783
 40
0.6956521739130435
 40
0.6956521739130435
 40
0.6956521739130435
 40
0.6956521739130435
 40
0.7391304347826086
 40
0.7391304347826086
 40
0.7391304347826086
 40
0.7391304347826086
 40
0.782608695652174
 40
0.782608695652174
 40
0.782608695652174
 40
0.782608695652174
 40
0.8260869565217391
 40
0.8260869565217391
 40
0.8260869565217391
 40
0.8260869565217391
 40
0.8695652173913043
 40
0.8695652173913043
 40
0.8695652173913043
 40
0.8695652173913043
 40
0.9130434782608695
 40
0.9130434782608695
 40
0.9130434782608695
 40
0.9130434782608695
 40
1.0
 40
1.0
 40
1.0
 40
1.0
 10
-27.5771
 20
-7.1069
 30
0.0
 10
-27.5771
 20
-7.1069
 30
0.0
 10
-27.5992
 20
-6.8463
 30
0.0
 10
-27.5992
 20
-6.8463
 30
0.0
 10
-27.5992
 20
-6.8463
 30
0.0
 10
-27.4722
 20
-6.827
 30
0.0
 10
-27.3772
 20
-6.7823
 30
0.0
 10
-27.3132
 20
-6.7122
 30
0.0
 10
-27.3132
 20
-6.7122
 30
0.0
 10
-27.2492
 20
-6.6417
 30
0.0
 10
-27.2172
 20
-6.557
 30
0.0
 10
-27.2172
 20
-6.4578
 30
0.0
 10
-27.2172
 20
-6.4578
 30
0.0
 10
-27.2172
 20
-6.3383
 30
0.0
 10
-27.2624
 20
-6.2372
 30
0.0
 10
-27.3522
 20
-6.1549
 30
0.0
 10
-27.3522
 20
-6.1549
 30
0.0
 10
-27.4425
 20
-6.0721
 30
0.0
 10
-27.562
 20
-6.0307
 30
0.0
 10
-27.7106
 20
-6.0307
 30
0.0
 10
-27.7106
 20
-6.0307
 30
0.0
 10
-27.8522
 20
-6.0307
 30
0.0
 10
-27.9637
 20
-6.0702
 30
0.0
 10
-28.0455
 20
-6.1497
 30
0.0
 10
-28.0455
 20
-6.1497
 30
0.0
 10
-28.1274
 20
-6.2292
 30
0.0
 10
-28.1683
 20
-6.3331
 30
0.0
 10
-28.1683
 20
-6.462
 30
0.0
 10
-28.1683
 20
-6.462
 30
0.0
 10
-28.1683
 20
-6.542
 30
0.0
 10
-28.15
 20
-6.6139
 30
0.0
 10
-28.1138
 20
-6.6784
 30
0.0
 10
-28.1138
 20
-6.6784
 30
0.0
 10
-28.0775
 20
-6.7428
 30
0.0
 10
-28.0305
 20
-6.7931
 30
0.0
 10
-27.9726
 20
-6.8298
 30
0.0
 10
-27.9726
 20
-6.8298
 30
0.0
 10
-27.9726
 20
-6.8298
 30
0.0
 10
-28.0027
 20
-7.0627
 30
0.0
 10
-28.0027
 20
-7.0627
 30
0.0
 10
-28.0027
 20
-7.0627
 30
0.0
 10
-28.0027
 20
-7.0627
 30
0.0
 10
-29.0404
 20
-6.867
 30
0.0
 10
-29.0404
 20
-6.867
 30
0.0
 10
-29.0404
 20
-6.867
 30
0.0
 10
-29.0404
 20
-6.867
 30
0.0
 10
-29.0404
 20
-5.8623
 30
0.0
 10
-29.0404
 20
-5.8623
 30
0.0
 10
-29.0404
 20
-5.8623
 30
0.0
 10
-29.0404
 20
-5.8623
 30
0.0
 10
-28.8033
 20
-5.8623
 30
0.0
 10
-28.8033
 20
-5.8623
 30
0.0
 10
-28.8033
 20
-5.8623
 30
0.0
 10
-28.8033
 20
-5.8623
 30
0.0
 10
-28.8033
 20
-6.6685
 30
0.0
 10
-28.8033
 20
-6.6685
 30
0.0
 10
-28.8033
 20
-6.6685
 30
0.0
 10
-28.8033
 20
-6.6685
 30
0.0
 10
-28.2605
 20
-6.7776
 30
0.0
 10
-28.2605
 20
-6.7776
 30
0.0
 10
-28.2605
 20
-6.7776
 30
0.0
 10
-28.3452
 20
-6.6563
 30
0.0
 10
-28.3875
 20
-6.5288
 30
0.0
 10
-28.3875
 20
-6.3957
 30
0.0
 10
-28.3875
 20
-6.3957
 30
0.0
 10
-28.3875
 20
-6.2193
 30
0.0
 10
-28.3264
 20
-6.0707
 30
0.0
 10
-28.2041
 20
-5.9493
 30
0.0
 10
-28.2041
 20
-5.9493
 30
0.0
 10
-28.0818
 20
-5.828
 30
0.0
 10
-27.9247
 20
-5.7673
 30
0.0
 10
-27.7328
 20
-5.7673
 30
0.0
 10
-27.7328
 20
-5.7673
 30
0.0
 10
-27.5498
 20
-5.7673
 30
0.0
 10
-27.3917
 20
-5.8209
 30
0.0
 10
-27.2586
 20
-5.9272
 30
0.0
 10
-27.2586
 20
-5.9272
 30
0.0
 10
-27.0954
 20
-6.057
 30
0.0
 10
-27.0136
 20
-6.2339
 30
0.0
 10
-27.0136
 20
-6.4578
 30
0.0
 10
-27.0136
 20
-6.4578
 30
0.0
 10
-27.0136
 20
-6.6417
 30
0.0
 10
-27.0648
 20
-6.7917
 30
0.0
 10
-27.1678
 20
-6.9079
 30
0.0
 10
-27.1678
 20
-6.9079
 30
0.0
 10
-27.2709
 20
-7.0241
 30
0.0
 10
-27.4073
 20
-7.0904
 30
0.0
 10
-27.5771
 20
-7.1069
 30
0.0
  0
SPLINE
  5
48
330
1F
100
AcDbEntity
  8
DEFAULT_1
 62
   250
100
AcDbSpline
210
0.0
220
0.0
230
1.0
 70
    11
 71
     3
 72
    68
 73
    64
 74
     0
 42
0.0000000001
 43
0.0000000001
 40
0.0
 40
0.0
 40
0.0
 40
0.0
 40
0.0588235294117647
 40
0.0588235294117647
 40
0.0588235294117647
 40
0.0588235294117647
 40
0.1176470588235294
 40
0.1176470588235294
 40
0.1176470588235294
 40
0.1176470588235294
 40
0.1764705882352941
 40
0.1764705882352941
 40
0.1764705882352941
 40
0.1764705882352941
 40
0.2352941176470588
 40
0.2352941176470588
 40
0.2352941176470588
 40
0.2352941176470588
 40
0.2941176470588235
 40
0.2941176470588235
 40
0.2941176470588235
 40
0.2941176470588235
 40
0.3529411764705883
 40
0.3529411764705883
 40
0.3529411764705883
 40
0.3529411764705883
 40
0.4117647058823529
 40
0.4117647058823529
 40
0.4117647058823529
 40
0.4117647058823529
 40
0.4705882352941176
 40
0.4705882352941176
 40
0.4705882352941176
 40
0.4705882352941176
 40
0.5294117647058824
 40
0.5294117647058824
 40
0.5294117647058824
 40
0.5294117647058824
 40
0.5882352941176471
 40
0.5882352941176471
 40
0.5882352941176471
 40
0.5882352941176471
 40
0.6470588235294118
 40
0.6470588235294118
 40
0.6470588235294118
 40
0.6470588235294118
 40
0.7058823529411765
 40
0.7058823529411765
 40
0.7058823529411765
 40
0.7058823529411765
 40
0.7647058823529411
 40
0.7647058823529411
 40
0.7647058823529411
 40
0.7647058823529411
 40
0.8235294117647058
 40
0.8235294117647058
 40
0.8235294117647058
 40
0.8235294117647058
 40
0.8823529411764706
 40
0.8823529411764706
 40
0.8823529411764706
 40
0.8823529411764706
 40
1.0
 40
1.0
 40
1.0
 40
1.0
 10
-28.1434
 20
-5.1553
 30
0.0
 10
-28.181
 20
-5.2584
 30
0.0
 10
-28.2346
 20
-5.3346
 30
0.0
 10
-28.3047
 20
-5.3844
 30
0.0
 10
-28.3047
 20
-5.3844
 30
0.0
 10
-28.3743
 20
-5.4338
 30
0.0
 10
-28.4581
 20
-5.4587
 30
0.0
 10
-28.5554
 20
-5.4587
 30
0.0
 10
-28.5554
 20
-5.4587
 30
0.0
 10
-28.7026
 20
-5.4587
 30
0.0
 10
-28.8259
 20
-5.406
 30
0.0
 10
-28.9261
 20
-5.3002
 30
0.0
 10
-28.9261
 20
-5.3002
 30
0.0
 10
-29.0263
 20
-5.1944
 30
0.0
 10
-29.0766
 20
-5.0542
 30
0.0
 10
-29.0766
 20
-4.8788
 30
0.0
 10
-29.0766
 20
-4.8788
 30
0.0
 10
-29.0766
 20
-4.7024
 30
0.0
 10
-29.0253
 20
-4.5603
 30
0.0
 10
-28.9228
 20
-4.4526
 30
0.0
 10
-28.9228
 20
-4.4526
 30
0.0
 10
-28.8202
 20
-4.3454
 30
0.0
 10
-28.6956
 20
-4.2917
 30
0.0
 10
-28.5484
 20
-4.2917
 30
0.0
 10
-28.5484
 20
-4.2917
 30
0.0
 10
-28.4548
 20
-4.2917
 30
0.0
 10
-28.3734
 20
-4.3162
 30
0.0
 10
-28.3038
 20
-4.3651
 30
0.0
 10
-28.3038
 20
-4.3651
 30
0.0
 10
-28.2346
 20
-4.4145
 30
0.0
 10
-28.181
 20
-4.4888
 30
0.0
 10
-28.1434
 20
-4.589
 30
0.0
 10
-28.1434
 20
-4.589
 30
0.0
 10
-28.1029
 20
-4.4653
 30
0.0
 10
-28.038
 20
-4.3708
 30
0.0
 10
-27.9477
 20
-4.3059
 30
0.0
 10
-27.9477
 20
-4.3059
 30
0.0
 10
-27.8579
 20
-4.2414
 30
0.0
 10
-27.7502
 20
-4.209
 30
0.0
 10
-27.6255
 20
-4.209
 30
0.0
 10
-27.6255
 20
-4.209
 30
0.0
 10
-27.4524
 20
-4.209
 30
0.0
 10
-27.3075
 20
-4.2701
 30
0.0
 10
-27.19
 20
-4.3919
 30
0.0
 10
-27.19
 20
-4.3919
 30
0.0
 10
-27.0724
 20
-4.5142
 30
0.0
 10
-27.0136
 20
-4.6751
 30
0.0
 10
-27.0136
 20
-4.8745
 30
0.0
 10
-27.0136
 20
-4.8745
 30
0.0
 10
-27.0136
 20
-5.074
 30
0.0
 10
-27.0724
 20
-5.2344
 30
0.0
 10
-27.1904
 20
-5.3567
 30
0.0
 10
-27.1904
 20
-5.3567
 30
0.0
 10
-27.3085
 20
-5.479
 30
0.0
 10
-27.4557
 20
-5.5401
 30
0.0
 10
-27.6321
 20
-5.5401
 30
0.0
 10
-27.6321
 20
-5.5401
 30
0.0
 10
-27.7633
 20
-5.5401
 30
0.0
 10
-27.8734
 20
-5.5067
 30
0.0
 10
-27.9623
 20
-5.4399
 30
0.0
 10
-27.9623
 20
-5.4399
 30
0.0
 10
-28.0507
 20
-5.3736
 30
0.0
 10
-28.1114
 20
-5.2786
 30
0.0
 10
-28.1434
 20
-5.1553
 30
0.0
  0
SPLINE
  5
49
330
1F
100
AcDbEntity
  8
DEFAULT_1
 62
   250
100
AcDbSpline
210
0.0
220
0.0
230
1.0
 70
    11
 71
     3
 72
    36
 73
    32
 74
     0
 42
0.0000000001
 43
0.0000000001
 40
0.0
 40
0.0
 40
0.0
 40
0.0
 40
0.1111111111111111
 40
0.1111111111111111
 40
0.1111111111111111
 40
0.1111111111111111
 40
0.2222222222222222
 40
0.2222222222222222
 40
0.2222222222222222
 40
0.2222222222222222
 40
0.3333333333333333
 40
0.3333333333333333
 40
0.3333333333333333
 40
0.3333333333333333
 40
0.4444444444444444
 40
0.4444444444444444
 40
0.4444444444444444
 40
0.4444444444444444
 40
0.5555555555555556
 40
0.5555555555555556
 40
0.5555555555555556
 40
0.5555555555555556
 40
0.6666666666666666
 40
0.6666666666666666
 40
0.6666666666666666
 40
0.6666666666666666
 40
0.7777777777777778
 40
0.7777777777777778
 40
0.7777777777777778
 40
0.7777777777777778
 40
1.0
 40
1.0
 40
1.0
 40
1.0
 10
-28.5639
 20
-5.2052
 30
0.0
 10
-28.4684
 20
-5.2052
 30
0.0
 10
-28.3903
 20
-5.1742
 30
0.0
 10
-28.3296
 20
-5.113
 30
0.0
 10
-28.3296
 20
-5.113
 30
0.0
 10
-28.269
 20
-5.0514
 30
0.0
 10
-28.2384
 20
-4.9714
 30
0.0
 10
-28.2384
 20
-4.8731
 30
0.0
 10
-28.2384
 20
-4.8731
 30
0.0
 10
-28.2384
 20
-4.7776
 30
0.0
 10
-28.2685
 20
-4.6991
 30
0.0
 10
-28.3287
 20
-4.6379
 30
0.0
 10
-28.3287
 20
-4.6379
 30
0.0
 10
-28.3889
 20
-4.5768
 30
0.0
 10
-28.4628
 20
-4.5467
 30
0.0
 10
-28.5498
 20
-4.5467
 30
0.0
 10
-28.5498
 20
-4.5467
 30
0.0
 10
-28.641
 20
-4.5467
 30
0.0
 10
-28.7172
 20
-4.5777
 30
0.0
 10
-28.7793
 20
-4.6408
 30
0.0
 10
-28.7793
 20
-4.6408
 30
0.0
 10
-28.8414
 20
-4.7038
 30
0.0
 10
-28.8725
 20
-4.7819
 30
0.0
 10
-28.8725
 20
-4.8759
 30
0.0
 10
-28.8725
 20
-4.8759
 30
0.0
 10
-28.8725
 20
-4.9705
 30
0.0
 10
-28.8419
 20
-5.049
 30
0.0
 10
-28.7817
 20
-5.1116
 30
0.0
 10
-28.7817
 20
-5.1116
 30
0.0
 10
-28.721
 20
-5.1742
 30
0.0
 10
-28.6481
 20
-5.2052
 30
0.0
 10
-28.5639
 20
-5.2052
 30
0.0
  0
SPLINE
  5
4A
330
1F
100
AcDbEntity
  8
DEFAULT_1
 62
   250
100
AcDbSpline
210
0.0
220
0.0
230
1.0
 70
    11
 71
     3
 72
    40
 73
    36
 74
     0
 42
0.0000000001
 43
0.0000000001
 40
0.0
 40
0.0
 40
0.0
 40
0.0
 40
0.1
 40
0.1
 40
0.1
 40
0.1
 40
0.2
 40
0.2
 40
0.2
 40
0.2
 40
0.3
 40
0.3
 40
0.3
 40
0.3
 40
0.4
 40
0.4
 40
0.4
 40
0.4
 40
0.5
 40
0.5
 40
0.5
 40
0.5
 40
0.6
 40
0.6
 40
0.6
 40
0.6
 40
0.7
 40
0.7
 40
0.7
 40
0.7
 40
0.8
 40
0.8
 40
0.8
 40
0.8
 40
1.0
 40
1.0
 40
1.0
 40
1.0
 10
-27.6307
 20
-5.2852
 30
0.0
 10
-27.5601
 20
-5.2852
 30
0.0
 10
-27.4915
 20
-5.2682
 30
0.0
 10
-27.4256
 20
-5.2348
 30
0.0
 10
-27.4256
 20
-5.2348
 30
0.0
 10
-27.3593
 20
-5.2014
 30
0.0
 10
-27.308
 20
-5.1516
 30
0.0
 10
-27.2718
 20
-5.0853
 30
0.0
 10
-27.2718
 20
-5.0853
 30
0.0
 10
-27.2356
 20
-5.0189
 30
0.0
 10
-27.2172
 20
-4.9479
 30
0.0
 10
-27.2172
 20
-4.8717
 30
0.0
 10
-27.2172
 20
-4.8717
 30
0.0
 10
-27.2172
 20
-4.7532
 30
0.0
 10
-27.2553
 20
-4.6553
 30
0.0
 10
-27.332
 20
-4.5782
 30
0.0
 10
-27.332
 20
-4.5782
 30
0.0
 10
-27.4082
 20
-4.5011
 30
0.0
 10
-27.5051
 20
-4.4625
 30
0.0
 10
-27.6227
 20
-4.4625
 30
0.0
 10
-27.6227
 20
-4.4625
 30
0.0
 10
-27.7422
 20
-4.4625
 30
0.0
 10
-27.8409
 20
-4.502
 30
0.0
 10
-27.919
 20
-4.5815
 30
0.0
 10
-27.919
 20
-4.5815
 30
0.0
 10
-27.9971
 20
-4.661
 30
0.0
 10
-28.0361
 20
-4.7607
 30
0.0
 10
-28.0361
 20
-4.8802
 30
0.0
 10
-28.0361
 20
-4.8802
 30
0.0
 10
-28.0361
 20
-4.9968
 30
0.0
 10
-27.9976
 20
-5.0933
 30
0.0
 10
-27.9204
 20
-5.1699
 30
0.0
 10
-27.9204
 20
-5.1699
 30
0.0
 10
-27.8428
 20
-5.2466
 30
0.0
 10
-27.7464
 20
-5.2852
 30
0.0
 10
-27.6307
 20
-5.2852
 30
0.0
  0
SPLINE
  5
4B
330
1F
100
AcDbEntity
  8
DEFAULT_1
 62
   250
100
AcDbSpline
210
0.0
220
0.0
230
1.0
 70
    11
 71
     3
 72
    20
 73
    16
 74
     0
 42
0.0000000001
 43
0.0000000001
 40
0.0
 40
0.0
 40
0.0
 40
0.0
 40
0.2
 40
0.2
 40
0.2
 40
0.2
 40
0.4
 40
0.4
 40
0.4
 40
0.4
 40
0.6
 40
0.6
 40
0.6
 40
0.6
 40
1.0
 40
1.0
 40
1.0
 40
1.0
 10
-27.0916
 20
2.9563
 30
0.0
 10
-27.0916
 20
2.9563
 30
0.0
 10
-26.7387
 20
5.4563
 30
0.0
 10
-26.7387
 20
5.4563
 30
0.0
 10
-26.7387
 20
5.4563
 30
0.0
 10
-26.7387
 20
5.4563
 30
0.0
 10
-26.6604
 20
5.4563
 30
0.0
 10
-26.6604
 20
5.4563
 30
0.0
 10
-26.6604
 20
5.4563
 30
0.0
 10
-26.6604
 20
5.4563
 30
0.0
 10
-26.2841
 20
2.9563
 30
0.0
 10
-26.2841
 20
2.9563
 30
0.0
 10
-26.2841
 20
2.9563
 30
0.0
 10
-26.2841
 20
2.9563
 30
0.0
 10
-27.0916
 20
2.9563
 30
0.0
 10
-27.0916
 20
2.9563
 30
0.0
  0
SPLINE
  5
4C
330
1F
100
AcDbEntity
  8
DEFAULT_1
 62
   250
100
AcDbSpline
210
0.0
220
0.0
230
1.0
 70
    11
 71
     3
 72
    20
 73
    16
 74
     0
 42
0.0000000001
 43
0.0000000001
 40
0.0
 40
0.0
 40
0.0
 40
0.0
 40
0.2
 40
0.2
 40
0.2
 40
0.2
 40
0.4
 40
0.4
 40
0.4
 40
0.4
 40
0.6
 40
0.6
 40
0.6
 40
0.6
 40
1.0
 40
1.0
 40
1.0
 40
1.0
 10
-26.2769
 20
-14.3144
 30
0.0
 10
-26.2769
 20
-14.3144
 30
0.0
 10
-26.6298
 20
-16.8144
 30
0.0
 10
-26.6298
 20
-16.8144
 30
0.0
 10
-26.6298
 20
-16.8144
 30
0.0
 10
-26.6298
 20
-16.8144
 30
0.0
 10
-26.7081
 20
-16.8144
 30
0.0
 10
-26.7081
 20
-16.8144
 30
0.0
 10
-26.7081
 20
-16.8144
 30
0.0
 10
-26.7081
 20
-16.8144
 30
0.0
 10
-27.0844
 20
-14.3144
 30
0.0
 10
-27.0844
 20
-14.3144
 30
0.0
 10
-27.0844
 20
-14.3144
 30
0.0
 10
-27.0844
 20
-14.3144
 30
0.0
 10
-26.2769
 20
-14.3144
 30
0.0
 10
-26.2769
 20
-14.3144
 30
0.0
  0
SPLINE
  5
4D
330
1F
100
AcDbEntity
  8
DEFAULT_1
 62
   250
100
AcDbSpline
210
0.0
220
0.0
230
1.0
 70
    11
 71
     3
 72
    84
 73
    80
 74
     0
 42
0.0000000001
 43
0.0000000001
 40
0.0
 40
0.0
 40
0.0
 40
0.0
 40
0.0476190476190476
 40
0.0476190476190476
 40
0.0476190476190476
 40
0.0476190476190476
 40
0.0952380952380952
 40
0.0952380952380952
 40
0.0952380952380952
 40
0.0952380952380952
 40
0.1428571428571428
 40
0.1428571428571428
 40
0.1428571428571428
 40
0.1428571428571428
 40
0.1904761904761905
 40
0.1904761904761905
 40
0.1904761904761905
 40
0.1904761904761905
 40
0.2380952380952381
 40
0.2380952380952381
 40
0.2380952380952381
 40
0.2380952380952381
 40
0.2857142857142857
 40
0.2857142857142857
 40
0.2857142857142857
 40
0.2857142857142857
 40
0.3333333333333333
 40
0.3333333333333333
 40
0.3333333333333333
 40
0.3333333333333333
 40
0.3809523809523809
 40
0.3809523809523809
 40
0.3809523809523809
 40
0.3809523809523809
 40
0.4285714285714285
 40
0.4285714285714285
 40
0.4285714285714285
 40
0.4285714285714285
 40
0.4761904761904762
 40
0.4761904761904762
 40
0.4761904761904762
 40
0.4761904761904762
 40
0.5238095238095238
 40
0.5238095238095238
 40
0.5238095238095238
 40
0.5238095238095238
 40
0.5714285714285714
 40
0.5714285714285714
 40
0.5714285714285714
 40
0.5714285714285714
 40
0.6190476190476191
 40
0.6190476190476191
 40
0.6190476190476191
 40
0.6190476190476191
 40
0.6666666666666666
 40
0.6666666666666666
 40
0.6666666666666666
 40
0.6666666666666666
 40
0.7142857142857143
 40
0.7142857142857143
 40
0.7142857142857143
 40
0.7142857142857143
 40
0.7619047619047619
 40
0.7619047619047619
 40
0.7619047619047619
 40
0.7619047619047619
 40
0.8095238095238095
 40
0.8095238095238095
 40
0.8095238095238095
 40
0.8095238095238095
 40
0.8571428571428571
 40
0.8571428571428571
 40
0.8571428571428571
 40
0.8571428571428571
 40
0.9047619047619048
 40
0.9047619047619048
 40
0.9047619047619048
 40
0.9047619047619048
 40
1.0
 40
1.0
 40
1.0
 40
1.0
 10
13.2469
 20
-25.5836
 30
0.0
 10
13.2469
 20
-25.5836
 30
0.0
 10
13.4783
 20
-25.3245
 30
0.0
 10
13.4783
 20
-25.3245
 30
0.0
 10
13.4783
 20
-25.3245
 30
0.0
 10
13.4783
 20
-25.3245
 30
0.0
 10
13.6147
 20
-25.4402
 30
0.0
 10
13.6147
 20
-25.4402
 30
0.0
 10
13.6147
 20
-25.4402
 30
0.0
 10
13.6147
 20
-25.4402
 30
0.0
 10
13.3725
 20
-25.713
 30
0.0
 10
13.3725
 20
-25.713
 30
0.0
 10
13.3725
 20
-25.713
 30
0.0
 10
13.4515
 20
-25.8306
 30
0.0
 10
13.5046
 20
-25.9336
 30
0.0
 10
13.5324
 20
-26.0215
 30
0.0
 10
13.5324
 20
-26.0215
 30
0.0
 10
13.5691
 20
-26.1373
 30
0.0
 10
13.5874
 20
-26.2671
 30
0.0
 10
13.5874
 20
-26.4101
 30
0.0
 10
13.5874
 20
-26.4101
 30
0.0
 10
13.5874
 20
-26.617
 30
0.0
 10
13.5456
 20
-26.8014
 30
0.0
 10
13.4618
 20
-26.9627
 30
0.0
 10
13.4618
 20
-26.9627
 30
0.0
 10
13.3781
 20
-27.1246
 30
0.0
 10
13.261
 20
-27.2468
 30
0.0
 10
13.11
 20
-27.3296
 30
0.0
 10
13.11
 20
-27.3296
 30
0.0
 10
12.9585
 20
-27.4119
 30
0.0
 10
12.7982
 20
-27.4533
 30
0.0
 10
12.6284
 20
-27.4533
 30
0.0
 10
12.6284
 20
-27.4533
 30
0.0
 10
12.5014
 20
-27.4533
 30
0.0
 10
12.3866
 20
-27.4355
 30
0.0
 10
12.2836
 20
-27.3997
 30
0.0
 10
12.2836
 20
-27.3997
 30
0.0
 10
12.2046
 20
-27.372
 30
0.0
 10
12.1124
 20
-27.3193
 30
0.0
 10
12.0065
 20
-27.2412
 30
0.0
 10
12.0065
 20
-27.2412
 30
0.0
 10
12.0065
 20
-27.2412
 30
0.0
 10
11.7751
 20
-27.5004
 30
0.0
 10
11.7751
 20
-27.5004
 30
0.0
 10
11.7751
 20
-27.5004
 30
0.0
 10
11.7751
 20
-27.5004
 30
0.0
 10
11.6387
 20
-27.3847
 30
0.0
 10
11.6387
 20
-27.3847
 30
0.0
 10
11.6387
 20
-27.3847
 30
0.0
 10
11.6387
 20
-27.3847
 30
0.0
 10
11.8814
 20
-27.1133
 30
0.0
 10
11.8814
 20
-27.1133
 30
0.0
 10
11.8814
 20
-27.1133
 30
0.0
 10
11.7911
 20
-26.9764
 30
0.0
 10
11.7309
 20
-26.8593
 30
0.0
 10
11.7008
 20
-26.7624
 30
0.0
 10
11.7008
 20
-26.7624
 30
0.0
 10
11.6707
 20
-26.6655
 30
0.0
 10
11.6552
 20
-26.5488
 30
0.0
 10
11.6552
 20
-26.4129
 30
0.0
 10
11.6552
 20
-26.4129
 30
0.0
 10
11.6552
 20
-26.2055
 30
0.0
 10
11.6966
 20
-26.0206
 30
0.0
 10
11.7793
 20
-25.8583
 30
0.0
 10
11.7793
 20
-25.8583
 30
0.0
 10
11.8621
 20
-25.696
 30
0.0
 10
11.9778
 20
-25.5733
 30
0.0
 10
12.1274
 20
-25.4896
 30
0.0
 10
12.1274
 20
-25.4896
 30
0.0
 10
12.2765
 20
-25.4063
 30
0.0
 10
12.4426
 20
-25.3644
 30
0.0
 10
12.6255
 20
-25.3644
 30
0.0
 10
12.6255
 20
-25.3644
 30
0.0
 10
12.7488
 20
-25.3644
 30
0.0
 10
12.8565
 20
-25.3804
 30
0.0
 10
12.9487
 20
-25.4134
 30
0.0
 10
12.9487
 20
-25.4134
 30
0.0
 10
13.0409
 20
-25.4458
 30
0.0
 10
13.1406
 20
-25.5027
 30
0.0
 10
13.2469
 20
-25.5836
 30
0.0
  0
SPLINE
  5
4E
330
1F
100
AcDbEntity
  8
DEFAULT_1
 62
   250
100
AcDbSpline
210
0.0
220
0.0
230
1.0
 70
    11
 71
     3
 72
    32
 73
    28
 74
     0
 42
0.0000000001
 43
0.0000000001
 40
0.0
 40
0.0
 40
0.0
 40
0.0
 40
0.125
 40
0.125
 40
0.125
 40
0.125
 40
0.25
 40
0.25
 40
0.25
 40
0.25
 40
0.375
 40
0.375
 40
0.375
 40
0.375
 40
0.5
 40
0.5
 40
0.5
 40
0.5
 40
0.625
 40
0.625
 40
0.625
 40
0.625
 40
0.75
 40
0.75
 40
0.75
 40
0.75
 40
1.0
 40
1.0
 40
1.0
 40
1.0
 10
13.0818
 20
-25.7694
 30
0.0
 10
12.9952
 20
-25.7017
 30
0.0
 10
12.9195
 20
-25.6551
 30
0.0
 10
12.8551
 20
-25.6302
 30
0.0
 10
12.8551
 20
-25.6302
 30
0.0
 10
12.7902
 20
-25.6057
 30
0.0
 10
12.714
 20
-25.593
 30
0.0
 10
12.6269
 20
-25.593
 30
0.0
 10
12.6269
 20
-25.593
 30
0.0
 10
12.4256
 20
-25.593
 30
0.0
 10
12.2596
 20
-25.6612
 30
0.0
 10
12.1279
 20
-25.7976
 30
0.0
 10
12.1279
 20
-25.7976
 30
0.0
 10
11.9966
 20
-25.9341
 30
0.0
 10
11.9308
 20
-26.1377
 30
0.0
 10
11.9308
 20
-26.4091
 30
0.0
 10
11.9308
 20
-26.4091
 30
0.0
 10
11.9308
 20
-26.5154
 30
0.0
 10
11.9411
 20
-26.61
 30
0.0
 10
11.9614
 20
-26.6928
 30
0.0
 10
11.9614
 20
-26.6928
 30
0.0
 10
11.976
 20
-26.7544
 30
0.0
 10
12.0065
 20
-26.8301
 30
0.0
 10
12.0536
 20
-26.9199
 30
0.0
 10
12.0536
 20
-26.9199
 30
0.0
 10
12.0536
 20
-26.9199
 30
0.0
 10
13.0818
 20
-25.7694
 30
0.0
 10
13.0818
 20
-25.7694
 30
0.0
  0
SPLINE
  5
4F
330
1F
100
AcDbEntity
  8
DEFAULT_1
 62
   250
100
AcDbSpline
210
0.0
220
0.0
230
1.0
 70
    11
 71
     3
 72
    28
 73
    24
 74
     0
 42
0.0000000001
 43
0.0000000001
 40
0.0
 40
0.0
 40
0.0
 40
0.0
 40
0.1428571428571428
 40
0.1428571428571428
 40
0.1428571428571428
 40
0.1428571428571428
 40
0.2857142857142857
 40
0.2857142857142857
 40
0.2857142857142857
 40
0.2857142857142857
 40
0.4285714285714285
 40
0.4285714285714285
 40
0.4285714285714285
 40
0.4285714285714285
 40
0.5714285714285714
 40
0.5714285714285714
 40
0.5714285714285714
 40
0.5714285714285714
 40
0.7142857142857143
 40
0.7142857142857143
 40
0.7142857142857143
 40
0.7142857142857143
 40
1.0
 40
1.0
 40
1.0
 40
1.0
 10
13.1947
 20
-25.9115
 30
0.0
 10
13.1947
 20
-25.9115
 30
0.0
 10
12.1707
 20
-27.0578
 30
0.0
 10
12.1707
 20
-27.0578
 30
0.0
 10
12.1707
 20
-27.0578
 30
0.0
 10
12.2412
 20
-27.1156
 30
0.0
 10
12.3066
 20
-27.1561
 30
0.0
 10
12.3664
 20
-27.1791
 30
0.0
 10
12.3664
 20
-27.1791
 30
0.0
 10
12.4444
 20
-27.2097
 30
0.0
 10
12.5291
 20
-27.2247
 30
0.0
 10
12.6199
 20
-27.2247
 30
0.0
 10
12.6199
 20
-27.2247
 30
0.0
 10
12.8203
 20
-27.2247
 30
0.0
 10
12.9854
 20
-27.1542
 30
0.0
 10
13.1161
 20
-27.0126
 30
0.0
 10
13.1161
 20
-27.0126
 30
0.0
 10
13.2464
 20
-26.871
 30
0.0
 10
13.3118
 20
-26.6725
 30
0.0
 10
13.3118
 20
-26.4171
 30
0.0
 10
13.3118
 20
-26.4171
 30
0.0
 10
13.3118
 20
-26.2262
 30
0.0
 10
13.2728
 20
-26.0573
 30
0.0
 10
13.1947
 20
-25.9115
 30
0.0
  0
SPLINE
  5
50
330
1F
100
AcDbEntity
  8
DEFAULT_1
 62
   250
100
AcDbSpline
210
0.0
220
0.0
230
1.0
 70
    11
 71
     3
 72
    40
 73
    36
 74
     0
 42
0.0000000001
 43
0.0000000001
 40
0.0
 40
0.0
 40
0.0
 40
0.0
 40
0.1
 40
0.1
 40
0.1
 40
0.1
 40
0.2
 40
0.2
 40
0.2
 40
0.2
 40
0.3
 40
0.3
 40
0.3
 40
0.3
 40
0.4
 40
0.4
 40
0.4
 40
0.4
 40
0.5
 40
0.5
 40
0.5
 40
0.5
 40
0.6
 40
0.6
 40
0.6
 40
0.6
 40
0.7
 40
0.7
 40
0.7
 40
0.7
 40
0.8
 40
0.8
 40
0.8
 40
0.8
 40
1.0
 40
1.0
 40
1.0
 40
1.0
 10
14.7709
 20
-27.419
 30
0.0
 10
14.7709
 20
-27.419
 30
0.0
 10
14.523
 20
-27.419
 30
0.0
 10
14.523
 20
-27.419
 30
0.0
 10
14.523
 20
-27.419
 30
0.0
 10
14.523
 20
-27.419
 30
0.0
 10
14.523
 20
-25.8386
 30
0.0
 10
14.523
 20
-25.8386
 30
0.0
 10
14.523
 20
-25.8386
 30
0.0
 10
14.4632
 20
-25.8955
 30
0.0
 10
14.3852
 20
-25.9524
 30
0.0
 10
14.2883
 20
-26.0093
 30
0.0
 10
14.2883
 20
-26.0093
 30
0.0
 10
14.1909
 20
-26.0662
 30
0.0
 10
14.1039
 20
-26.109
 30
0.0
 10
14.0267
 20
-26.1373
 30
0.0
 10
14.0267
 20
-26.1373
 30
0.0
 10
14.0267
 20
-26.1373
 30
0.0
 10
14.0267
 20
-25.8978
 30
0.0
 10
14.0267
 20
-25.8978
 30
0.0
 10
14.0267
 20
-25.8978
 30
0.0
 10
14.1655
 20
-25.8325
 30
0.0
 10
14.2869
 20
-25.7534
 30
0.0
 10
14.3908
 20
-25.6608
 30
0.0
 10
14.3908
 20
-25.6608
 30
0.0
 10
14.4943
 20
-25.5676
 30
0.0
 10
14.5681
 20
-25.4778
 30
0.0
 10
14.6114
 20
-25.3903
 30
0.0
 10
14.6114
 20
-25.3903
 30
0.0
 10
14.6114
 20
-25.3903
 30
0.0
 10
14.7709
 20
-25.3903
 30
0.0
 10
14.7709
 20
-25.3903
 30
0.0
 10
14.7709
 20
-25.3903
 30
0.0
 10
14.7709
 20
-25.3903
 30
0.0
 10
14.7709
 20
-27.419
 30
0.0
 10
14.7709
 20
-27.419
 30
0.0
  0
SPLINE
  5
51
330
1F
100
AcDbEntity
  8
DEFAULT_1
 62
   250
100
AcDbSpline
210
0.0
220
0.0
230
1.0
 70
    11
 71
     3
 72
    48
 73
    44
 74
     0
 42
0.0000000001
 43
0.0000000001
 40
0.0
 40
0.0
 40
0.0
 40
0.0
 40
0.0833333333333333
 40
0.0833333333333333
 40
0.0833333333333333
 40
0.0833333333333333
 40
0.1666666666666667
 40
0.1666666666666667
 40
0.1666666666666667
 40
0.1666666666666667
 40
0.25
 40
0.25
 40
0.25
 40
0.25
 40
0.3333333333333333
 40
0.3333333333333333
 40
0.3333333333333333
 40
0.3333333333333333
 40
0.4166666666666667
 40
0.4166666666666667
 40
0.4166666666666667
 40
0.4166666666666667
 40
0.5
 40
0.5
 40
0.5
 40
0.5
 40
0.5833333333333334
 40
0.5833333333333334
 40
0.5833333333333334
 40
0.5833333333333334
 40
0.6666666666666666
 40
0.6666666666666666
 40
0.6666666666666666
 40
0.6666666666666666
 40
0.75
 40
0.75
 40
0.75
 40
0.75
 40
0.8333333333333334
 40
0.8333333333333334
 40
0.8333333333333334
 40
0.8333333333333334
 40
1.0
 40
1.0
 40
1.0
 40
1.0
 10
15.4228
 20
-25.6636
 30
0.0
 10
15.4228
 20
-25.6636
 30
0.0
 10
15.4228
 20
-25.4251
 30
0.0
 10
15.4228
 20
-25.4251
 30
0.0
 10
15.4228
 20
-25.4251
 30
0.0
 10
15.4228
 20
-25.4251
 30
0.0
 10
16.7304
 20
-25.4251
 30
0.0
 10
16.7304
 20
-25.4251
 30
0.0
 10
16.7304
 20
-25.4251
 30
0.0
 10
16.7304
 20
-25.4251
 30
0.0
 10
16.7304
 20
-25.618
 30
0.0
 10
16.7304
 20
-25.618
 30
0.0
 10
16.7304
 20
-25.618
 30
0.0
 10
16.602
 20
-25.7548
 30
0.0
 10
16.4745
 20
-25.9369
 30
0.0
 10
16.348
 20
-26.1636
 30
0.0
 10
16.348
 20
-26.1636
 30
0.0
 10
16.2219
 20
-26.3903
 30
0.0
 10
16.1241
 20
-26.6241
 30
0.0
 10
16.0554
 20
-26.8635
 30
0.0
 10
16.0554
 20
-26.8635
 30
0.0
 10
16.0056
 20
-27.0328
 30
0.0
 10
15.9741
 20
-27.2177
 30
0.0
 10
15.9604
 20
-27.419
 30
0.0
 10
15.9604
 20
-27.419
 30
0.0
 10
15.9604
 20
-27.419
 30
0.0
 10
15.7055
 20
-27.419
 30
0.0
 10
15.7055
 20
-27.419
 30
0.0
 10
15.7055
 20
-27.419
 30
0.0
 10
15.7083
 20
-27.26
 30
0.0
 10
15.7393
 20
-27.0681
 30
0.0
 10
15.7991
 20
-26.8428
 30
0.0
 10
15.7991
 20
-26.8428
 30
0.0
 10
15.8588
 20
-26.618
 30
0.0
 10
15.9444
 20
-26.4007
 30
0.0
 10
16.0559
 20
-26.1918
 30
0.0
 10
16.0559
 20
-26.1918
 30
0.0
 10
16.1678
 20
-25.983
 30
0.0
 10
16.2864
 20
-25.8066
 30
0.0
 10
16.4124
 20
-25.6636
 30
0.0
 10
16.4124
 20
-25.6636
 30
0.0
 10
16.4124
 20
-25.6636
 30
0.0
 10
15.4228
 20
-25.6636
 30
0.0
 10
15.4228
 20
-25.6636
 30
0.0
  0
SPLINE
  5
52
330
1F
100
AcDbEntity
  8
DEFAULT_1
 62
   250
100
AcDbSpline
210
0.0
220
0.0
230
1.0
 70
    11
 71
     3
 72
    20
 73
    16
 74
     0
 42
0.0000000001
 43
0.0000000001
 40
0.0
 40
0.0
 40
0.0
 40
0.0
 40
0.2
 40
0.2
 40
0.2
 40
0.2
 40
0.4
 40
0.4
 40
0.4
 40
0.4
 40
0.6
 40
0.6
 40
0.6
 40
0.6
 40
1.0
 40
1.0
 40
1.0
 40
1.0
 10
19.8628
 20
-31.734
 30
0.0
 10
19.8628
 20
-31.734
 30
0.0
 10
22.3628
 20
-32.0869
 30
0.0
 10
22.3628
 20
-32.0869
 30
0.0
 10
22.3628
 20
-32.0869
 30
0.0
 10
22.3628
 20
-32.0869
 30
0.0
 10
22.3628
 20
-32.1652
 30
0.0
 10
22.3628
 20
-32.1652
 30
0.0
 10
22.3628
 20
-32.1652
 30
0.0
 10
22.3628
 20
-32.1652
 30
0.0
 10
19.8628
 20
-32.5415
 30
0.0
 10
19.8628
 20
-32.5415
 30
0.0
 10
19.8628
 20
-32.5415
 30
0.0
 10
19.8628
 20
-32.5415
 30
0.0
 10
19.8628
 20
-31.734
 30
0.0
 10
19.8628
 20
-31.734
 30
0.0
  0
SPLINE
  5
53
330
1F
100
AcDbEntity
  8
DEFAULT_1
 62
   250
100
AcDbSpline
210
0.0
220
0.0
230
1.0
 70
    11
 71
     3
 72
    20
 73
    16
 74
     0
 42
0.0000000001
 43
0.0000000001
 40
0.0
 40
0.0
 40
0.0
 40
0.0
 40
0.2
 40
0.2
 40
0.2
 40
0.2
 40
0.4
 40
0.4
 40
0.4
 40
0.4
 40
0.6
 40
0.6
 40
0.6
 40
0.6
 40
1.0
 40
1.0
 40
1.0
 40
1.0
 10
-6.4867
 20
-32.5342
 30
0.0
 10
-6.4867
 20
-32.5342
 30
0.0
 10
-8.9867
 20
-32.1813
 30
0.0
 10
-8.9867
 20
-32.1813
 30
0.0
 10
-8.9867
 20
-32.1813
 30
0.0
 10
-8.9867
 20
-32.1813
 30
0.0
 10
-8.9867
 20
-32.103
 30
0.0
 10
-8.9867
 20
-32.103
 30
0.0
 10
-8.9867
 20
-32.103
 30
0.0
 10
-8.9867
 20
-32.103
 30
0.0
 10
-6.4867
 20
-31.7267
 30
0.0
 10
-6.4867
 20
-31.7267
 30
0.0
 10
-6.4867
 20
-31.7267
 30
0.0
 10
-6.4867
 20
-31.7267
 30
0.0
 10
-6.4867
 20
-32.5342
 30
0.0
 10
-6.4867
 20
-32.5342
 30
0.0
  0
SPLINE
  5
54
330
1F
100
AcDbEntity
  8
DEFAULT_1
 62
   250
100
AcDbSpline
210
0.0
220
0.0
230
1.0
 70
    11
 71
     3
 72
   120
 73
   116
 74
     0
 42
0.0000000001
 43
0.0000000001
 40
0.0
 40
0.0
 40
0.0
 40
0.0
 40
0.0333333333333333
 40
0.0333333333333333
 40
0.0333333333333333
 40
0.0333333333333333
 40
0.0666666666666667
 40
0.0666666666666667
 40
0.0666666666666667
 40
0.0666666666666667
 40
0.1
 40
0.1
 40
0.1
 40
0.1
 40
0.1333333333333333
 40
0.1333333333333333
 40
0.1333333333333333
 40
0.1333333333333333
 40
0.1666666666666667
 40
0.1666666666666667
 40
0.1666666666666667
 40
0.1666666666666667
 40
0.2
 40
0.2
 40
0.2
 40
0.2
 40
0.2333333333333333
 40
0.2333333333333333
 40
0.2333333333333333
 40
0.2333333333333333
 40
0.2666666666666667
 40
0.2666666666666667
 40
0.2666666666666667
 40
0.2666666666666667
 40
0.3
 40
0.3
 40
0.3
 40
0.3
 40
0.3333333333333333
 40
0.3333333333333333
 40
0.3333333333333333
 40
0.3333333333333333
 40
0.3666666666666666
 40
0.3666666666666666
 40
0.3666666666666666
 40
0.3666666666666666
 40
0.4
 40
0.4
 40
0.4
 40
0.4
 40
0.4333333333333333
 40
0.4333333333333333
 40
0.4333333333333333
 40
0.4333333333333333
 40
0.4666666666666667
 40
0.4666666666666667
 40
0.4666666666666667
 40
0.4666666666666667
 40
0.5
 40
0.5
 40
0.5
 40
0.5
 40
0.5333333333333333
 40
0.5333333333333333
 40
0.5333333333333333
 40
0.5333333333333333
 40
0.5666666666666667
 40
0.5666666666666667
 40
0.5666666666666667
 40
0.5666666666666667
 40
0.6
 40
0.6
 40
0.6
 40
0.6
 40
0.6333333333333333
 40
0.6333333333333333
 40
0.6333333333333333
 40
0.6333333333333333
 40
0.6666666666666666
 40
0.6666666666666666
 40
0.6666666666666666
 40
0.6666666666666666
 40
0.7
 40
0.7
 40
0.7
 40
0.7
 40
0.7333333333333333
 40
0.7333333333333333
 40
0.7333333333333333
 40
0.7333333333333333
 40
0.7666666666666667
 40
0.7666666666666667
 40
0.7666666666666667
 40
0.7666666666666667
 40
0.8
 40
0.8
 40
0.8
 40
0.8
 40
0.8333333333333334
 40
0.8333333333333334
 40
0.8333333333333334
 40
0.8333333333333334
 40
0.8666666666666667
 40
0.8666666666666667
 40
0.8666666666666667
 40
0.8666666666666667
 40
0.9
 40
0.9
 40
0.9
 40
0.9
 40
0.9333333333333333
 40
0.9333333333333333
 40
0.9333333333333333
 40
0.9333333333333333
 40
1.0
 40
1.0
 40
1.0
 40
1.0
 10
-11.7366
 20
-20.0295
 30
0.0
 10
-11.7366
 20
-20.0295
 30
0.0
 10
-11.7366
 20
-19.7929
 30
0.0
 10
-11.7366
 20
-19.7929
 30
0.0
 10
-11.7366
 20
-19.7929
 30
0.0
 10
-11.7366
 20
-19.7929
 30
0.0
 10
-10.881
 20
-19.7915
 30
0.0
 10
-10.881
 20
-19.7915
 30
0.0
 10
-10.881
 20
-19.7915
 30
0.0
 10
-10.881
 20
-19.7915
 30
0.0
 10
-10.881
 20
-20.5408
 30
0.0
 10
-10.881
 20
-20.5408
 30
0.0
 10
-10.881
 20
-20.5408
 30
0.0
 10
-11.0122
 20
-20.6457
 30
0.0
 10
-11.1477
 20
-20.7243
 30
0.0
 10
-11.2874
 20
-20.7774
 30
0.0
 10
-11.2874
 20
-20.7774
 30
0.0
 10
-11.4271
 20
-20.8301
 30
0.0
 10
-11.5705
 20
-20.8564
 30
0.0
 10
-11.7173
 20
-20.8564
 30
0.0
 10
-11.7173
 20
-20.8564
 30
0.0
 10
-11.9158
 20
-20.8564
 30
0.0
 10
-12.0964
 20
-20.8141
 30
0.0
 10
-12.2582
 20
-20.729
 30
0.0
 10
-12.2582
 20
-20.729
 30
0.0
 10
-12.4205
 20
-20.6443
 30
0.0
 10
-12.5428
 20
-20.5211
 30
0.0
 10
-12.6256
 20
-20.3607
 30
0.0
 10
-12.6256
 20
-20.3607
 30
0.0
 10
-12.7084
 20
-20.1998
 30
0.0
 10
-12.7498
 20
-20.0201
 30
0.0
 10
-12.7498
 20
-19.8216
 30
0.0
 10
-12.7498
 20
-19.8216
 30
0.0
 10
-12.7498
 20
-19.625
 30
0.0
 10
-12.7084
 20
-19.4416
 30
0.0
 10
-12.626
 20
-19.2713
 30
0.0
 10
-12.626
 20
-19.2713
 30
0.0
 10
-12.5442
 20
-19.1006
 30
0.0
 10
-12.4257
 20
-18.974
 30
0.0
 10
-12.2714
 20
-18.8912
 30
0.0
 10
-12.2714
 20
-18.8912
 30
0.0
 10
-12.1171
 20
-18.8089
 30
0.0
 10
-11.9393
 20
-18.7675
 30
0.0
 10
-11.738
 20
-18.7675
 30
0.0
 10
-11.738
 20
-18.7675
 30
0.0
 10
-11.5922
 20
-18.7675
 30
0.0
 10
-11.46
 20
-18.7911
 30
0.0
 10
-11.3419
 20
-18.8386
 30
0.0
 10
-11.3419
 20
-18.8386
 30
0.0
 10
-11.2239
 20
-18.8856
 30
0.0
 10
-11.1312
 20
-18.9515
 30
0.0
 10
-11.0644
 20
-19.0361
 30
0.0
 10
-11.0644
 20
-19.0361
 30
0.0
 10
-10.9972
 20
-19.1208
 30
0.0
 10
-10.9464
 20
-19.2308
 30
0.0
 10
-10.9111
 20
-19.3668
 30
0.0
 10
-10.9111
 20
-19.3668
 30
0.0
 10
-10.9111
 20
-19.3668
 30
0.0
 10
-11.1524
 20
-19.4331
 30
0.0
 10
-11.1524
 20
-19.4331
 30
0.0
 10
-11.1524
 20
-19.4331
 30
0.0
 10
-11.183
 20
-19.3301
 30
0.0
 10
-11.2206
 20
-19.2492
 30
0.0
 10
-11.2653
 20
-19.1904
 30
0.0
 10
-11.2653
 20
-19.1904
 30
0.0
 10
-11.3104
 20
-19.1316
 30
0.0
 10
-11.3749
 20
-19.0846
 30
0.0
 10
-11.4586
 20
-19.0493
 30
0.0
 10
-11.4586
 20
-19.0493
 30
0.0
 10
-11.5419
 20
-19.014
 30
0.0
 10
-11.635
 20
-18.9961
 30
0.0
 10
-11.7366
 20
-18.9961
 30
0.0
 10
-11.7366
 20
-18.9961
 30
0.0
 10
-11.8589
 20
-18.9961
 30
0.0
 10
-11.9647
 20
-19.015
 30
0.0
 10
-12.0536
 20
-19.0521
 30
0.0
 10
-12.0536
 20
-19.0521
 30
0.0
 10
-12.143
 20
-19.0893
 30
0.0
 10
-12.2145
 20
-19.1382
 30
0.0
 10
-12.2695
 20
-19.1989
 30
0.0
 10
-12.2695
 20
-19.1989
 30
0.0
 10
-12.3241
 20
-19.2595
 30
0.0
 10
-12.3664
 20
-19.3259
 30
0.0
 10
-12.397
 20
-19.3988
 30
0.0
 10
-12.397
 20
-19.3988
 30
0.0
 10
-12.4482
 20
-19.5234
 30
0.0
 10
-12.4741
 20
-19.6589
 30
0.0
 10
-12.4741
 20
-19.8052
 30
0.0
 10
-12.4741
 20
-19.8052
 30
0.0
 10
-12.4741
 20
-19.9853
 30
0.0
 10
-12.4431
 20
-20.1358
 30
0.0
 10
-12.381
 20
-20.2572
 30
0.0
 10
-12.381
 20
-20.2572
 30
0.0
 10
-12.3189
 20
-20.3785
 30
0.0
 10
-12.2286
 20
-20.4684
 30
0.0
 10
-12.1101
 20
-20.5272
 30
0.0
 10
-12.1101
 20
-20.5272
 30
0.0
 10
-11.9915
 20
-20.586
 30
0.0
 10
-11.8659
 20
-20.6156
 30
0.0
 10
-11.7328
 20
-20.6156
 30
0.0
 10
-11.7328
 20
-20.6156
 30
0.0
 10
-11.6166
 20
-20.6156
 30
0.0
 10
-11.5038
 20
-20.593
 30
0.0
 10
-11.3937
 20
-20.5483
 30
0.0
 10
-11.3937
 20
-20.5483
 30
0.0
 10
-11.2831
 20
-20.5041
 30
0.0
 10
-11.1999
 20
-20.4566
 30
0.0
 10
-11.143
 20
-20.4058
 30
0.0
 10
-11.143
 20
-20.4058
 30
0.0
 10
-11.143
 20
-20.4058
 30
0.0
 10
-11.143
 20
-20.0295
 30
0.0
 10
-11.143
 20
-20.0295
 30
0.0
 10
-11.143
 20
-20.0295
 30
0.0
 10
-11.143
 20
-20.0295
 30
0.0
 10
-11.7366
 20
-20.0295
 30
0.0
 10
-11.7366
 20
-20.0295
 30
0.0
  0
SPLINE
  5
55
330
1F
100
AcDbEntity
  8
DEFAULT_1
 62
   250
100
AcDbSpline
210
0.0
220
0.0
230
1.0
 70
    11
 71
     3
 72
    80
 73
    76
 74
     0
 42
0.0000000001
 43
0.0000000001
 40
0.0
 40
0.0
 40
0.0
 40
0.0
 40
0.05
 40
0.05
 40
0.05
 40
0.05
 40
0.1
 40
0.1
 40
0.1
 40
0.1
 40
0.15
 40
0.15
 40
0.15
 40
0.15
 40
0.2
 40
0.2
 40
0.2
 40
0.2
 40
0.25
 40
0.25
 40
0.25
 40
0.25
 40
0.3
 40
0.3
 40
0.3
 40
0.3
 40
0.35
 40
0.35
 40
0.35
 40
0.35
 40
0.4
 40
0.4
 40
0.4
 40
0.4
 40
0.45
 40
0.45
 40
0.45
 40
0.45
 40
0.5
 40
0.5
 40
0.5
 40
0.5
 40
0.55
 40
0.55
 40
0.55
 40
0.55
 40
0.6
 40
0.6
 40
0.6
 40
0.6
 40
0.65
 40
0.65
 40
0.65
 40
0.65
 40
0.7
 40
0.7
 40
0.7
 40
0.7
 40
0.75
 40
0.75
 40
0.75
 40
0.75
 40
0.8
 40
0.8
 40
0.8
 40
0.8
 40
0.85
 40
0.85
 40
0.85
 40
0.85
 40
0.9
 40
0.9
 40
0.9
 40
0.9
 40
1.0
 40
1.0
 40
1.0
 40
1.0
 10
-8.5165
 20
-19.2967
 30
0.0
 10
-8.5165
 20
-19.2967
 30
0.0
 10
-8.7629
 20
-19.316
 30
0.0
 10
-8.7629
 20
-19.316
 30
0.0
 10
-8.7629
 20
-19.316
 30
0.0
 10
-8.785
 20
-19.2186
 30
0.0
 10
-8.8161
 20
-19.1476
 30
0.0
 10
-8.8565
 20
-19.1039
 30
0.0
 10
-8.8565
 20
-19.1039
 30
0.0
 10
-8.9238
 20
-19.0328
 30
0.0
 10
-9.0066
 20
-18.9975
 30
0.0
 10
-9.1049
 20
-18.9975
 30
0.0
 10
-9.1049
 20
-18.9975
 30
0.0
 10
-9.1839
 20
-18.9975
 30
0.0
 10
-9.253
 20
-19.0197
 30
0.0
 10
-9.3128
 20
-19.0639
 30
0.0
 10
-9.3128
 20
-19.0639
 30
0.0
 10
-9.3909
 20
-19.1208
 30
0.0
 10
-9.4525
 20
-19.204
 30
0.0
 10
-9.4976
 20
-19.3132
 30
0.0
 10
-9.4976
 20
-19.3132
 30
0.0
 10
-9.5423
 20
-19.4223
 30
0.0
 10
-9.5658
 20
-19.578
 30
0.0
 10
-9.5677
 20
-19.7802
 30
0.0
 10
-9.5677
 20
-19.7802
 30
0.0
 10
-9.508
 20
-19.6895
 30
0.0
 10
-9.4351
 20
-19.6217
 30
0.0
 10
-9.3485
 20
-19.5775
 30
0.0
 10
-9.3485
 20
-19.5775
 30
0.0
 10
-9.2625
 20
-19.5338
 30
0.0
 10
-9.1717
 20
-19.5117
 30
0.0
 10
-9.0771
 20
-19.5117
 30
0.0
 10
-9.0771
 20
-19.5117
 30
0.0
 10
-8.9116
 20
-19.5117
 30
0.0
 10
-8.7709
 20
-19.5723
 30
0.0
 10
-8.6547
 20
-19.6942
 30
0.0
 10
-8.6547
 20
-19.6942
 30
0.0
 10
-8.5386
 20
-19.816
 30
0.0
 10
-8.4802
 20
-19.9731
 30
0.0
 10
-8.4802
 20
-20.1659
 30
0.0
 10
-8.4802
 20
-20.1659
 30
0.0
 10
-8.4802
 20
-20.2929
 30
0.0
 10
-8.508
 20
-20.4105
 30
0.0
 10
-8.5626
 20
-20.5197
 30
0.0
 10
-8.5626
 20
-20.5197
 30
0.0
 10
-8.6171
 20
-20.6283
 30
0.0
 10
-8.6924
 20
-20.712
 30
0.0
 10
-8.7879
 20
-20.7699
 30
0.0
 10
-8.7879
 20
-20.7699
 30
0.0
 10
-8.8833
 20
-20.8277
 30
0.0
 10
-8.9915
 20
-20.8564
 30
0.0
 10
-9.1129
 20
-20.8564
 30
0.0
 10
-9.1129
 20
-20.8564
 30
0.0
 10
-9.3198
 20
-20.8564
 30
0.0
 10
-9.4882
 20
-20.7807
 30
0.0
 10
-9.6185
 20
-20.6283
 30
0.0
 10
-9.6185
 20
-20.6283
 30
0.0
 10
-9.7493
 20
-20.4764
 30
0.0
 10
-9.8142
 20
-20.2257
 30
0.0
 10
-9.8142
 20
-19.8767
 30
0.0
 10
-9.8142
 20
-19.8767
 30
0.0
 10
-9.8142
 20
-19.4863
 30
0.0
 10
-9.7422
 20
-19.2026
 30
0.0
 10
-9.5978
 20
-19.0253
 30
0.0
 10
-9.5978
 20
-19.0253
 30
0.0
 10
-9.4722
 20
-18.871
 30
0.0
 10
-9.3029
 20
-18.7934
 30
0.0
 10
-9.0894
 20
-18.7934
 30
0.0
 10
-9.0894
 20
-18.7934
 30
0.0
 10
-8.9308
 20
-18.7934
 30
0.0
 10
-8.8006
 20
-18.8381
 30
0.0
 10
-8.699
 20
-18.9275
 30
0.0
 10
-8.699
 20
-18.9275
 30
0.0
 10
-8.5974
 20
-19.0164
 30
0.0
 10
-8.5367
 20
-19.1396
 30
0.0
 10
-8.5165
 20
-19.2967
 30
0.0
  0
SPLINE
  5
56
330
1F
100
AcDbEntity
  8
DEFAULT_1
 62
   250
100
AcDbSpline
210
0.0
220
0.0
230
1.0
 70
    11
 71
     3
 72
    40
 73
    36
 74
     0
 42
0.0000000001
 43
0.0000000001
 40
0.0
 40
0.0
 40
0.0
 40
0.0
 40
0.1
 40
0.1
 40
0.1
 40
0.1
 40
0.2
 40
0.2
 40
0.2
 40
0.2
 40
0.3
 40
0.3
 40
0.3
 40
0.3
 40
0.4
 40
0.4
 40
0.4
 40
0.4
 40
0.5
 40
0.5
 40
0.5
 40
0.5
 40
0.6
 40
0.6
 40
0.6
 40
0.6
 40
0.7
 40
0.7
 40
0.7
 40
0.7
 40
0.8
 40
0.8
 40
0.8
 40
0.8
 40
1.0
 40
1.0
 40
1.0
 40
1.0
 10
-9.5292
 20
-20.1673
 30
0.0
 10
-9.5292
 20
-20.253
 30
0.0
 10
-9.5108
 20
-20.3348
 30
0.0
 10
-9.4746
 20
-20.4129
 30
0.0
 10
-9.4746
 20
-20.4129
 30
0.0
 10
-9.4384
 20
-20.491
 30
0.0
 10
-9.3876
 20
-20.5502
 30
0.0
 10
-9.3227
 20
-20.5911
 30
0.0
 10
-9.3227
 20
-20.5911
 30
0.0
 10
-9.2573
 20
-20.6321
 30
0.0
 10
-9.1886
 20
-20.6528
 30
0.0
 10
-9.1171
 20
-20.6528
 30
0.0
 10
-9.1171
 20
-20.6528
 30
0.0
 10
-9.0122
 20
-20.6528
 30
0.0
 10
-8.9224
 20
-20.6104
 30
0.0
 10
-8.8471
 20
-20.5258
 30
0.0
 10
-8.8471
 20
-20.5258
 30
0.0
 10
-8.7719
 20
-20.4411
 30
0.0
 10
-8.7342
 20
-20.3263
 30
0.0
 10
-8.7342
 20
-20.1815
 30
0.0
 10
-8.7342
 20
-20.1815
 30
0.0
 10
-8.7342
 20
-20.0418
 30
0.0
 10
-8.7714
 20
-19.9317
 30
0.0
 10
-8.8457
 20
-19.8513
 30
0.0
 10
-8.8457
 20
-19.8513
 30
0.0
 10
-8.92
 20
-19.7708
 30
0.0
 10
-9.0136
 20
-19.7308
 30
0.0
 10
-9.1265
 20
-19.7308
 30
0.0
 10
-9.1265
 20
-19.7308
 30
0.0
 10
-9.2389
 20
-19.7308
 30
0.0
 10
-9.334
 20
-19.7708
 30
0.0
 10
-9.412
 20
-19.8513
 30
0.0
 10
-9.412
 20
-19.8513
 30
0.0
 10
-9.4901
 20
-19.9317
 30
0.0
 10
-9.5292
 20
-20.0371
 30
0.0
 10
-9.5292
 20
-20.1673
 30
0.0
  0
SPLINE
  5
57
330
1F
100
AcDbEntity
  8
DEFAULT_1
 62
   250
100
AcDbSpline
210
0.0
220
0.0
230
1.0
 70
    11
 71
     3
 72
    20
 73
    16
 74
     0
 42
0.0000000001
 43
0.0000000001
 40
0.0
 40
0.0
 40
0.0
 40
0.0
 40
0.2
 40
0.2
 40
0.2
 40
0.2
 40
0.4
 40
0.4
 40
0.4
 40
0.4
 40
0.6
 40
0.6
 40
0.6
 40
0.6
 40
1.0
 40
1.0
 40
1.0
 40
1.0
 10
-8.3509
 20
-20.8564
 30
0.0
 10
-8.3509
 20
-20.8564
 30
0.0
 10
-7.7653
 20
-18.7675
 30
0.0
 10
-7.7653
 20
-18.7675
 30
0.0
 10
-7.7653
 20
-18.7675
 30
0.0
 10
-7.7653
 20
-18.7675
 30
0.0
 10
-7.5668
 20
-18.7675
 30
0.0
 10
-7.5668
 20
-18.7675
 30
0.0
 10
-7.5668
 20
-18.7675
 30
0.0
 10
-7.5668
 20
-18.7675
 30
0.0
 10
-8.151
 20
-20.8564
 30
0.0
 10
-8.151
 20
-20.8564
 30
0.0
 10
-8.151
 20
-20.8564
 30
0.0
 10
-8.151
 20
-20.8564
 30
0.0
 10
-8.3509
 20
-20.8564
 30
0.0
 10
-8.3509
 20
-20.8564
 30
0.0
  0
SPLINE
  5
58
330
1F
100
AcDbEntity
  8
DEFAULT_1
 62
   250
100
AcDbSpline
210
0.0
220
0.0
230
1.0
 70
    11
 71
     3
 72
    48
 73
    44
 74
     0
 42
0.0000000001
 43
0.0000000001
 40
0.0
 40
0.0
 40
0.0
 40
0.0
 40
0.0833333333333333
 40
0.0833333333333333
 40
0.0833333333333333
 40
0.0833333333333333
 40
0.1666666666666667
 40
0.1666666666666667
 40
0.1666666666666667
 40
0.1666666666666667
 40
0.25
 40
0.25
 40
0.25
 40
0.25
 40
0.3333333333333333
 40
0.3333333333333333
 40
0.3333333333333333
 40
0.3333333333333333
 40
0.4166666666666667
 40
0.4166666666666667
 40
0.4166666666666667
 40
0.4166666666666667
 40
0.5
 40
0.5
 40
0.5
 40
0.5
 40
0.5833333333333334
 40
0.5833333333333334
 40
0.5833333333333334
 40
0.5833333333333334
 40
0.6666666666666666
 40
0.6666666666666666
 40
0.6666666666666666
 40
0.6666666666666666
 40
0.75
 40
0.75
 40
0.75
 40
0.75
 40
0.8333333333333334
 40
0.8333333333333334
 40
0.8333333333333334
 40
0.8333333333333334
 40
1.0
 40
1.0
 40
1.0
 40
1.0
 10
-6.6548
 20
-20.8221
 30
0.0
 10
-6.6548
 20
-20.8221
 30
0.0
 10
-6.6548
 20
-20.3386
 30
0.0
 10
-6.6548
 20
-20.3386
 30
0.0
 10
-6.6548
 20
-20.3386
 30
0.0
 10
-6.6548
 20
-20.3386
 30
0.0
 10
-7.5311
 20
-20.3386
 30
0.0
 10
-7.5311
 20
-20.3386
 30
0.0
 10
-7.5311
 20
-20.3386
 30
0.0
 10
-7.5311
 20
-20.3386
 30
0.0
 10
-7.5311
 20
-20.1109
 30
0.0
 10
-7.5311
 20
-20.1109
 30
0.0
 10
-7.5311
 20
-20.1109
 30
0.0
 10
-7.5311
 20
-20.1109
 30
0.0
 10
-6.6091
 20
-18.8019
 30
0.0
 10
-6.6091
 20
-18.8019
 30
0.0
 10
-6.6091
 20
-18.8019
 30
0.0
 10
-6.6091
 20
-18.8019
 30
0.0
 10
-6.4064
 20
-18.8019
 30
0.0
 10
-6.4064
 20
-18.8019
 30
0.0
 10
-6.4064
 20
-18.8019
 30
0.0
 10
-6.4064
 20
-18.8019
 30
0.0
 10
-6.4064
 20
-20.1109
 30
0.0
 10
-6.4064
 20
-20.1109
 30
0.0
 10
-6.4064
 20
-20.1109
 30
0.0
 10
-6.4064
 20
-20.1109
 30
0.0
 10
-6.1336
 20
-20.1109
 30
0.0
 10
-6.1336
 20
-20.1109
 30
0.0
 10
-6.1336
 20
-20.1109
 30
0.0
 10
-6.1336
 20
-20.1109
 30
0.0
 10
-6.1336
 20
-20.3386
 30
0.0
 10
-6.1336
 20
-20.3386
 30
0.0
 10
-6.1336
 20
-20.3386
 30
0.0
 10
-6.1336
 20
-20.3386
 30
0.0
 10
-6.4064
 20
-20.3386
 30
0.0
 10
-6.4064
 20
-20.3386
 30
0.0
 10
-6.4064
 20
-20.3386
 30
0.0
 10
-6.4064
 20
-20.3386
 30
0.0
 10
-6.4064
 20
-20.8221
 30
0.0
 10
-6.4064
 20
-20.8221
 30
0.0
 10
-6.4064
 20
-20.8221
 30
0.0
 10
-6.4064
 20
-20.8221
 30
0.0
 10
-6.6548
 20
-20.8221
 30
0.0
 10
-6.6548
 20
-20.8221
 30
0.0
  0
SPLINE
  5
59
330
1F
100
AcDbEntity
  8
DEFAULT_1
 62
   250
100
AcDbSpline
210
0.0
220
0.0
230
1.0
 70
    11
 71
     3
 72
    16
 73
    12
 74
     0
 42
0.0000000001
 43
0.0000000001
 40
0.0
 40
0.0
 40
0.0
 40
0.0
 40
0.25
 40
0.25
 40
0.25
 40
0.25
 40
0.5
 40
0.5
 40
0.5
 40
0.5
 40
1.0
 40
1.0
 40
1.0
 40
1.0
 10
-6.6548
 20
-20.1109
 30
0.0
 10
-6.6548
 20
-20.1109
 30
0.0
 10
-6.6548
 20
-19.2003
 30
0.0
 10
-6.6548
 20
-19.2003
 30
0.0
 10
-6.6548
 20
-19.2003
 30
0.0
 10
-6.6548
 20
-19.2003
 30
0.0
 10
-7.2869
 20
-20.1109
 30
0.0
 10
-7.2869
 20
-20.1109
 30
0.0
 10
-7.2869
 20
-20.1109
 30
0.0
 10
-7.2869
 20
-20.1109
 30
0.0
 10
-6.6548
 20
-20.1109
 30
0.0
 10
-6.6548
 20
-20.1109
 30
0.0
  0
SPLINE
  5
5A
330
1F
100
AcDbEntity
  8
DEFAULT_1
 62
   250
100
AcDbSpline
210
0.0
220
0.0
230
1.0
 70
    11
 71
     3
 72
    28
 73
    24
 74
     0
 42
0.0000000001
 43
0.0000000001
 40
0.0
 40
0.0
 40
0.0
 40
0.0
 40
0.1428571428571428
 40
0.1428571428571428
 40
0.1428571428571428
 40
0.1428571428571428
 40
0.2857142857142857
 40
0.2857142857142857
 40
0.2857142857142857
 40
0.2857142857142857
 40
0.4285714285714285
 40
0.4285714285714285
 40
0.4285714285714285
 40
0.4285714285714285
 40
0.5714285714285714
 40
0.5714285714285714
 40
0.5714285714285714
 40
0.5714285714285714
 40
0.7142857142857143
 40
0.7142857142857143
 40
0.7142857142857143
 40
0.7142857142857143
 40
1.0
 40
1.0
 40
1.0
 40
1.0
 10
-5.7987
 20
-19.5173
 30
0.0
 10
-5.7987
 20
-19.5173
 30
0.0
 10
-5.8678
 20
-19.1325
 30
0.0
 10
-5.8678
 20
-19.1325
 30
0.0
 10
-5.8678
 20
-19.1325
 30
0.0
 10
-5.8678
 20
-19.1325
 30
0.0
 10
-5.8678
 20
-18.8019
 30
0.0
 10
-5.8678
 20
-18.8019
 30
0.0
 10
-5.8678
 20
-18.8019
 30
0.0
 10
-5.8678
 20
-18.8019
 30
0.0
 10
-5.5852
 20
-18.8019
 30
0.0
 10
-5.5852
 20
-18.8019
 30
0.0
 10
-5.5852
 20
-18.8019
 30
0.0
 10
-5.5852
 20
-18.8019
 30
0.0
 10
-5.5852
 20
-19.1325
 30
0.0
 10
-5.5852
 20
-19.1325
 30
0.0
 10
-5.5852
 20
-19.1325
 30
0.0
 10
-5.5852
 20
-19.1325
 30
0.0
 10
-5.6472
 20
-19.5173
 30
0.0
 10
-5.6472
 20
-19.5173
 30
0.0
 10
-5.6472
 20
-19.5173
 30
0.0
 10
-5.6472
 20
-19.5173
 30
0.0
 10
-5.7987
 20
-19.5173
 30
0.0
 10
-5.7987
 20
-19.5173
 30
0.0
  0
SPLINE
  5
5B
330
1F
100
AcDbEntity
  8
DEFAULT_1
 62
   250
100
AcDbSpline
210
0.0
220
0.0
230
1.0
 70
    11
 71
     3
 72
    28
 73
    24
 74
     0
 42
0.0000000001
 43
0.0000000001
 40
0.0
 40
0.0
 40
0.0
 40
0.0
 40
0.1428571428571428
 40
0.1428571428571428
 40
0.1428571428571428
 40
0.1428571428571428
 40
0.2857142857142857
 40
0.2857142857142857
 40
0.2857142857142857
 40
0.2857142857142857
 40
0.4285714285714285
 40
0.4285714285714285
 40
0.4285714285714285
 40
0.4285714285714285
 40
0.5714285714285714
 40
0.5714285714285714
 40
0.5714285714285714
 40
0.5714285714285714
 40
0.7142857142857143
 40
0.7142857142857143
 40
0.7142857142857143
 40
0.7142857142857143
 40
1.0
 40
1.0
 40
1.0
 40
1.0
 10
-5.3424
 20
-19.5173
 30
0.0
 10
-5.3424
 20
-19.5173
 30
0.0
 10
-5.4102
 20
-19.1325
 30
0.0
 10
-5.4102
 20
-19.1325
 30
0.0
 10
-5.4102
 20
-19.1325
 30
0.0
 10
-5.4102
 20
-19.1325
 30
0.0
 10
-5.4102
 20
-18.8019
 30
0.0
 10
-5.4102
 20
-18.8019
 30
0.0
 10
-5.4102
 20
-18.8019
 30
0.0
 10
-5.4102
 20
-18.8019
 30
0.0
 10
-5.1275
 20
-18.8019
 30
0.0
 10
-5.1275
 20
-18.8019
 30
0.0
 10
-5.1275
 20
-18.8019
 30
0.0
 10
-5.1275
 20
-18.8019
 30
0.0
 10
-5.1275
 20
-19.1325
 30
0.0
 10
-5.1275
 20
-19.1325
 30
0.0
 10
-5.1275
 20
-19.1325
 30
0.0
 10
-5.1275
 20
-19.1325
 30
0.0
 10
-5.1938
 20
-19.5173
 30
0.0
 10
-5.1938
 20
-19.5173
 30
0.0
 10
-5.1938
 20
-19.5173
 30
0.0
 10
-5.1938
 20
-19.5173
 30
0.0
 10
-5.3424
 20
-19.5173
 30
0.0
 10
-5.3424
 20
-19.5173
 30
0.0
  0
SPLINE
  5
5C
330
1F
100
AcDbEntity
  8
DEFAULT_1
 62
   250
100
AcDbSpline
210
0.0
220
0.0
230
1.0
 70
    11
 71
     3
 72
    20
 73
    16
 74
     0
 42
0.0000000001
 43
0.0000000001
 40
0.0
 40
0.0
 40
0.0
 40
0.0
 40
0.2
 40
0.2
 40
0.2
 40
0.2
 40
0.4
 40
0.4
 40
0.4
 40
0.4
 40
0.6
 40
0.6
 40
0.6
 40
0.6
 40
1.0
 40
1.0
 40
1.0
 40
1.0
 10
-2.9356
 20
-20.9872
 30
0.0
 10
-2.9356
 20
-20.9872
 30
0.0
 10
-0.4356
 20
-21.3401
 30
0.0
 10
-0.4356
 20
-21.3401
 30
0.0
 10
-0.4356
 20
-21.3401
 30
0.0
 10
-0.4356
 20
-21.3401
 30
0.0
 10
-0.4356
 20
-21.4184
 30
0.0
 10
-0.4356
 20
-21.4184
 30
0.0
 10
-0.4356
 20
-21.4184
 30
0.0
 10
-0.4356
 20
-21.4184
 30
0.0
 10
-2.9356
 20
-21.7947
 30
0.0
 10
-2.9356
 20
-21.7947
 30
0.0
 10
-2.9356
 20
-21.7947
 30
0.0
 10
-2.9356
 20
-21.7947
 30
0.0
 10
-2.9356
 20
-20.9872
 30
0.0
 10
-2.9356
 20
-20.9872
 30
0.0
  0
SPLINE
  5
5D
330
1F
100
AcDbEntity
  8
DEFAULT_1
 62
   250
100
AcDbSpline
210
0.0
220
0.0
230
1.0
 70
    11
 71
     3
 72
    20
 73
    16
 74
     0
 42
0.0000000001
 43
0.0000000001
 40
0.0
 40
0.0
 40
0.0
 40
0.0
 40
0.2
 40
0.2
 40
0.2
 40
0.2
 40
0.4
 40
0.4
 40
0.4
 40
0.4
 40
0.6
 40
0.6
 40
0.6
 40
0.6
 40
1.0
 40
1.0
 40
1.0
 40
1.0
 10
-15.3358
 20
-21.7974
 30
0.0
 10
-15.3358
 20
-21.7974
 30
0.0
 10
-17.8358
 20
-21.4445
 30
0.0
 10
-17.8358
 20
-21.4445
 30
0.0
 10
-17.8358
 20
-21.4445
 30
0.0
 10
-17.8358
 20
-21.4445
 30
0.0
 10
-17.8358
 20
-21.3662
 30
0.0
 10
-17.8358
 20
-21.3662
 30
0.0
 10
-17.8358
 20
-21.3662
 30
0.0
 10
-17.8358
 20
-21.3662
 30
0.0
 10
-15.3358
 20
-20.9899
 30
0.0
 10
-15.3358
 20
-20.9899
 30
0.0
 10
-15.3358
 20
-20.9899
 30
0.0
 10
-15.3358
 20
-20.9899
 30
0.0
 10
-15.3358
 20
-21.7974
 30
0.0
 10
-15.3358
 20
-21.7974
 30
0.0
  0
SPLINE
  5
5E
330
1F
100
AcDbEntity
  8
DEFAULT_1
 62
   250
100
AcDbSpline
210
0.0
220
0.0
230
1.0
 70
    11
 71
     3
 72
    20
 73
    16
 74
     0
 42
0.0000000001
 43
0.0000000001
 40
0.0
 40
0.0
 40
0.0
 40
0.0
 40
0.2
 40
0.2
 40
0.2
 40
0.2
 40
0.4
 40
0.4
 40
0.4
 40
0.4
 40
0.6
 40
0.6
 40
0.6
 40
0.6
 40
1.0
 40
1.0
 40
1.0
 40
1.0
 10
-26.2947
 20
13.8923
 30
0.0
 10
-26.2947
 20
13.8923
 30
0.0
 10
-26.6476
 20
11.3923
 30
0.0
 10
-26.6476
 20
11.3923
 30
0.0
 10
-26.6476
 20
11.3923
 30
0.0
 10
-26.6476
 20
11.3923
 30
0.0
 10
-26.7259
 20
11.3923
 30
0.0
 10
-26.7259
 20
11.3923
 30
0.0
 10
-26.7259
 20
11.3923
 30
0.0
 10
-26.7259
 20
11.3923
 30
0.0
 10
-27.1022
 20
13.8923
 30
0.0
 10
-27.1022
 20
13.8923
 30
0.0
 10
-27.1022
 20
13.8923
 30
0.0
 10
-27.1022
 20
13.8923
 30
0.0
 10
-26.2947
 20
13.8923
 30
0.0
 10
-26.2947
 20
13.8923
 30
0.0
  0
SPLINE
  5
5F
330
1F
100
AcDbEntity
  8
DEFAULT_1
 62
   250
100
AcDbSpline
210
0.0
220
0.0
230
1.0
 70
    11
 71
     3
 72
    92
 73
    88
 74
     0
 42
0.0000000001
 43
0.0000000001
 40
0.0
 40
0.0
 40
0.0
 40
0.0
 40
0.0434782608695652
 40
0.0434782608695652
 40
0.0434782608695652
 40
0.0434782608695652
 40
0.0869565217391304
 40
0.0869565217391304
 40
0.0869565217391304
 40
0.0869565217391304
 40
0.1304347826086956
 40
0.1304347826086956
 40
0.1304347826086956
 40
0.1304347826086956
 40
0.1739130434782609
 40
0.1739130434782609
 40
0.1739130434782609
 40
0.1739130434782609
 40
0.2173913043478261
 40
0.2173913043478261
 40
0.2173913043478261
 40
0.2173913043478261
 40
0.2608695652173913
 40
0.2608695652173913
 40
0.2608695652173913
 40
0.2608695652173913
 40
0.3043478260869565
 40
0.3043478260869565
 40
0.3043478260869565
 40
0.3043478260869565
 40
0.3478260869565217
 40
0.3478260869565217
 40
0.3478260869565217
 40
0.3478260869565217
 40
0.391304347826087
 40
0.391304347826087
 40
0.391304347826087
 40
0.391304347826087
 40
0.4347826086956522
 40
0.4347826086956522
 40
0.4347826086956522
 40
0.4347826086956522
 40
0.4782608695652174
 40
0.4782608695652174
 40
0.4782608695652174
 40
0.4782608695652174
 40
0.5217391304347826
 40
0.5217391304347826
 40
0.5217391304347826
 40
0.5217391304347826
 40
0.5652173913043478
 40
0.5652173913043478
 40
0.5652173913043478
 40
0.5652173913043478
 40
0.6086956521739131
 40
0.6086956521739131
 40
0.6086956521739131
 40
0.6086956521739131
 40
0.6521739130434783
 40
0.6521739130434783
 40
0.6521739130434783
 40
0.6521739130434783
 40
0.6956521739130435
 40
0.6956521739130435
 40
0.6956521739130435
 40
0.6956521739130435
 40
0.7391304347826086
 40
0.7391304347826086
 40
0.7391304347826086
 40
0.7391304347826086
 40
0.782608695652174
 40
0.782608695652174
 40
0.782608695652174
 40
0.782608695652174
 40
0.8260869565217391
 40
0.8260869565217391
 40
0.8260869565217391
 40
0.8260869565217391
 40
0.8695652173913043
 40
0.8695652173913043
 40
0.8695652173913043
 40
0.8695652173913043
 40
0.9130434782608695
 40
0.9130434782608695
 40
0.9130434782608695
 40
0.9130434782608695
 40
1.0
 40
1.0
 40
1.0
 40
1.0
 10
-27.5771
 20
-7.1069
 30
0.0
 10
-27.5771
 20
-7.1069
 30
0.0
 10
-27.5992
 20
-6.8463
 30
0.0
 10
-27.5992
 20
-6.8463
 30
0.0
 10
-27.5992
 20
-6.8463
 30
0.0
 10
-27.4722
 20
-6.827
 30
0.0
 10
-27.3772
 20
-6.7823
 30
0.0
 10
-27.3132
 20
-6.7122
 30
0.0
 10
-27.3132
 20
-6.7122
 30
0.0
 10
-27.2492
 20
-6.6417
 30
0.0
 10
-27.2172
 20
-6.557
 30
0.0
 10
-27.2172
 20
-6.4578
 30
0.0
 10
-27.2172
 20
-6.4578
 30
0.0
 10
-27.2172
 20
-6.3383
 30
0.0
 10
-27.2624
 20
-6.2372
 30
0.0
 10
-27.3522
 20
-6.1549
 30
0.0
 10
-27.3522
 20
-6.1549
 30
0.0
 10
-27.4425
 20
-6.0721
 30
0.0
 10
-27.562
 20
-6.0307
 30
0.0
 10
-27.7106
 20
-6.0307
 30
0.0
 10
-27.7106
 20
-6.0307
 30
0.0
 10
-27.8522
 20
-6.0307
 30
0.0
 10
-27.9637
 20
-6.0702
 30
0.0
 10
-28.0455
 20
-6.1497
 30
0.0
 10
-28.0455
 20
-6.1497
 30
0.0
 10
-28.1274
 20
-6.2292
 30
0.0
 10
-28.1683
 20
-6.3331
 30
0.0
 10
-28.1683
 20
-6.462
 30
0.0
 10
-28.1683
 20
-6.462
 30
0.0
 10
-28.1683
 20
-6.542
 30
0.0
 10
-28.15
 20
-6.6139
 30
0.0
 10
-28.1138
 20
-6.6784
 30
0.0
 10
-28.1138
 20
-6.6784
 30
0.0
 10
-28.0775
 20
-6.7428
 30
0.0
 10
-28.0305
 20
-6.7931
 30
0.0
 10
-27.9726
 20
-6.8298
 30
0.0
 10
-27.9726
 20
-6.8298
 30
0.0
 10
-27.9726
 20
-6.8298
 30
0.0
 10
-28.0027
 20
-7.0627
 30
0.0
 10
-28.0027
 20
-7.0627
 30
0.0
 10
-28.0027
 20
-7.0627
 30
0.0
 10
-28.0027
 20
-7.0627
 30
0.0
 10
-29.0404
 20
-6.867
 30
0.0
 10
-29.0404
 20
-6.867
 30
0.0
 10
-29.0404
 20
-6.867
 30
0.0
 10
-29.0404
 20
-6.867
 30
0.0
 10
-29.0404
 20
-5.8623
 30
0.0
 10
-29.0404
 20
-5.8623
 30
0.0
 10
-29.0404
 20
-5.8623
 30
0.0
 10
-29.0404
 20
-5.8623
 30
0.0
 10
-28.8033
 20
-5.8623
 30
0.0
 10
-28.8033
 20
-5.8623
 30
0.0
 10
-28.8033
 20
-5.8623
 30
0.0
 10
-28.8033
 20
-5.8623
 30
0.0
 10
-28.8033
 20
-6.6685
 30
0.0
 10
-28.8033
 20
-6.6685
 30
0.0
 10
-28.8033
 20
-6.6685
 30
0.0
 10
-28.8033
 20
-6.6685
 30
0.0
 10
-28.2605
 20
-6.7776
 30
0.0
 10
-28.2605
 20
-6.7776
 30
0.0
 10
-28.2605
 20
-6.7776
 30
0.0
 10
-28.3452
 20
-6.6563
 30
0.0
 10
-28.3875
 20
-6.5288
 30
0.0
 10
-28.3875
 20
-6.3957
 30
0.0
 10
-28.3875
 20
-6.3957
 30
0.0
 10
-28.3875
 20
-6.2193
 30
0.0
 10
-28.3264
 20
-6.0707
 30
0.0
 10
-28.2041
 20
-5.9493
 30
0.0
 10
-28.2041
 20
-5.9493
 30
0.0
 10
-28.0818
 20
-5.828
 30
0.0
 10
-27.9247
 20
-5.7673
 30
0.0
 10
-27.7328
 20
-5.7673
 30
0.0
 10
-27.7328
 20
-5.7673
 30
0.0
 10
-27.5498
 20
-5.7673
 30
0.0
 10
-27.3917
 20
-5.8209
 30
0.0
 10
-27.2586
 20
-5.9272
 30
0.0
 10
-27.2586
 20
-5.9272
 30
0.0
 10
-27.0954
 20
-6.057
 30
0.0
 10
-27.0136
 20
-6.2339
 30
0.0
 10
-27.0136
 20
-6.4578
 30
0.0
 10
-27.0136
 20
-6.4578
 30
0.0
 10
-27.0136
 20
-6.6417
 30
0.0
 10
-27.0648
 20
-6.7917
 30
0.0
 10
-27.1678
 20
-6.9079
 30
0.0
 10
-27.1678
 20
-6.9079
 30
0.0
 10
-27.2709
 20
-7.0241
 30
0.0
 10
-27.4073
 20
-7.0904
 30
0.0
 10
-27.5771
 20
-7.1069
 30
0.0
  0
SPLINE
  5
60
330
1F
100
AcDbEntity
  8
DEFAULT_1
 62
   250
100
AcDbSpline
210
0.0
220
0.0
230
1.0
 70
    11
 71
     3
 72
    68
 73
    64
 74
     0
 42
0.0000000001
 43
0.0000000001
 40
0.0
 40
0.0
 40
0.0
 40
0.0
 40
0.0588235294117647
 40
0.0588235294117647
 40
0.0588235294117647
 40
0.0588235294117647
 40
0.1176470588235294
 40
0.1176470588235294
 40
0.1176470588235294
 40
0.1176470588235294
 40
0.1764705882352941
 40
0.1764705882352941
 40
0.1764705882352941
 40
0.1764705882352941
 40
0.2352941176470588
 40
0.2352941176470588
 40
0.2352941176470588
 40
0.2352941176470588
 40
0.2941176470588235
 40
0.2941176470588235
 40
0.2941176470588235
 40
0.2941176470588235
 40
0.3529411764705883
 40
0.3529411764705883
 40
0.3529411764705883
 40
0.3529411764705883
 40
0.4117647058823529
 40
0.4117647058823529
 40
0.4117647058823529
 40
0.4117647058823529
 40
0.4705882352941176
 40
0.4705882352941176
 40
0.4705882352941176
 40
0.4705882352941176
 40
0.5294117647058824
 40
0.5294117647058824
 40
0.5294117647058824
 40
0.5294117647058824
 40
0.5882352941176471
 40
0.5882352941176471
 40
0.5882352941176471
 40
0.5882352941176471
 40
0.6470588235294118
 40
0.6470588235294118
 40
0.6470588235294118
 40
0.6470588235294118
 40
0.7058823529411765
 40
0.7058823529411765
 40
0.7058823529411765
 40
0.7058823529411765
 40
0.7647058823529411
 40
0.7647058823529411
 40
0.7647058823529411
 40
0.7647058823529411
 40
0.8235294117647058
 40
0.8235294117647058
 40
0.8235294117647058
 40
0.8235294117647058
 40
0.8823529411764706
 40
0.8823529411764706
 40
0.8823529411764706
 40
0.8823529411764706
 40
1.0
 40
1.0
 40
1.0
 40
1.0
 10
-28.1434
 20
-5.1553
 30
0.0
 10
-28.181
 20
-5.2584
 30
0.0
 10
-28.2346
 20
-5.3346
 30
0.0
 10
-28.3047
 20
-5.3844
 30
0.0
 10
-28.3047
 20
-5.3844
 30
0.0
 10
-28.3743
 20
-5.4338
 30
0.0
 10
-28.4581
 20
-5.4587
 30
0.0
 10
-28.5554
 20
-5.4587
 30
0.0
 10
-28.5554
 20
-5.4587
 30
0.0
 10
-28.7026
 20
-5.4587
 30
0.0
 10
-28.8259
 20
-5.406
 30
0.0
 10
-28.9261
 20
-5.3002
 30
0.0
 10
-28.9261
 20
-5.3002
 30
0.0
 10
-29.0263
 20
-5.1944
 30
0.0
 10
-29.0766
 20
-5.0542
 30
0.0
 10
-29.0766
 20
-4.8788
 30
0.0
 10
-29.0766
 20
-4.8788
 30
0.0
 10
-29.0766
 20
-4.7024
 30
0.0
 10
-29.0253
 20
-4.5603
 30
0.0
 10
-28.9228
 20
-4.4526
 30
0.0
 10
-28.9228
 20
-4.4526
 30
0.0
 10
-28.8202
 20
-4.3454
 30
0.0
 10
-28.6956
 20
-4.2917
 30
0.0
 10
-28.5484
 20
-4.2917
 30
0.0
 10
-28.5484
 20
-4.2917
 30
0.0
 10
-28.4548
 20
-4.2917
 30
0.0
 10
-28.3734
 20
-4.3162
 30
0.0
 10
-28.3038
 20
-4.3651
 30
0.0
 10
-28.3038
 20
-4.3651
 30
0.0
 10
-28.2346
 20
-4.4145
 30
0.0
 10
-28.181
 20
-4.4888
 30
0.0
 10
-28.1434
 20
-4.589
 30
0.0
 10
-28.1434
 20
-4.589
 30
0.0
 10
-28.1029
 20
-4.4653
 30
0.0
 10
-28.038
 20
-4.3708
 30
0.0
 10
-27.9477
 20
-4.3059
 30
0.0
 10
-27.9477
 20
-4.3059
 30
0.0
 10
-27.8579
 20
-4.2414
 30
0.0
 10
-27.7502
 20
-4.209
 30
0.0
 10
-27.6255
 20
-4.209
 30
0.0
 10
-27.6255
 20
-4.209
 30
0.0
 10
-27.4524
 20
-4.209
 30
0.0
 10
-27.3075
 20
-4.2701
 30
0.0
 10
-27.19
 20
-4.3919
 30
0.0
 10
-27.19
 20
-4.3919
 30
0.0
 10
-27.0724
 20
-4.5142
 30
0.0
 10
-27.0136
 20
-4.6751
 30
0.0
 10
-27.0136
 20
-4.8745
 30
0.0
 10
-27.0136
 20
-4.8745
 30
0.0
 10
-27.0136
 20
-5.074
 30
0.0
 10
-27.0724
 20
-5.2344
 30
0.0
 10
-27.1904
 20
-5.3567
 30
0.0
 10
-27.1904
 20
-5.3567
 30
0.0
 10
-27.3085
 20
-5.479
 30
0.0
 10
-27.4557
 20
-5.5401
 30
0.0
 10
-27.6321
 20
-5.5401
 30
0.0
 10
-27.6321
 20
-5.5401
 30
0.0
 10
-27.7633
 20
-5.5401
 30
0.0
 10
-27.8734
 20
-5.5067
 30
0.0
 10
-27.9623
 20
-5.4399
 30
0.0
 10
-27.9623
 20
-5.4399
 30
0.0
 10
-28.0507
 20
-5.3736
 30
0.0
 10
-28.1114
 20
-5.2786
 30
0.0
 10
-28.1434
 20
-5.1553
 30
0.0
  0
SPLINE
  5
61
330
1F
100
AcDbEntity
  8
DEFAULT_1
 62
   250
100
AcDbSpline
210
0.0
220
0.0
230
1.0
 70
    11
 71
     3
 72
    36
 73
    32
 74
     0
 42
0.0000000001
 43
0.0000000001
 40
0.0
 40
0.0
 40
0.0
 40
0.0
 40
0.1111111111111111
 40
0.1111111111111111
 40
0.1111111111111111
 40
0.1111111111111111
 40
0.2222222222222222
 40
0.2222222222222222
 40
0.2222222222222222
 40
0.2222222222222222
 40
0.3333333333333333
 40
0.3333333333333333
 40
0.3333333333333333
 40
0.3333333333333333
 40
0.4444444444444444
 40
0.4444444444444444
 40
0.4444444444444444
 40
0.4444444444444444
 40
0.5555555555555556
 40
0.5555555555555556
 40
0.5555555555555556
 40
0.5555555555555556
 40
0.6666666666666666
 40
0.6666666666666666
 40
0.6666666666666666
 40
0.6666666666666666
 40
0.7777777777777778
 40
0.7777777777777778
 40
0.7777777777777778
 40
0.7777777777777778
 40
1.0
 40
1.0
 40
1.0
 40
1.0
 10
-28.5639
 20
-5.2052
 30
0.0
 10
-28.4684
 20
-5.2052
 30
0.0
 10
-28.3903
 20
-5.1742
 30
0.0
 10
-28.3296
 20
-5.113
 30
0.0
 10
-28.3296
 20
-5.113
 30
0.0
 10
-28.269
 20
-5.0514
 30
0.0
 10
-28.2384
 20
-4.9714
 30
0.0
 10
-28.2384
 20
-4.8731
 30
0.0
 10
-28.2384
 20
-4.8731
 30
0.0
 10
-28.2384
 20
-4.7776
 30
0.0
 10
-28.2685
 20
-4.6991
 30
0.0
 10
-28.3287
 20
-4.6379
 30
0.0
 10
-28.3287
 20
-4.6379
 30
0.0
 10
-28.3889
 20
-4.5768
 30
0.0
 10
-28.4628
 20
-4.5467
 30
0.0
 10
-28.5498
 20
-4.5467
 30
0.0
 10
-28.5498
 20
-4.5467
 30
0.0
 10
-28.641
 20
-4.5467
 30
0.0
 10
-28.7172
 20
-4.5777
 30
0.0
 10
-28.7793
 20
-4.6408
 30
0.0
 10
-28.7793
 20
-4.6408
 30
0.0
 10
-28.8414
 20
-4.7038
 30
0.0
 10
-28.8725
 20
-4.7819
 30
0.0
 10
-28.8725
 20
-4.8759
 30
0.0
 10
-28.8725
 20
-4.8759
 30
0.0
 10
-28.8725
 20
-4.9705
 30
0.0
 10
-28.8419
 20
-5.049
 30
0.0
 10
-28.7817
 20
-5.1116
 30
0.0
 10
-28.7817
 20
-5.1116
 30
0.0
 10
-28.721
 20
-5.1742
 30
0.0
 10
-28.6481
 20
-5.2052
 30
0.0
 10
-28.5639
 20
-5.2052
 30
0.0
  0
SPLINE
  5
62
330
1F
100
AcDbEntity
  8
DEFAULT_1
 62
   250
100
AcDbSpline
210
0.0
220
0.0
230
1.0
 70
    11
 71
     3
 72
    40
 73
    36
 74
     0
 42
0.0000000001
 43
0.0000000001
 40
0.0
 40
0.0
 40
0.0
 40
0.0
 40
0.1
 40
0.1
 40
0.1
 40
0.1
 40
0.2
 40
0.2
 40
0.2
 40
0.2
 40
0.3
 40
0.3
 40
0.3
 40
0.3
 40
0.4
 40
0.4
 40
0.4
 40
0.4
 40
0.5
 40
0.5
 40
0.5
 40
0.5
 40
0.6
 40
0.6
 40
0.6
 40
0.6
 40
0.7
 40
0.7
 40
0.7
 40
0.7
 40
0.8
 40
0.8
 40
0.8
 40
0.8
 40
1.0
 40
1.0
 40
1.0
 40
1.0
 10
-27.6307
 20
-5.2852
 30
0.0
 10
-27.5601
 20
-5.2852
 30
0.0
 10
-27.4915
 20
-5.2682
 30
0.0
 10
-27.4256
 20
-5.2348
 30
0.0
 10
-27.4256
 20
-5.2348
 30
0.0
 10
-27.3593
 20
-5.2014
 30
0.0
 10
-27.308
 20
-5.1516
 30
0.0
 10
-27.2718
 20
-5.0853
 30
0.0
 10
-27.2718
 20
-5.0853
 30
0.0
 10
-27.2356
 20
-5.0189
 30
0.0
 10
-27.2172
 20
-4.9479
 30
0.0
 10
-27.2172
 20
-4.8717
 30
0.0
 10
-27.2172
 20
-4.8717
 30
0.0
 10
-27.2172
 20
-4.7532
 30
0.0
 10
-27.2553
 20
-4.6553
 30
0.0
 10
-27.332
 20
-4.5782
 30
0.0
 10
-27.332
 20
-4.5782
 30
0.0
 10
-27.4082
 20
-4.5011
 30
0.0
 10
-27.5051
 20
-4.4625
 30
0.0
 10
-27.6227
 20
-4.4625
 30
0.0
 10
-27.6227
 20
-4.4625
 30
0.0
 10
-27.7422
 20
-4.4625
 30
0.0
 10
-27.8409
 20
-4.502
 30
0.0
 10
-27.919
 20
-4.5815
 30
0.0
 10
-27.919
 20
-4.5815
 30
0.0
 10
-27.9971
 20
-4.661
 30
0.0
 10
-28.0361
 20
-4.7607
 30
0.0
 10
-28.0361
 20
-4.8802
 30
0.0
 10
-28.0361
 20
-4.8802
 30
0.0
 10
-28.0361
 20
-4.9968
 30
0.0
 10
-27.9976
 20
-5.0933
 30
0.0
 10
-27.9204
 20
-5.1699
 30
0.0
 10
-27.9204
 20
-5.1699
 30
0.0
 10
-27.8428
 20
-5.2466
 30
0.0
 10
-27.7464
 20
-5.2852
 30
0.0
 10
-27.6307
 20
-5.2852
 30
0.0
  0
SPLINE
  5
63
330
1F
100
AcDbEntity
  8
DEFAULT_1
 62
   250
100
AcDbSpline
210
0.0
220
0.0
230
1.0
 70
    11
 71
     3
 72
   116
 73
   112
 74
     0
 42
0.0000000001
 43
0.0000000001
 40
0.0
 40
0.0
 40
0.0
 40
0.0
 40
0.0344827586206897
 40
0.0344827586206897
 40
0.0344827586206897
 40
0.0344827586206897
 40
0.0689655172413793
 40
0.0689655172413793
 40
0.0689655172413793
 40
0.0689655172413793
 40
0.103448275862069
 40
0.103448275862069
 40
0.103448275862069
 40
0.103448275862069
 40
0.1379310344827586
 40
0.1379310344827586
 40
0.1379310344827586
 40
0.1379310344827586
 40
0.1724137931034483
 40
0.1724137931034483
 40
0.1724137931034483
 40
0.1724137931034483
 40
0.2068965517241379
 40
0.2068965517241379
 40
0.2068965517241379
 40
0.2068965517241379
 40
0.2413793103448276
 40
0.2413793103448276
 40
0.2413793103448276
 40
0.2413793103448276
 40
0.2758620689655172
 40
0.2758620689655172
 40
0.2758620689655172
 40
0.2758620689655172
 40
0.3103448275862069
 40
0.3103448275862069
 40
0.3103448275862069
 40
0.3103448275862069
 40
0.3448275862068966
 40
0.3448275862068966
 40
0.3448275862068966
 40
0.3448275862068966
 40
0.3793103448275862
 40
0.3793103448275862
 40
0.3793103448275862
 40
0.3793103448275862
 40
0.4137931034482759
 40
0.4137931034482759
 40
0.4137931034482759
 40
0.4137931034482759
 40
0.4482758620689655
 40
0.4482758620689655
 40
0.4482758620689655
 40
0.4482758620689655
 40
0.4827586206896552
 40
0.4827586206896552
 40
0.4827586206896552
 40
0.4827586206896552
 40
0.5172413793103449
 40
0.5172413793103449
 40
0.5172413793103449
 40
0.5172413793103449
 40
0.5517241379310345
 40
0.5517241379310345
 40
0.5517241379310345
 40
0.5517241379310345
 40
0.5862068965517241
 40
0.5862068965517241
 40
0.5862068965517241
 40
0.5862068965517241
 40
0.6206896551724138
 40
0.6206896551724138
 40
0.6206896551724138
 40
0.6206896551724138
 40
0.6551724137931034
 40
0.6551724137931034
 40
0.6551724137931034
 40
0.6551724137931034
 40
0.6896551724137931
 40
0.6896551724137931
 40
0.6896551724137931
 40
0.6896551724137931
 40
0.7241379310344828
 40
0.7241379310344828
 40
0.7241379310344828
 40
0.7241379310344828
 40
0.7586206896551724
 40
0.7586206896551724
 40
0.7586206896551724
 40
0.7586206896551724
 40
0.7931034482758621
 40
0.7931034482758621
 40
0.7931034482758621
 40
0.7931034482758621
 40
0.8275862068965517
 40
0.8275862068965517
 40
0.8275862068965517
 40
0.8275862068965517
 40
0.8620689655172413
 40
0.8620689655172413
 40
0.8620689655172413
 40
0.8620689655172413
 40
0.896551724137931
 40
0.896551724137931
 40
0.896551724137931
 40
0.896551724137931
 40
0.9310344827586207
 40
0.9310344827586207
 40
0.9310344827586207
 40
0.9310344827586207
 40
1.0
 40
1.0
 40
1.0
 40
1.0
 10
-27.4829
 20
7.083
 30
0.0
 10
-27.4829
 20
7.083
 30
0.0
 10
-28.9462
 20
7.083
 30
0.0
 10
-28.9462
 20
7.083
 30
0.0
 10
-28.9462
 20
7.083
 30
0.0
 10
-28.9462
 20
7.083
 30
0.0
 10
-28.9462
 20
7.3045
 30
0.0
 10
-28.9462
 20
7.3045
 30
0.0
 10
-28.9462
 20
7.3045
 30
0.0
 10
-28.9462
 20
7.3045
 30
0.0
 10
-28.7411
 20
7.3045
 30
0.0
 10
-28.7411
 20
7.3045
 30
0.0
 10
-28.7411
 20
7.3045
 30
0.0
 10
-28.8126
 20
7.3506
 30
0.0
 10
-28.8705
 20
7.4118
 30
0.0
 10
-28.9138
 20
7.488
 30
0.0
 10
-28.9138
 20
7.488
 30
0.0
 10
-28.9575
 20
7.5642
 30
0.0
 10
-28.9796
 20
7.6512
 30
0.0
 10
-28.9796
 20
7.7485
 30
0.0
 10
-28.9796
 20
7.7485
 30
0.0
 10
-28.9796
 20
7.8567
 30
0.0
 10
-28.957
 20
7.9456
 30
0.0
 10
-28.9119
 20
8.0148
 30
0.0
 10
-28.9119
 20
8.0148
 30
0.0
 10
-28.8667
 20
8.0844
 30
0.0
 10
-28.8042
 20
8.1333
 30
0.0
 10
-28.7233
 20
8.1615
 30
0.0
 10
-28.7233
 20
8.1615
 30
0.0
 10
-28.894
 20
8.2777
 30
0.0
 10
-28.9796
 20
8.4282
 30
0.0
 10
-28.9796
 20
8.6135
 30
0.0
 10
-28.9796
 20
8.6135
 30
0.0
 10
-28.9796
 20
8.7589
 30
0.0
 10
-28.9392
 20
8.8704
 30
0.0
 10
-28.8587
 20
8.9484
 30
0.0
 10
-28.8587
 20
8.9484
 30
0.0
 10
-28.7783
 20
9.0265
 30
0.0
 10
-28.6546
 20
9.0656
 30
0.0
 10
-28.4876
 20
9.0656
 30
0.0
 10
-28.4876
 20
9.0656
 30
0.0
 10
-28.4876
 20
9.0656
 30
0.0
 10
-27.4829
 20
9.0656
 30
0.0
 10
-27.4829
 20
9.0656
 30
0.0
 10
-27.4829
 20
9.0656
 30
0.0
 10
-27.4829
 20
9.0656
 30
0.0
 10
-27.4829
 20
8.8191
 30
0.0
 10
-27.4829
 20
8.8191
 30
0.0
 10
-27.4829
 20
8.8191
 30
0.0
 10
-27.4829
 20
8.8191
 30
0.0
 10
-28.4048
 20
8.8191
 30
0.0
 10
-28.4048
 20
8.8191
 30
0.0
 10
-28.4048
 20
8.8191
 30
0.0
 10
-28.5041
 20
8.8191
 30
0.0
 10
-28.5756
 20
8.8111
 30
0.0
 10
-28.6193
 20
8.7951
 30
0.0
 10
-28.6193
 20
8.7951
 30
0.0
 10
-28.6626
 20
8.7786
 30
0.0
 10
-28.6979
 20
8.7495
 30
0.0
 10
-28.7247
 20
8.7076
 30
0.0
 10
-28.7247
 20
8.7076
 30
0.0
 10
-28.751
 20
8.6653
 30
0.0
 10
-28.7646
 20
8.6154
 30
0.0
 10
-28.7646
 20
8.5585
 30
0.0
 10
-28.7646
 20
8.5585
 30
0.0
 10
-28.7646
 20
8.4555
 30
0.0
 10
-28.7303
 20
8.3704
 30
0.0
 10
-28.6616
 20
8.3022
 30
0.0
 10
-28.6616
 20
8.3022
 30
0.0
 10
-28.5934
 20
8.2344
 30
0.0
 10
-28.4838
 20
8.2001
 30
0.0
 10
-28.3333
 20
8.2001
 30
0.0
 10
-28.3333
 20
8.2001
 30
0.0
 10
-28.3333
 20
8.2001
 30
0.0
 10
-27.4829
 20
8.2001
 30
0.0
 10
-27.4829
 20
8.2001
 30
0.0
 10
-27.4829
 20
8.2001
 30
0.0
 10
-27.4829
 20
8.2001
 30
0.0
 10
-27.4829
 20
7.9522
 30
0.0
 10
-27.4829
 20
7.9522
 30
0.0
 10
-27.4829
 20
7.9522
 30
0.0
 10
-27.4829
 20
7.9522
 30
0.0
 10
-28.4335
 20
7.9522
 30
0.0
 10
-28.4335
 20
7.9522
 30
0.0
 10
-28.4335
 20
7.9522
 30
0.0
 10
-28.544
 20
7.9522
 30
0.0
 10
-28.6268
 20
7.932
 30
0.0
 10
-28.6819
 20
7.8915
 30
0.0
 10
-28.6819
 20
7.8915
 30
0.0
 10
-28.7369
 20
7.8511
 30
0.0
 10
-28.7646
 20
7.7852
 30
0.0
 10
-28.7646
 20
7.693
 30
0.0
 10
-28.7646
 20
7.693
 30
0.0
 10
-28.7646
 20
7.6234
 30
0.0
 10
-28.7463
 20
7.559
 30
0.0
 10
-28.7091
 20
7.4997
 30
0.0
 10
-28.7091
 20
7.4997
 30
0.0
 10
-28.6725
 20
7.4404
 30
0.0
 10
-28.6188
 20
7.3972
 30
0.0
 10
-28.5483
 20
7.3708
 30
0.0
 10
-28.5483
 20
7.3708
 30
0.0
 10
-28.4773
 20
7.344
 30
0.0
 10
-28.3752
 20
7.3308
 30
0.0
 10
-28.2421
 20
7.3308
 30
0.0
 10
-28.2421
 20
7.3308
 30
0.0
 10
-28.2421
 20
7.3308
 30
0.0
 10
-27.4829
 20
7.3308
 30
0.0
 10
-27.4829
 20
7.3308
 30
0.0
 10
-27.4829
 20
7.3308
 30
0.0
 10
-27.4829
 20
7.3308
 30
0.0
 10
-27.4829
 20
7.083
 30
0.0
 10
-27.4829
 20
7.083
 30
0.0
  0
SPLINE
  5
64
330
1F
100
AcDbEntity
  8
DEFAULT_1
 62
   250
100
AcDbSpline
210
0.0
220
0.0
230
1.0
 70
    11
 71
     3
 72
   112
 73
   108
 74
     0
 42
0.0000000001
 43
0.0000000001
 40
0.0
 40
0.0
 40
0.0
 40
0.0
 40
0.0357142857142857
 40
0.0357142857142857
 40
0.0357142857142857
 40
0.0357142857142857
 40
0.0714285714285714
 40
0.0714285714285714
 40
0.0714285714285714
 40
0.0714285714285714
 40
0.1071428571428571
 40
0.1071428571428571
 40
0.1071428571428571
 40
0.1071428571428571
 40
0.1428571428571428
 40
0.1428571428571428
 40
0.1428571428571428
 40
0.1428571428571428
 40
0.1785714285714286
 40
0.1785714285714286
 40
0.1785714285714286
 40
0.1785714285714286
 40
0.2142857142857143
 40
0.2142857142857143
 40
0.2142857142857143
 40
0.2142857142857143
 40
0.25
 40
0.25
 40
0.25
 40
0.25
 40
0.2857142857142857
 40
0.2857142857142857
 40
0.2857142857142857
 40
0.2857142857142857
 40
0.3214285714285715
 40
0.3214285714285715
 40
0.3214285714285715
 40
0.3214285714285715
 40
0.3571428571428572
 40
0.3571428571428572
 40
0.3571428571428572
 40
0.3571428571428572
 40
0.3928571428571428
 40
0.3928571428571428
 40
0.3928571428571428
 40
0.3928571428571428
 40
0.4285714285714285
 40
0.4285714285714285
 40
0.4285714285714285
 40
0.4285714285714285
 40
0.4642857142857143
 40
0.4642857142857143
 40
0.4642857142857143
 40
0.4642857142857143
 40
0.5
 40
0.5
 40
0.5
 40
0.5
 40
0.5357142857142857
 40
0.5357142857142857
 40
0.5357142857142857
 40
0.5357142857142857
 40
0.5714285714285714
 40
0.5714285714285714
 40
0.5714285714285714
 40
0.5714285714285714
 40
0.6071428571428571
 40
0.6071428571428571
 40
0.6071428571428571
 40
0.6071428571428571
 40
0.6428571428571429
 40
0.6428571428571429
 40
0.6428571428571429
 40
0.6428571428571429
 40
0.6785714285714286
 40
0.6785714285714286
 40
0.6785714285714286
 40
0.6785714285714286
 40
0.7142857142857143
 40
0.7142857142857143
 40
0.7142857142857143
 40
0.7142857142857143
 40
0.75
 40
0.75
 40
0.75
 40
0.75
 40
0.7857142857142857
 40
0.7857142857142857
 40
0.7857142857142857
 40
0.7857142857142857
 40
0.8214285714285714
 40
0.8214285714285714
 40
0.8214285714285714
 40
0.8214285714285714
 40
0.8571428571428571
 40
0.8571428571428571
 40
0.8571428571428571
 40
0.8571428571428571
 40
0.8928571428571429
 40
0.8928571428571429
 40
0.8928571428571429
 40
0.8928571428571429
 40
0.9285714285714286
 40
0.9285714285714286
 40
0.9285714285714286
 40
0.9285714285714286
 40
1.0
 40
1.0
 40
1.0
 40
1.0
 10
-27.6635
 20
10.3887
 30
0.0
 10
-27.5854
 20
10.2965
 30
0.0
 10
-27.5304
 20
10.2081
 30
0.0
 10
-27.498
 20
10.1234
 30
0.0
 10
-27.498
 20
10.1234
 30
0.0
 10
-27.466
 20
10.0383
 30
0.0
 10
-27.45
 20
9.947
 30
0.0
 10
-27.45
 20
9.8497
 30
0.0
 10
-27.45
 20
9.8497
 30
0.0
 10
-27.45
 20
9.6888
 30
0.0
 10
-27.489
 20
9.5656
 30
0.0
 10
-27.5676
 20
9.479
 30
0.0
 10
-27.5676
 20
9.479
 30
0.0
 10
-27.6461
 20
9.3929
 30
0.0
 10
-27.7468
 20
9.3497
 30
0.0
 10
-27.8686
 20
9.3497
 30
0.0
 10
-27.8686
 20
9.3497
 30
0.0
 10
-27.9406
 20
9.3497
 30
0.0
 10
-28.0059
 20
9.3657
 30
0.0
 10
-28.0652
 20
9.3986
 30
0.0
 10
-28.0652
 20
9.3986
 30
0.0
 10
-28.1245
 20
9.431
 30
0.0
 10
-28.172
 20
9.4738
 30
0.0
 10
-28.2077
 20
9.5265
 30
0.0
 10
-28.2077
 20
9.5265
 30
0.0
 10
-28.2435
 20
9.5797
 30
0.0
 10
-28.2708
 20
9.6389
 30
0.0
 10
-28.2891
 20
9.7053
 30
0.0
 10
-28.2891
 20
9.7053
 30
0.0
 10
-28.3018
 20
9.7537
 30
0.0
 10
-28.3145
 20
9.8271
 30
0.0
 10
-28.3263
 20
9.9254
 30
0.0
 10
-28.3263
 20
9.9254
 30
0.0
 10
-28.3503
 20
10.1258
 30
0.0
 10
-28.3785
 20
10.2735
 30
0.0
 10
-28.4119
 20
10.368
 30
0.0
 10
-28.4119
 20
10.368
 30
0.0
 10
-28.4457
 20
10.369
 30
0.0
 10
-28.4674
 20
10.3694
 30
0.0
 10
-28.4763
 20
10.3694
 30
0.0
 10
-28.4763
 20
10.3694
 30
0.0
 10
-28.5774
 20
10.3694
 30
0.0
 10
-28.6489
 20
10.3459
 30
0.0
 10
-28.6899
 20
10.2989
 30
0.0
 10
-28.6899
 20
10.2989
 30
0.0
 10
-28.7463
 20
10.2358
 30
0.0
 10
-28.7741
 20
10.1413
 30
0.0
 10
-28.7741
 20
10.0166
 30
0.0
 10
-28.7741
 20
10.0166
 30
0.0
 10
-28.7741
 20
9.9
 30
0.0
 10
-28.7538
 20
9.8139
 30
0.0
 10
-28.7129
 20
9.7579
 30
0.0
 10
-28.7129
 20
9.7579
 30
0.0
 10
-28.672
 20
9.7024
 30
0.0
 10
-28.5996
 20
9.6615
 30
0.0
 10
-28.4956
 20
9.6347
 30
0.0
 10
-28.4956
 20
9.6347
 30
0.0
 10
-28.4956
 20
9.6347
 30
0.0
 10
-28.529
 20
9.3925
 30
0.0
 10
-28.529
 20
9.3925
 30
0.0
 10
-28.529
 20
9.3925
 30
0.0
 10
-28.6325
 20
9.4146
 30
0.0
 10
-28.7167
 20
9.4508
 30
0.0
 10
-28.7802
 20
9.5011
 30
0.0
 10
-28.7802
 20
9.5011
 30
0.0
 10
-28.8441
 20
9.5515
 30
0.0
 10
-28.8935
 20
9.6248
 30
0.0
 10
-28.9279
 20
9.7203
 30
0.0
 10
-28.9279
 20
9.7203
 30
0.0
 10
-28.9622
 20
9.8158
 30
0.0
 10
-28.9796
 20
9.9263
 30
0.0
 10
-28.9796
 20
10.0524
 30
0.0
 10
-28.9796
 20
10.0524
 30
0.0
 10
-28.9796
 20
10.1775
 30
0.0
 10
-28.9646
 20
10.2786
 30
0.0
 10
-28.9354
 20
10.3567
 30
0.0
 10
-28.9354
 20
10.3567
 30
0.0
 10
-28.9058
 20
10.4348
 30
0.0
 10
-28.8691
 20
10.4922
 30
0.0
 10
-28.8244
 20
10.5293
 30
0.0
 10
-28.8244
 20
10.5293
 30
0.0
 10
-28.7797
 20
10.566
 30
0.0
 10
-28.7237
 20
10.5914
 30
0.0
 10
-28.6555
 20
10.6065
 30
0.0
 10
-28.6555
 20
10.6065
 30
0.0
 10
-28.6132
 20
10.6145
 30
0.0
 10
-28.537
 20
10.6187
 30
0.0
 10
-28.4269
 20
10.6187
 30
0.0
 10
-28.4269
 20
10.6187
 30
0.0
 10
-28.4269
 20
10.6187
 30
0.0
 10
-28.0963
 20
10.6187
 30
0.0
 10
-28.0963
 20
10.6187
 30
0.0
 10
-28.0963
 20
10.6187
 30
0.0
 10
-27.8653
 20
10.6187
 30
0.0
 10
-27.7195
 20
10.6239
 30
0.0
 10
-27.6588
 20
10.6347
 30
0.0
 10
-27.6588
 20
10.6347
 30
0.0
 10
-27.5977
 20
10.6451
 30
0.0
 10
-27.5389
 20
10.6662
 30
0.0
 10
-27.4829
 20
10.6973
 30
0.0
 10
-27.4829
 20
10.6973
 30
0.0
 10
-27.4829
 20
10.6973
 30
0.0
 10
-27.4829
 20
10.4381
 30
0.0
 10
-27.4829
 20
10.4381
 30
0.0
 10
-27.4829
 20
10.4381
 30
0.0
 10
-27.5342
 20
10.4127
 30
0.0
 10
-27.5944
 20
10.3958
 30
0.0
 10
-27.6635
 20
10.3887
 30
0.0
  0
SPLINE
  5
65
330
1F
100
AcDbEntity
  8
DEFAULT_1
 62
   250
100
AcDbSpline
210
0.0
220
0.0
230
1.0
 70
    11
 71
     3
 72
    44
 73
    40
 74
     0
 42
0.0000000001
 43
0.0000000001
 40
0.0
 40
0.0
 40
0.0
 40
0.0
 40
0.0909090909090909
 40
0.0909090909090909
 40
0.0909090909090909
 40
0.0909090909090909
 40
0.1818181818181818
 40
0.1818181818181818
 40
0.1818181818181818
 40
0.1818181818181818
 40
0.2727272727272727
 40
0.2727272727272727
 40
0.2727272727272727
 40
0.2727272727272727
 40
0.3636363636363636
 40
0.3636363636363636
 40
0.3636363636363636
 40
0.3636363636363636
 40
0.4545454545454545
 40
0.4545454545454545
 40
0.4545454545454545
 40
0.4545454545454545
 40
0.5454545454545454
 40
0.5454545454545454
 40
0.5454545454545454
 40
0.5454545454545454
 40
0.6363636363636364
 40
0.6363636363636364
 40
0.6363636363636364
 40
0.6363636363636364
 40
0.7272727272727273
 40
0.7272727272727273
 40
0.7272727272727273
 40
0.7272727272727273
 40
0.8181818181818182
 40
0.8181818181818182
 40
0.8181818181818182
 40
0.8181818181818182
 40
1.0
 40
1.0
 40
1.0
 40
1.0
 10
-28.2176
 20
10.368
 30
0.0
 10
-28.1805
 20
10.2777
 30
0.0
 10
-28.1494
 20
10.1427
 30
0.0
 10
-28.1235
 20
9.963
 30
0.0
 10
-28.1235
 20
9.963
 30
0.0
 10
-28.109
 20
9.861
 30
0.0
 10
-28.0925
 20
9.7885
 30
0.0
 10
-28.0742
 20
9.7467
 30
0.0
 10
-28.0742
 20
9.7467
 30
0.0
 10
-28.0558
 20
9.7043
 30
0.0
 10
-28.029
 20
9.6714
 30
0.0
 10
-27.9932
 20
9.6488
 30
0.0
 10
-27.9932
 20
9.6488
 30
0.0
 10
-27.958
 20
9.6258
 30
0.0
 10
-27.9189
 20
9.614
 30
0.0
 10
-27.8757
 20
9.614
 30
0.0
 10
-27.8757
 20
9.614
 30
0.0
 10
-27.8093
 20
9.614
 30
0.0
 10
-27.7543
 20
9.6394
 30
0.0
 10
-27.7101
 20
9.6893
 30
0.0
 10
-27.7101
 20
9.6893
 30
0.0
 10
-27.6663
 20
9.7391
 30
0.0
 10
-27.6442
 20
9.8125
 30
0.0
 10
-27.6442
 20
9.9089
 30
0.0
 10
-27.6442
 20
9.9089
 30
0.0
 10
-27.6442
 20
10.0044
 30
0.0
 10
-27.6649
 20
10.0896
 30
0.0
 10
-27.7068
 20
10.1639
 30
0.0
 10
-27.7068
 20
10.1639
 30
0.0
 10
-27.7487
 20
10.2382
 30
0.0
 10
-27.806
 20
10.2932
 30
0.0
 10
-27.8785
 20
10.328
 30
0.0
 10
-27.8785
 20
10.328
 30
0.0
 10
-27.9345
 20
10.3548
 30
0.0
 10
-28.0172
 20
10.368
 30
0.0
 10
-28.1264
 20
10.368
 30
0.0
 10
-28.1264
 20
10.368
 30
0.0
 10
-28.1264
 20
10.368
 30
0.0
 10
-28.2176
 20
10.368
 30
0.0
 10
-28.2176
 20
10.368
 30
0.0
  0
SPLINE
  5
66
330
1F
100
AcDbEntity
  8
DEFAULT_1
 62
   250
100
AcDbSpline
210
0.0
220
0.0
230
1.0
 70
    11
 71
     3
 72
    64
 73
    60
 74
     0
 42
0.0000000001
 43
0.0000000001
 40
0.0
 40
0.0
 40
0.0
 40
0.0
 40
0.0625
 40
0.0625
 40
0.0625
 40
0.0625
 40
0.125
 40
0.125
 40
0.125
 40
0.125
 40
0.1875
 40
0.1875
 40
0.1875
 40
0.1875
 40
0.25
 40
0.25
 40
0.25
 40
0.25
 40
0.3125
 40
0.3125
 40
0.3125
 40
0.3125
 40
0.375
 40
0.375
 40
0.375
 40
0.375
 40
0.4375
 40
0.4375
 40
0.4375
 40
0.4375
 40
0.5
 40
0.5
 40
0.5
 40
0.5
 40
0.5625
 40
0.5625
 40
0.5625
 40
0.5625
 40
0.625
 40
0.625
 40
0.625
 40
0.625
 40
0.6875
 40
0.6875
 40
0.6875
 40
0.6875
 40
0.75
 40
0.75
 40
0.75
 40
0.75
 40
0.8125
 40
0.8125
 40
0.8125
 40
0.8125
 40
0.875
 40
0.875
 40
0.875
 40
0.875
 40
1.0
 40
1.0
 40
1.0
 40
1.0
 10
-27.4829
 20
10.8379
 30
0.0
 10
-27.4829
 20
10.8379
 30
0.0
 10
-28.2435
 20
11.3727
 30
0.0
 10
-28.2435
 20
11.3727
 30
0.0
 10
-28.2435
 20
11.3727
 30
0.0
 10
-28.2435
 20
11.3727
 30
0.0
 10
-28.9462
 20
10.8779
 30
0.0
 10
-28.9462
 20
10.8779
 30
0.0
 10
-28.9462
 20
10.8779
 30
0.0
 10
-28.9462
 20
10.8779
 30
0.0
 10
-28.9462
 20
11.1878
 30
0.0
 10
-28.9462
 20
11.1878
 30
0.0
 10
-28.9462
 20
11.1878
 30
0.0
 10
-28.9462
 20
11.1878
 30
0.0
 10
-28.6033
 20
11.4127
 30
0.0
 10
-28.6033
 20
11.4127
 30
0.0
 10
-28.6033
 20
11.4127
 30
0.0
 10
-28.5379
 20
11.4545
 30
0.0
 10
-28.4834
 20
11.4889
 30
0.0
 10
-28.4392
 20
11.5143
 30
0.0
 10
-28.4392
 20
11.5143
 30
0.0
 10
-28.4998
 20
11.5547
 30
0.0
 10
-28.5535
 20
11.5919
 30
0.0
 10
-28.6005
 20
11.6262
 30
0.0
 10
-28.6005
 20
11.6262
 30
0.0
 10
-28.6005
 20
11.6262
 30
0.0
 10
-28.9462
 20
11.8727
 30
0.0
 10
-28.9462
 20
11.8727
 30
0.0
 10
-28.9462
 20
11.8727
 30
0.0
 10
-28.9462
 20
11.8727
 30
0.0
 10
-28.9462
 20
12.169
 30
0.0
 10
-28.9462
 20
12.169
 30
0.0
 10
-28.9462
 20
12.169
 30
0.0
 10
-28.9462
 20
12.169
 30
0.0
 10
-28.2571
 20
11.6634
 30
0.0
 10
-28.2571
 20
11.6634
 30
0.0
 10
-28.2571
 20
11.6634
 30
0.0
 10
-28.2571
 20
11.6634
 30
0.0
 10
-27.4829
 20
12.2076
 30
0.0
 10
-27.4829
 20
12.2076
 30
0.0
 10
-27.4829
 20
12.2076
 30
0.0
 10
-27.4829
 20
12.2076
 30
0.0
 10
-27.4829
 20
11.9033
 30
0.0
 10
-27.4829
 20
11.9033
 30
0.0
 10
-27.4829
 20
11.9033
 30
0.0
 10
-27.4829
 20
11.9033
 30
0.0
 10
-27.9377
 20
11.6027
 30
0.0
 10
-27.9377
 20
11.6027
 30
0.0
 10
-27.9377
 20
11.6027
 30
0.0
 10
-27.9377
 20
11.6027
 30
0.0
 10
-28.0605
 20
11.5228
 30
0.0
 10
-28.0605
 20
11.5228
 30
0.0
 10
-28.0605
 20
11.5228
 30
0.0
 10
-28.0605
 20
11.5228
 30
0.0
 10
-27.4829
 20
11.1385
 30
0.0
 10
-27.4829
 20
11.1385
 30
0.0
 10
-27.4829
 20
11.1385
 30
0.0
 10
-27.4829
 20
11.1385
 30
0.0
 10
-27.4829
 20
10.8379
 30
0.0
 10
-27.4829
 20
10.8379
 30
0.0
  0
SPLINE
  5
67
330
1F
100
AcDbEntity
  8
DEFAULT_1
 62
   250
100
AcDbSpline
210
0.0
220
0.0
230
1.0
 70
    11
 71
     3
 72
    48
 73
    44
 74
     0
 42
0.0000000001
 43
0.0000000001
 40
0.0
 40
0.0
 40
0.0
 40
0.0
 40
0.0833333333333333
 40
0.0833333333333333
 40
0.0833333333333333
 40
0.0833333333333333
 40
0.1666666666666667
 40
0.1666666666666667
 40
0.1666666666666667
 40
0.1666666666666667
 40
0.25
 40
0.25
 40
0.25
 40
0.25
 40
0.3333333333333333
 40
0.3333333333333333
 40
0.3333333333333333
 40
0.3333333333333333
 40
0.4166666666666667
 40
0.4166666666666667
 40
0.4166666666666667
 40
0.4166666666666667
 40
0.5
 40
0.5
 40
0.5
 40
0.5
 40
0.5833333333333334
 40
0.5833333333333334
 40
0.5833333333333334
 40
0.5833333333333334
 40
0.6666666666666666
 40
0.6666666666666666
 40
0.6666666666666666
 40
0.6666666666666666
 40
0.75
 40
0.75
 40
0.75
 40
0.75
 40
0.8333333333333334
 40
0.8333333333333334
 40
0.8333333333333334
 40
0.8333333333333334
 40
1.0
 40
1.0
 40
1.0
 40
1.0
 10
-27.4829
 20
13.9244
 30
0.0
 10
-27.4829
 20
13.9244
 30
0.0
 10
-27.9664
 20
13.9244
 30
0.0
 10
-27.9664
 20
13.9244
 30
0.0
 10
-27.9664
 20
13.9244
 30
0.0
 10
-27.9664
 20
13.9244
 30
0.0
 10
-27.9664
 20
13.0481
 30
0.0
 10
-27.9664
 20
13.0481
 30
0.0
 10
-27.9664
 20
13.0481
 30
0.0
 10
-27.9664
 20
13.0481
 30
0.0
 10
-28.1941
 20
13.0481
 30
0.0
 10
-28.1941
 20
13.0481
 30
0.0
 10
-28.1941
 20
13.0481
 30
0.0
 10
-28.1941
 20
13.0481
 30
0.0
 10
-29.5031
 20
13.9701
 30
0.0
 10
-29.5031
 20
13.9701
 30
0.0
 10
-29.5031
 20
13.9701
 30
0.0
 10
-29.5031
 20
13.9701
 30
0.0
 10
-29.5031
 20
14.1728
 30
0.0
 10
-29.5031
 20
14.1728
 30
0.0
 10
-29.5031
 20
14.1728
 30
0.0
 10
-29.5031
 20
14.1728
 30
0.0
 10
-28.1941
 20
14.1728
 30
0.0
 10
-28.1941
 20
14.1728
 30
0.0
 10
-28.1941
 20
14.1728
 30
0.0
 10
-28.1941
 20
14.1728
 30
0.0
 10
-28.1941
 20
14.4456
 30
0.0
 10
-28.1941
 20
14.4456
 30
0.0
 10
-28.1941
 20
14.4456
 30
0.0
 10
-28.1941
 20
14.4456
 30
0.0
 10
-27.9664
 20
14.4456
 30
0.0
 10
-27.9664
 20
14.4456
 30
0.0
 10
-27.9664
 20
14.4456
 30
0.0
 10
-27.9664
 20
14.4456
 30
0.0
 10
-27.9664
 20
14.1728
 30
0.0
 10
-27.9664
 20
14.1728
 30
0.0
 10
-27.9664
 20
14.1728
 30
0.0
 10
-27.9664
 20
14.1728
 30
0.0
 10
-27.4829
 20
14.1728
 30
0.0
 10
-27.4829
 20
14.1728
 30
0.0
 10
-27.4829
 20
14.1728
 30
0.0
 10
-27.4829
 20
14.1728
 30
0.0
 10
-27.4829
 20
13.9244
 30
0.0
 10
-27.4829
 20
13.9244
 30
0.0
  0
SPLINE
  5
68
330
1F
100
AcDbEntity
  8
DEFAULT_1
 62
   250
100
AcDbSpline
210
0.0
220
0.0
230
1.0
 70
    11
 71
     3
 72
    16
 73
    12
 74
     0
 42
0.0000000001
 43
0.0000000001
 40
0.0
 40
0.0
 40
0.0
 40
0.0
 40
0.25
 40
0.25
 40
0.25
 40
0.25
 40
0.5
 40
0.5
 40
0.5
 40
0.5
 40
1.0
 40
1.0
 40
1.0
 40
1.0
 10
-28.1941
 20
13.9244
 30
0.0
 10
-28.1941
 20
13.9244
 30
0.0
 10
-29.1047
 20
13.9244
 30
0.0
 10
-29.1047
 20
13.9244
 30
0.0
 10
-29.1047
 20
13.9244
 30
0.0
 10
-29.1047
 20
13.9244
 30
0.0
 10
-28.1941
 20
13.2923
 30
0.0
 10
-28.1941
 20
13.2923
 30
0.0
 10
-28.1941
 20
13.2923
 30
0.0
 10
-28.1941
 20
13.2923
 30
0.0
 10
-28.1941
 20
13.9244
 30
0.0
 10
-28.1941
 20
13.9244
 30
0.0
  0
SPLINE
  5
69
330
1F
100
AcDbEntity
  8
DEFAULT_1
 62
   250
100
AcDbSpline
210
0.0
220
0.0
230
1.0
 70
    11
 71
     3
 72
    92
 73
    88
 74
     0
 42
0.0000000001
 43
0.0000000001
 40
0.0
 40
0.0
 40
0.0
 40
0.0
 40
0.0434782608695652
 40
0.0434782608695652
 40
0.0434782608695652
 40
0.0434782608695652
 40
0.0869565217391304
 40
0.0869565217391304
 40
0.0869565217391304
 40
0.0869565217391304
 40
0.1304347826086956
 40
0.1304347826086956
 40
0.1304347826086956
 40
0.1304347826086956
 40
0.1739130434782609
 40
0.1739130434782609
 40
0.1739130434782609
 40
0.1739130434782609
 40
0.2173913043478261
 40
0.2173913043478261
 40
0.2173913043478261
 40
0.2173913043478261
 40
0.2608695652173913
 40
0.2608695652173913
 40
0.2608695652173913
 40
0.2608695652173913
 40
0.3043478260869565
 40
0.3043478260869565
 40
0.3043478260869565
 40
0.3043478260869565
 40
0.3478260869565217
 40
0.3478260869565217
 40
0.3478260869565217
 40
0.3478260869565217
 40
0.391304347826087
 40
0.391304347826087
 40
0.391304347826087
 40
0.391304347826087
 40
0.4347826086956522
 40
0.4347826086956522
 40
0.4347826086956522
 40
0.4347826086956522
 40
0.4782608695652174
 40
0.4782608695652174
 40
0.4782608695652174
 40
0.4782608695652174
 40
0.5217391304347826
 40
0.5217391304347826
 40
0.5217391304347826
 40
0.5217391304347826
 40
0.5652173913043478
 40
0.5652173913043478
 40
0.5652173913043478
 40
0.5652173913043478
 40
0.6086956521739131
 40
0.6086956521739131
 40
0.6086956521739131
 40
0.6086956521739131
 40
0.6521739130434783
 40
0.6521739130434783
 40
0.6521739130434783
 40
0.6521739130434783
 40
0.6956521739130435
 40
0.6956521739130435
 40
0.6956521739130435
 40
0.6956521739130435
 40
0.7391304347826086
 40
0.7391304347826086
 40
0.7391304347826086
 40
0.7391304347826086
 40
0.782608695652174
 40
0.782608695652174
 40
0.782608695652174
 40
0.782608695652174
 40
0.8260869565217391
 40
0.8260869565217391
 40
0.8260869565217391
 40
0.8260869565217391
 40
0.8695652173913043
 40
0.8695652173913043
 40
0.8695652173913043
 40
0.8695652173913043
 40
0.9130434782608695
 40
0.9130434782608695
 40
0.9130434782608695
 40
0.9130434782608695
 40
1.0
 40
1.0
 40
1.0
 40
1.0
 10
-28.0121
 20
14.6991
 30
0.0
 10
-28.0121
 20
14.6991
 30
0.0
 10
-28.0342
 20
14.9597
 30
0.0
 10
-28.0342
 20
14.9597
 30
0.0
 10
-28.0342
 20
14.9597
 30
0.0
 10
-27.9072
 20
14.979
 30
0.0
 10
-27.8122
 20
15.0237
 30
0.0
 10
-27.7482
 20
15.0938
 30
0.0
 10
-27.7482
 20
15.0938
 30
0.0
 10
-27.6842
 20
15.1643
 30
0.0
 10
-27.6522
 20
15.249
 30
0.0
 10
-27.6522
 20
15.3482
 30
0.0
 10
-27.6522
 20
15.3482
 30
0.0
 10
-27.6522
 20
15.4677
 30
0.0
 10
-27.6974
 20
15.5688
 30
0.0
 10
-27.7872
 20
15.6511
 30
0.0
 10
-27.7872
 20
15.6511
 30
0.0
 10
-27.8775
 20
15.7339
 30
0.0
 10
-27.997
 20
15.7753
 30
0.0
 10
-28.1456
 20
15.7753
 30
0.0
 10
-28.1456
 20
15.7753
 30
0.0
 10
-28.2872
 20
15.7753
 30
0.0
 10
-28.3987
 20
15.7358
 30
0.0
 10
-28.4805
 20
15.6563
 30
0.0
 10
-28.4805
 20
15.6563
 30
0.0
 10
-28.5624
 20
15.5768
 30
0.0
 10
-28.6033
 20
15.4729
 30
0.0
 10
-28.6033
 20
15.344
 30
0.0
 10
-28.6033
 20
15.344
 30
0.0
 10
-28.6033
 20
15.264
 30
0.0
 10
-28.585
 20
15.1921
 30
0.0
 10
-28.5488
 20
15.1276
 30
0.0
 10
-28.5488
 20
15.1276
 30
0.0
 10
-28.5125
 20
15.0632
 30
0.0
 10
-28.4655
 20
15.0129
 30
0.0
 10
-28.4076
 20
14.9762
 30
0.0
 10
-28.4076
 20
14.9762
 30
0.0
 10
-28.4076
 20
14.9762
 30
0.0
 10
-28.4377
 20
14.7433
 30
0.0
 10
-28.4377
 20
14.7433
 30
0.0
 10
-28.4377
 20
14.7433
 30
0.0
 10
-28.4377
 20
14.7433
 30
0.0
 10
-29.4754
 20
14.939
 30
0.0
 10
-29.4754
 20
14.939
 30
0.0
 10
-29.4754
 20
14.939
 30
0.0
 10
-29.4754
 20
14.939
 30
0.0
 10
-29.4754
 20
15.9437
 30
0.0
 10
-29.4754
 20
15.9437
 30
0.0
 10
-29.4754
 20
15.9437
 30
0.0
 10
-29.4754
 20
15.9437
 30
0.0
 10
-29.2383
 20
15.9437
 30
0.0
 10
-29.2383
 20
15.9437
 30
0.0
 10
-29.2383
 20
15.9437
 30
0.0
 10
-29.2383
 20
15.9437
 30
0.0
 10
-29.2383
 20
15.1375
 30
0.0
 10
-29.2383
 20
15.1375
 30
0.0
 10
-29.2383
 20
15.1375
 30
0.0
 10
-29.2383
 20
15.1375
 30
0.0
 10
-28.6955
 20
15.0284
 30
0.0
 10
-28.6955
 20
15.0284
 30
0.0
 10
-28.6955
 20
15.0284
 30
0.0
 10
-28.7802
 20
15.1497
 30
0.0
 10
-28.8225
 20
15.2772
 30
0.0
 10
-28.8225
 20
15.4103
 30
0.0
 10
-28.8225
 20
15.4103
 30
0.0
 10
-28.8225
 20
15.5867
 30
0.0
 10
-28.7614
 20
15.7353
 30
0.0
 10
-28.6391
 20
15.8567
 30
0.0
 10
-28.6391
 20
15.8567
 30
0.0
 10
-28.5168
 20
15.978
 30
0.0
 10
-28.3597
 20
16.0387
 30
0.0
 10
-28.1678
 20
16.0387
 30
0.0
 10
-28.1678
 20
16.0387
 30
0.0
 10
-27.9848
 20
16.0387
 30
0.0
 10
-27.8267
 20
15.9851
 30
0.0
 10
-27.6936
 20
15.8788
 30
0.0
 10
-27.6936
 20
15.8788
 30
0.0
 10
-27.5304
 20
15.749
 30
0.0
 10
-27.4486
 20
15.5721
 30
0.0
 10
-27.4486
 20
15.3482
 30
0.0
 10
-27.4486
 20
15.3482
 30
0.0
 10
-27.4486
 20
15.1643
 30
0.0
 10
-27.4998
 20
15.0143
 30
0.0
 10
-27.6028
 20
14.8981
 30
0.0
 10
-27.6028
 20
14.8981
 30
0.0
 10
-27.7059
 20
14.7819
 30
0.0
 10
-27.8423
 20
14.7156
 30
0.0
 10
-28.0121
 20
14.6991
 30
0.0
  0
SPLINE
  5
6A
330
1F
100
AcDbEntity
  8
DEFAULT_1
 62
   250
100
AcDbSpline
210
0.0
220
0.0
230
1.0
 70
    11
 71
     3
 72
    20
 73
    16
 74
     0
 42
0.0000000001
 43
0.0000000001
 40
0.0
 40
0.0
 40
0.0
 40
0.0
 40
0.2
 40
0.2
 40
0.2
 40
0.2
 40
0.4
 40
0.4
 40
0.4
 40
0.4
 40
0.6
 40
0.6
 40
0.6
 40
0.6
 40
1.0
 40
1.0
 40
1.0
 40
1.0
 10
-0.1994
 20
30.3576
 30
0.0
 10
-0.1994
 20
30.3576
 30
0.0
 10
2.3006
 20
30.0047
 30
0.0
 10
2.3006
 20
30.0047
 30
0.0
 10
2.3006
 20
30.0047
 30
0.0
 10
2.3006
 20
30.0047
 30
0.0
 10
2.3006
 20
29.9264
 30
0.0
 10
2.3006
 20
29.9264
 30
0.0
 10
2.3006
 20
29.9264
 30
0.0
 10
2.3006
 20
29.9264
 30
0.0
 10
-0.1994
 20
29.5501
 30
0.0
 10
-0.1994
 20
29.5501
 30
0.0
 10
-0.1994
 20
29.5501
 30
0.0
 10
-0.1994
 20
29.5501
 30
0.0
 10
-0.1994
 20
30.3576
 30
0.0
 10
-0.1994
 20
30.3576
 30
0.0
  0
SPLINE
  5
6B
330
1F
100
AcDbEntity
  8
DEFAULT_1
 62
   250
100
AcDbSpline
210
0.0
220
0.0
230
1.0
 70
    11
 71
     3
 72
    20
 73
    16
 74
     0
 42
0.0000000001
 43
0.0000000001
 40
0.0
 40
0.0
 40
0.0
 40
0.0
 40
0.2
 40
0.2
 40
0.2
 40
0.2
 40
0.4
 40
0.4
 40
0.4
 40
0.4
 40
0.6
 40
0.6
 40
0.6
 40
0.6
 40
1.0
 40
1.0
 40
1.0
 40
1.0
 10
-18.0631
 20
29.5474
 30
0.0
 10
-18.0631
 20
29.5474
 30
0.0
 10
-20.5631
 20
29.9003
 30
0.0
 10
-20.5631
 20
29.9003
 30
0.0
 10
-20.5631
 20
29.9003
 30
0.0
 10
-20.5631
 20
29.9003
 30
0.0
 10
-20.5631
 20
29.9786
 30
0.0
 10
-20.5631
 20
29.9786
 30
0.0
 10
-20.5631
 20
29.9786
 30
0.0
 10
-20.5631
 20
29.9786
 30
0.0
 10
-18.0631
 20
30.3549
 30
0.0
 10
-18.0631
 20
30.3549
 30
0.0
 10
-18.0631
 20
30.3549
 30
0.0
 10
-18.0631
 20
30.3549
 30
0.0
 10
-18.0631
 20
29.5474
 30
0.0
 10
-18.0631
 20
29.5474
 30
0.0
  0
SPLINE
  5
6C
330
1F
100
AcDbEntity
  8
DEFAULT_1
 62
   250
100
AcDbSpline
210
0.0
220
0.0
230
1.0
 70
    11
 71
     3
 72
    84
 73
    80
 74
     0
 42
0.0000000001
 43
0.0000000001
 40
0.0
 40
0.0
 40
0.0
 40
0.0
 40
0.0476190476190476
 40
0.0476190476190476
 40
0.0476190476190476
 40
0.0476190476190476
 40
0.0952380952380952
 40
0.0952380952380952
 40
0.0952380952380952
 40
0.0952380952380952
 40
0.1428571428571428
 40
0.1428571428571428
 40
0.1428571428571428
 40
0.1428571428571428
 40
0.1904761904761905
 40
0.1904761904761905
 40
0.1904761904761905
 40
0.1904761904761905
 40
0.2380952380952381
 40
0.2380952380952381
 40
0.2380952380952381
 40
0.2380952380952381
 40
0.2857142857142857
 40
0.2857142857142857
 40
0.2857142857142857
 40
0.2857142857142857
 40
0.3333333333333333
 40
0.3333333333333333
 40
0.3333333333333333
 40
0.3333333333333333
 40
0.3809523809523809
 40
0.3809523809523809
 40
0.3809523809523809
 40
0.3809523809523809
 40
0.4285714285714285
 40
0.4285714285714285
 40
0.4285714285714285
 40
0.4285714285714285
 40
0.4761904761904762
 40
0.4761904761904762
 40
0.4761904761904762
 40
0.4761904761904762
 40
0.5238095238095238
 40
0.5238095238095238
 40
0.5238095238095238
 40
0.5238095238095238
 40
0.5714285714285714
 40
0.5714285714285714
 40
0.5714285714285714
 40
0.5714285714285714
 40
0.6190476190476191
 40
0.6190476190476191
 40
0.6190476190476191
 40
0.6190476190476191
 40
0.6666666666666666
 40
0.6666666666666666
 40
0.6666666666666666
 40
0.6666666666666666
 40
0.7142857142857143
 40
0.7142857142857143
 40
0.7142857142857143
 40
0.7142857142857143
 40
0.7619047619047619
 40
0.7619047619047619
 40
0.7619047619047619
 40
0.7619047619047619
 40
0.8095238095238095
 40
0.8095238095238095
 40
0.8095238095238095
 40
0.8095238095238095
 40
0.8571428571428571
 40
0.8571428571428571
 40
0.8571428571428571
 40
0.8571428571428571
 40
0.9047619047619048
 40
0.9047619047619048
 40
0.9047619047619048
 40
0.9047619047619048
 40
1.0
 40
1.0
 40
1.0
 40
1.0
 10
-9.9648
 20
32.4927
 30
0.0
 10
-9.9648
 20
32.4927
 30
0.0
 10
-9.7334
 20
32.7518
 30
0.0
 10
-9.7334
 20
32.7518
 30
0.0
 10
-9.7334
 20
32.7518
 30
0.0
 10
-9.7334
 20
32.7518
 30
0.0
 10
-9.597
 20
32.6361
 30
0.0
 10
-9.597
 20
32.6361
 30
0.0
 10
-9.597
 20
32.6361
 30
0.0
 10
-9.597
 20
32.6361
 30
0.0
 10
-9.8392
 20
32.3633
 30
0.0
 10
-9.8392
 20
32.3633
 30
0.0
 10
-9.8392
 20
32.3633
 30
0.0
 10
-9.7602
 20
32.2457
 30
0.0
 10
-9.7071
 20
32.1427
 30
0.0
 10
-9.6793
 20
32.0548
 30
0.0
 10
-9.6793
 20
32.0548
 30
0.0
 10
-9.6426
 20
31.939
 30
0.0
 10
-9.6243
 20
31.8092
 30
0.0
 10
-9.6243
 20
31.6662
 30
0.0
 10
-9.6243
 20
31.6662
 30
0.0
 10
-9.6243
 20
31.4593
 30
0.0
 10
-9.6661
 20
31.2749
 30
0.0
 10
-9.7499
 20
31.1136
 30
0.0
 10
-9.7499
 20
31.1136
 30
0.0
 10
-9.8336
 20
30.9517
 30
0.0
 10
-9.9507
 20
30.8295
 30
0.0
 10
-10.1017
 20
30.7467
 30
0.0
 10
-10.1017
 20
30.7467
 30
0.0
 10
-10.2532
 20
30.6644
 30
0.0
 10
-10.4135
 20
30.623
 30
0.0
 10
-10.5833
 20
30.623
 30
0.0
 10
-10.5833
 20
30.623
 30
0.0
 10
-10.7103
 20
30.623
 30
0.0
 10
-10.8251
 20
30.6408
 30
0.0
 10
-10.9281
 20
30.6766
 30
0.0
 10
-10.9281
 20
30.6766
 30
0.0
 10
-11.0071
 20
30.7043
 30
0.0
 10
-11.0993
 20
30.757
 30
0.0
 10
-11.2052
 20
30.8351
 30
0.0
 10
-11.2052
 20
30.8351
 30
0.0
 10
-11.2052
 20
30.8351
 30
0.0
 10
-11.4366
 20
30.5759
 30
0.0
 10
-11.4366
 20
30.5759
 30
0.0
 10
-11.4366
 20
30.5759
 30
0.0
 10
-11.4366
 20
30.5759
 30
0.0
 10
-11.573
 20
30.6916
 30
0.0
 10
-11.573
 20
30.6916
 30
0.0
 10
-11.573
 20
30.6916
 30
0.0
 10
-11.573
 20
30.6916
 30
0.0
 10
-11.3303
 20
30.963
 30
0.0
 10
-11.3303
 20
30.963
 30
0.0
 10
-11.3303
 20
30.963
 30
0.0
 10
-11.4206
 20
31.0999
 30
0.0
 10
-11.4808
 20
31.217
 30
0.0
 10
-11.5109
 20
31.3139
 30
0.0
 10
-11.5109
 20
31.3139
 30
0.0
 10
-11.541
 20
31.4108
 30
0.0
 10
-11.5565
 20
31.5275
 30
0.0
 10
-11.5565
 20
31.6634
 30
0.0
 10
-11.5565
 20
31.6634
 30
0.0
 10
-11.5565
 20
31.8708
 30
0.0
 10
-11.5151
 20
32.0557
 30
0.0
 10
-11.4324
 20
32.218
 30
0.0
 10
-11.4324
 20
32.218
 30
0.0
 10
-11.3496
 20
32.3803
 30
0.0
 10
-11.2339
 20
32.503
 30
0.0
 10
-11.0843
 20
32.5867
 30
0.0
 10
-11.0843
 20
32.5867
 30
0.0
 10
-10.9352
 20
32.67
 30
0.0
 10
-10.7691
 20
32.7119
 30
0.0
 10
-10.5862
 20
32.7119
 30
0.0
 10
-10.5862
 20
32.7119
 30
0.0
 10
-10.4629
 20
32.7119
 30
0.0
 10
-10.3552
 20
32.6959
 30
0.0
 10
-10.263
 20
32.6629
 30
0.0
 10
-10.263
 20
32.6629
 30
0.0
 10
-10.1708
 20
32.6305
 30
0.0
 10
-10.0711
 20
32.5736
 30
0.0
 10
-9.9648
 20
32.4927
 30
0.0
  0
SPLINE
  5
6D
330
1F
100
AcDbEntity
  8
DEFAULT_1
 62
   250
100
AcDbSpline
210
0.0
220
0.0
230
1.0
 70
    11
 71
     3
 72
    32
 73
    28
 74
     0
 42
0.0000000001
 43
0.0000000001
 40
0.0
 40
0.0
 40
0.0
 40
0.0
 40
0.125
 40
0.125
 40
0.125
 40
0.125
 40
0.25
 40
0.25
 40
0.25
 40
0.25
 40
0.375
 40
0.375
 40
0.375
 40
0.375
 40
0.5
 40
0.5
 40
0.5
 40
0.5
 40
0.625
 40
0.625
 40
0.625
 40
0.625
 40
0.75
 40
0.75
 40
0.75
 40
0.75
 40
1.0
 40
1.0
 40
1.0
 40
1.0
 10
-10.1299
 20
32.3069
 30
0.0
 10
-10.2165
 20
32.3746
 30
0.0
 10
-10.2922
 20
32.4212
 30
0.0
 10
-10.3566
 20
32.4461
 30
0.0
 10
-10.3566
 20
32.4461
 30
0.0
 10
-10.4215
 20
32.4706
 30
0.0
 10
-10.4977
 20
32.4833
 30
0.0
 10
-10.5848
 20
32.4833
 30
0.0
 10
-10.5848
 20
32.4833
 30
0.0
 10
-10.7861
 20
32.4833
 30
0.0
 10
-10.9521
 20
32.4151
 30
0.0
 10
-11.0838
 20
32.2787
 30
0.0
 10
-11.0838
 20
32.2787
 30
0.0
 10
-11.2151
 20
32.1422
 30
0.0
 10
-11.2809
 20
31.9386
 30
0.0
 10
-11.2809
 20
31.6672
 30
0.0
 10
-11.2809
 20
31.6672
 30
0.0
 10
-11.2809
 20
31.5609
 30
0.0
 10
-11.2706
 20
31.4663
 30
0.0
 10
-11.2503
 20
31.3835
 30
0.0
 10
-11.2503
 20
31.3835
 30
0.0
 10
-11.2357
 20
31.3219
 30
0.0
 10
-11.2052
 20
31.2462
 30
0.0
 10
-11.1581
 20
31.1564
 30
0.0
 10
-11.1581
 20
31.1564
 30
0.0
 10
-11.1581
 20
31.1564
 30
0.0
 10
-10.1299
 20
32.3069
 30
0.0
 10
-10.1299
 20
32.3069
 30
0.0
  0
SPLINE
  5
6E
330
1F
100
AcDbEntity
  8
DEFAULT_1
 62
   250
100
AcDbSpline
210
0.0
220
0.0
230
1.0
 70
    11
 71
     3
 72
    28
 73
    24
 74
     0
 42
0.0000000001
 43
0.0000000001
 40
0.0
 40
0.0
 40
0.0
 40
0.0
 40
0.1428571428571428
 40
0.1428571428571428
 40
0.1428571428571428
 40
0.1428571428571428
 40
0.2857142857142857
 40
0.2857142857142857
 40
0.2857142857142857
 40
0.2857142857142857
 40
0.4285714285714285
 40
0.4285714285714285
 40
0.4285714285714285
 40
0.4285714285714285
 40
0.5714285714285714
 40
0.5714285714285714
 40
0.5714285714285714
 40
0.5714285714285714
 40
0.7142857142857143
 40
0.7142857142857143
 40
0.7142857142857143
 40
0.7142857142857143
 40
1.0
 40
1.0
 40
1.0
 40
1.0
 10
-10.017
 20
32.1648
 30
0.0
 10
-10.017
 20
32.1648
 30
0.0
 10
-11.041
 20
31.0185
 30
0.0
 10
-11.041
 20
31.0185
 30
0.0
 10
-11.041
 20
31.0185
 30
0.0
 10
-10.9705
 20
30.9607
 30
0.0
 10
-10.9051
 20
30.9202
 30
0.0
 10
-10.8453
 20
30.8972
 30
0.0
 10
-10.8453
 20
30.8972
 30
0.0
 10
-10.7673
 20
30.8666
 30
0.0
 10
-10.6826
 20
30.8516
 30
0.0
 10
-10.5918
 20
30.8516
 30
0.0
 10
-10.5918
 20
30.8516
 30
0.0
 10
-10.3914
 20
30.8516
 30
0.0
 10
-10.2263
 20
30.9221
 30
0.0
 10
-10.0956
 20
31.0637
 30
0.0
 10
-10.0956
 20
31.0637
 30
0.0
 10
-9.9653
 20
31.2053
 30
0.0
 10
-9.8999
 20
31.4038
 30
0.0
 10
-9.8999
 20
31.6592
 30
0.0
 10
-9.8999
 20
31.6592
 30
0.0
 10
-9.8999
 20
31.8501
 30
0.0
 10
-9.9389
 20
32.019
 30
0.0
 10
-10.017
 20
32.1648
 30
0.0
  0
SPLINE
  5
6F
330
1F
100
AcDbEntity
  8
DEFAULT_1
 62
   250
100
AcDbSpline
210
0.0
220
0.0
230
1.0
 70
    11
 71
     3
 72
    80
 73
    76
 74
     0
 42
0.0000000001
 43
0.0000000001
 40
0.0
 40
0.0
 40
0.0
 40
0.0
 40
0.05
 40
0.05
 40
0.05
 40
0.05
 40
0.1
 40
0.1
 40
0.1
 40
0.1
 40
0.15
 40
0.15
 40
0.15
 40
0.15
 40
0.2
 40
0.2
 40
0.2
 40
0.2
 40
0.25
 40
0.25
 40
0.25
 40
0.25
 40
0.3
 40
0.3
 40
0.3
 40
0.3
 40
0.35
 40
0.35
 40
0.35
 40
0.35
 40
0.4
 40
0.4
 40
0.4
 40
0.4
 40
0.45
 40
0.45
 40
0.45
 40
0.45
 40
0.5
 40
0.5
 40
0.5
 40
0.5
 40
0.55
 40
0.55
 40
0.55
 40
0.55
 40
0.6
 40
0.6
 40
0.6
 40
0.6
 40
0.65
 40
0.65
 40
0.65
 40
0.65
 40
0.7
 40
0.7
 40
0.7
 40
0.7
 40
0.75
 40
0.75
 40
0.75
 40
0.75
 40
0.8
 40
0.8
 40
0.8
 40
0.8
 40
0.85
 40
0.85
 40
0.85
 40
0.85
 40
0.9
 40
0.9
 40
0.9
 40
0.9
 40
1.0
 40
1.0
 40
1.0
 40
1.0
 10
-8.0881
 20
32.1827
 30
0.0
 10
-8.0881
 20
32.1827
 30
0.0
 10
-8.3345
 20
32.1634
 30
0.0
 10
-8.3345
 20
32.1634
 30
0.0
 10
-8.3345
 20
32.1634
 30
0.0
 10
-8.3566
 20
32.2608
 30
0.0
 10
-8.3877
 20
32.3318
 30
0.0
 10
-8.4281
 20
32.3755
 30
0.0
 10
-8.4281
 20
32.3755
 30
0.0
 10
-8.4954
 20
32.4466
 30
0.0
 10
-8.5782
 20
32.4819
 30
0.0
 10
-8.6765
 20
32.4819
 30
0.0
 10
-8.6765
 20
32.4819
 30
0.0
 10
-8.7555
 20
32.4819
 30
0.0
 10
-8.8246
 20
32.4597
 30
0.0
 10
-8.8844
 20
32.4155
 30
0.0
 10
-8.8844
 20
32.4155
 30
0.0
 10
-8.9625
 20
32.3586
 30
0.0
 10
-9.0241
 20
32.2754
 30
0.0
 10
-9.0692
 20
32.1662
 30
0.0
 10
-9.0692
 20
32.1662
 30
0.0
 10
-9.1139
 20
32.0571
 30
0.0
 10
-9.1374
 20
31.9014
 30
0.0
 10
-9.1393
 20
31.6992
 30
0.0
 10
-9.1393
 20
31.6992
 30
0.0
 10
-9.0796
 20
31.7899
 30
0.0
 10
-9.0067
 20
31.8577
 30
0.0
 10
-8.9201
 20
31.9019
 30
0.0
 10
-8.9201
 20
31.9019
 30
0.0
 10
-8.8341
 20
31.9456
 30
0.0
 10
-8.7433
 20
31.9677
 30
0.0
 10
-8.6487
 20
31.9677
 30
0.0
 10
-8.6487
 20
31.9677
 30
0.0
 10
-8.4832
 20
31.9677
 30
0.0
 10
-8.3425
 20
31.9071
 30
0.0
 10
-8.2263
 20
31.7852
 30
0.0
 10
-8.2263
 20
31.7852
 30
0.0
 10
-8.1102
 20
31.6634
 30
0.0
 10
-8.0518
 20
31.5063
 30
0.0
 10
-8.0518
 20
31.3135
 30
0.0
 10
-8.0518
 20
31.3135
 30
0.0
 10
-8.0518
 20
31.1865
 30
0.0
 10
-8.0796
 20
31.0689
 30
0.0
 10
-8.1342
 20
30.9597
 30
0.0
 10
-8.1342
 20
30.9597
 30
0.0
 10
-8.1887
 20
30.8511
 30
0.0
 10
-8.264
 20
30.7674
 30
0.0
 10
-8.3595
 20
30.7095
 30
0.0
 10
-8.3595
 20
30.7095
 30
0.0
 10
-8.4549
 20
30.6517
 30
0.0
 10
-8.5631
 20
30.623
 30
0.0
 10
-8.6845
 20
30.623
 30
0.0
 10
-8.6845
 20
30.623
 30
0.0
 10
-8.8914
 20
30.623
 30
0.0
 10
-9.0598
 20
30.6987
 30
0.0
 10
-9.1901
 20
30.8511
 30
0.0
 10
-9.1901
 20
30.8511
 30
0.0
 10
-9.3209
 20
31.003
 30
0.0
 10
-9.3858
 20
31.2537
 30
0.0
 10
-9.3858
 20
31.6027
 30
0.0
 10
-9.3858
 20
31.6027
 30
0.0
 10
-9.3858
 20
31.9931
 30
0.0
 10
-9.3138
 20
32.2768
 30
0.0
 10
-9.1694
 20
32.4541
 30
0.0
 10
-9.1694
 20
32.4541
 30
0.0
 10
-9.0438
 20
32.6084
 30
0.0
 10
-8.8745
 20
32.686
 30
0.0
 10
-8.661
 20
32.686
 30
0.0
 10
-8.661
 20
32.686
 30
0.0
 10
-8.5024
 20
32.686
 30
0.0
 10
-8.3722
 20
32.6413
 30
0.0
 10
-8.2706
 20
32.5519
 30
0.0
 10
-8.2706
 20
32.5519
 30
0.0
 10
-8.169
 20
32.463
 30
0.0
 10
-8.1083
 20
32.3398
 30
0.0
 10
-8.0881
 20
32.1827
 30
0.0
  0
SPLINE
  5
70
330
1F
100
AcDbEntity
  8
DEFAULT_1
 62
   250
100
AcDbSpline
210
0.0
220
0.0
230
1.0
 70
    11
 71
     3
 72
    40
 73
    36
 74
     0
 42
0.0000000001
 43
0.0000000001
 40
0.0
 40
0.0
 40
0.0
 40
0.0
 40
0.1
 40
0.1
 40
0.1
 40
0.1
 40
0.2
 40
0.2
 40
0.2
 40
0.2
 40
0.3
 40
0.3
 40
0.3
 40
0.3
 40
0.4
 40
0.4
 40
0.4
 40
0.4
 40
0.5
 40
0.5
 40
0.5
 40
0.5
 40
0.6
 40
0.6
 40
0.6
 40
0.6
 40
0.7
 40
0.7
 40
0.7
 40
0.7
 40
0.8
 40
0.8
 40
0.8
 40
0.8
 40
1.0
 40
1.0
 40
1.0
 40
1.0
 10
-9.1008
 20
31.3121
 30
0.0
 10
-9.1008
 20
31.2264
 30
0.0
 10
-9.0824
 20
31.1446
 30
0.0
 10
-9.0462
 20
31.0665
 30
0.0
 10
-9.0462
 20
31.0665
 30
0.0
 10
-9.01
 20
30.9884
 30
0.0
 10
-8.9592
 20
30.9292
 30
0.0
 10
-8.8943
 20
30.8883
 30
0.0
 10
-8.8943
 20
30.8883
 30
0.0
 10
-8.8289
 20
30.8473
 30
0.0
 10
-8.7602
 20
30.8266
 30
0.0
 10
-8.6887
 20
30.8266
 30
0.0
 10
-8.6887
 20
30.8266
 30
0.0
 10
-8.5838
 20
30.8266
 30
0.0
 10
-8.494
 20
30.869
 30
0.0
 10
-8.4187
 20
30.9536
 30
0.0
 10
-8.4187
 20
30.9536
 30
0.0
 10
-8.3435
 20
31.0383
 30
0.0
 10
-8.3058
 20
31.1531
 30
0.0
 10
-8.3058
 20
31.2979
 30
0.0
 10
-8.3058
 20
31.2979
 30
0.0
 10
-8.3058
 20
31.4376
 30
0.0
 10
-8.343
 20
31.5477
 30
0.0
 10
-8.4173
 20
31.6281
 30
0.0
 10
-8.4173
 20
31.6281
 30
0.0
 10
-8.4916
 20
31.7086
 30
0.0
 10
-8.5852
 20
31.7486
 30
0.0
 10
-8.6981
 20
31.7486
 30
0.0
 10
-8.6981
 20
31.7486
 30
0.0
 10
-8.8105
 20
31.7486
 30
0.0
 10
-8.9056
 20
31.7086
 30
0.0
 10
-8.9836
 20
31.6281
 30
0.0
 10
-8.9836
 20
31.6281
 30
0.0
 10
-9.0617
 20
31.5477
 30
0.0
 10
-9.1008
 20
31.4423
 30
0.0
 10
-9.1008
 20
31.3121
 30
0.0
  0
SPLINE
  5
71
330
1F
100
AcDbEntity
  8
DEFAULT_1
 62
   250
100
AcDbSpline
210
0.0
220
0.0
230
1.0
 70
    11
 71
     3
 72
    92
 73
    88
 74
     0
 42
0.0000000001
 43
0.0000000001
 40
0.0
 40
0.0
 40
0.0
 40
0.0
 40
0.0434782608695652
 40
0.0434782608695652
 40
0.0434782608695652
 40
0.0434782608695652
 40
0.0869565217391304
 40
0.0869565217391304
 40
0.0869565217391304
 40
0.0869565217391304
 40
0.1304347826086956
 40
0.1304347826086956
 40
0.1304347826086956
 40
0.1304347826086956
 40
0.1739130434782609
 40
0.1739130434782609
 40
0.1739130434782609
 40
0.1739130434782609
 40
0.2173913043478261
 40
0.2173913043478261
 40
0.2173913043478261
 40
0.2173913043478261
 40
0.2608695652173913
 40
0.2608695652173913
 40
0.2608695652173913
 40
0.2608695652173913
 40
0.3043478260869565
 40
0.3043478260869565
 40
0.3043478260869565
 40
0.3043478260869565
 40
0.3478260869565217
 40
0.3478260869565217
 40
0.3478260869565217
 40
0.3478260869565217
 40
0.391304347826087
 40
0.391304347826087
 40
0.391304347826087
 40
0.391304347826087
 40
0.4347826086956522
 40
0.4347826086956522
 40
0.4347826086956522
 40
0.4347826086956522
 40
0.4782608695652174
 40
0.4782608695652174
 40
0.4782608695652174
 40
0.4782608695652174
 40
0.5217391304347826
 40
0.5217391304347826
 40
0.5217391304347826
 40
0.5217391304347826
 40
0.5652173913043478
 40
0.5652173913043478
 40
0.5652173913043478
 40
0.5652173913043478
 40
0.6086956521739131
 40
0.6086956521739131
 40
0.6086956521739131
 40
0.6086956521739131
 40
0.6521739130434783
 40
0.6521739130434783
 40
0.6521739130434783
 40
0.6521739130434783
 40
0.6956521739130435
 40
0.6956521739130435
 40
0.6956521739130435
 40
0.6956521739130435
 40
0.7391304347826086
 40
0.7391304347826086
 40
0.7391304347826086
 40
0.7391304347826086
 40
0.782608695652174
 40
0.782608695652174
 40
0.782608695652174
 40
0.782608695652174
 40
0.8260869565217391
 40
0.8260869565217391
 40
0.8260869565217391
 40
0.8260869565217391
 40
0.8695652173913043
 40
0.8695652173913043
 40
0.8695652173913043
 40
0.8695652173913043
 40
0.9130434782608695
 40
0.9130434782608695
 40
0.9130434782608695
 40
0.9130434782608695
 40
1.0
 40
1.0
 40
1.0
 40
1.0
 10
-6.5015
 20
30.8958
 30
0.0
 10
-6.5015
 20
30.8958
 30
0.0
 10
-6.5015
 20
30.6573
 30
0.0
 10
-6.5015
 20
30.6573
 30
0.0
 10
-6.5015
 20
30.6573
 30
0.0
 10
-6.5015
 20
30.6573
 30
0.0
 10
-7.8369
 20
30.6573
 30
0.0
 10
-7.8369
 20
30.6573
 30
0.0
 10
-7.8369
 20
30.6573
 30
0.0
 10
-7.8388
 20
30.717
 30
0.0
 10
-7.8294
 20
30.7744
 30
0.0
 10
-7.8082
 20
30.8295
 30
0.0
 10
-7.8082
 20
30.8295
 30
0.0
 10
-7.7743
 20
30.9207
 30
0.0
 10
-7.7198
 20
31.0101
 30
0.0
 10
-7.645
 20
31.0985
 30
0.0
 10
-7.645
 20
31.0985
 30
0.0
 10
-7.5697
 20
31.1865
 30
0.0
 10
-7.4615
 20
31.2885
 30
0.0
 10
-7.3204
 20
31.4042
 30
0.0
 10
-7.3204
 20
31.4042
 30
0.0
 10
-7.1008
 20
31.5844
 30
0.0
 10
-6.9521
 20
31.7269
 30
0.0
 10
-6.875
 20
31.8323
 30
0.0
 10
-6.875
 20
31.8323
 30
0.0
 10
-6.7979
 20
31.9372
 30
0.0
 10
-6.7593
 20
32.0369
 30
0.0
 10
-6.7593
 20
32.1305
 30
0.0
 10
-6.7593
 20
32.1305
 30
0.0
 10
-6.7593
 20
32.2288
 30
0.0
 10
-6.7946
 20
32.3116
 30
0.0
 10
-6.8646
 20
32.3793
 30
0.0
 10
-6.8646
 20
32.3793
 30
0.0
 10
-6.9352
 20
32.4466
 30
0.0
 10
-7.0269
 20
32.4804
 30
0.0
 10
-7.1398
 20
32.4804
 30
0.0
 10
-7.1398
 20
32.4804
 30
0.0
 10
-7.2593
 20
32.4804
 30
0.0
 10
-7.3548
 20
32.4447
 30
0.0
 10
-7.4263
 20
32.3727
 30
0.0
 10
-7.4263
 20
32.3727
 30
0.0
 10
-7.4982
 20
32.3012
 30
0.0
 10
-7.5344
 20
32.202
 30
0.0
 10
-7.5354
 20
32.0755
 30
0.0
 10
-7.5354
 20
32.0755
 30
0.0
 10
-7.5354
 20
32.0755
 30
0.0
 10
-7.7903
 20
32.1013
 30
0.0
 10
-7.7903
 20
32.1013
 30
0.0
 10
-7.7903
 20
32.1013
 30
0.0
 10
-7.7729
 20
32.2918
 30
0.0
 10
-7.7071
 20
32.4367
 30
0.0
 10
-7.5932
 20
32.5364
 30
0.0
 10
-7.5932
 20
32.5364
 30
0.0
 10
-7.4794
 20
32.6361
 30
0.0
 10
-7.3261
 20
32.686
 30
0.0
 10
-7.1342
 20
32.686
 30
0.0
 10
-7.1342
 20
32.686
 30
0.0
 10
-6.9404
 20
32.686
 30
0.0
 10
-6.787
 20
32.6319
 30
0.0
 10
-6.6741
 20
32.5247
 30
0.0
 10
-6.6741
 20
32.5247
 30
0.0
 10
-6.5608
 20
32.4169
 30
0.0
 10
-6.5043
 20
32.2838
 30
0.0
 10
-6.5043
 20
32.1248
 30
0.0
 10
-6.5043
 20
32.1248
 30
0.0
 10
-6.5043
 20
32.0439
 30
0.0
 10
-6.5208
 20
31.9644
 30
0.0
 10
-6.5542
 20
31.8864
 30
0.0
 10
-6.5542
 20
31.8864
 30
0.0
 10
-6.5871
 20
31.8083
 30
0.0
 10
-6.6422
 20
31.726
 30
0.0
 10
-6.7188
 20
31.6399
 30
0.0
 10
-6.7188
 20
31.6399
 30
0.0
 10
-6.7955
 20
31.5533
 30
0.0
 10
-6.923
 20
31.4348
 30
0.0
 10
-7.1012
 20
31.2843
 30
0.0
 10
-7.1012
 20
31.2843
 30
0.0
 10
-7.2499
 20
31.1592
 30
0.0
 10
-7.3454
 20
31.0745
 30
0.0
 10
-7.3877
 20
31.0298
 30
0.0
 10
-7.3877
 20
31.0298
 30
0.0
 10
-7.43
 20
30.9856
 30
0.0
 10
-7.4648
 20
30.9409
 30
0.0
 10
-7.4926
 20
30.8958
 30
0.0
 10
-7.4926
 20
30.8958
 30
0.0
 10
-7.4926
 20
30.8958
 30
0.0
 10
-6.5015
 20
30.8958
 30
0.0
 10
-6.5015
 20
30.8958
 30
0.0
  0
SPLINE
  5
72
330
1F
100
AcDbEntity
  8
DEFAULT_1
 62
   250
100
AcDbSpline
210
0.0
220
0.0
230
1.0
 70
    11
 71
     3
 72
    24
 73
    20
 74
     0
 42
0.0000000001
 43
0.0000000001
 40
0.0
 40
0.0
 40
0.0
 40
0.0
 40
0.1666666666666667
 40
0.1666666666666667
 40
0.1666666666666667
 40
0.1666666666666667
 40
0.3333333333333333
 40
0.3333333333333333
 40
0.3333333333333333
 40
0.3333333333333333
 40
0.5
 40
0.5
 40
0.5
 40
0.5
 40
0.6666666666666666
 40
0.6666666666666666
 40
0.6666666666666666
 40
0.6666666666666666
 40
1.0
 40
1.0
 40
1.0
 40
1.0
 10
19.0129
 20
-25.0481
 30
0.0
 10
19.0129
 20
-25.0481
 30
0.0
 10
19.0096
 20
-24.4917
 30
0.0
 10
19.0096
 20
-24.4917
 30
0.0
 10
19.0096
 20
-24.4917
 30
0.0
 10
19.0096
 20
-24.4917
 30
0.0
 10
25.7941
 20
-24.469
 30
0.0
 10
25.7941
 20
-24.469
 30
0.0
 10
25.7941
 20
-24.469
 30
0.0
 10
25.7941
 20
-24.469
 30
0.0
 10
26.0825
 20
-24.4681
 30
0.0
 10
26.0825
 20
-24.4681
 30
0.0
 10
26.0825
 20
-24.4681
 30
0.0
 10
26.0825
 20
-24.4681
 30
0.0
 10
26.0894
 20
-25.0481
 30
0.0
 10
26.0894
 20
-25.0481
 30
0.0
 10
26.0894
 20
-25.0481
 30
0.0
 10
26.0894
 20
-25.0481
 30
0.0
 10
19.0129
 20
-25.0481
 30
0.0
 10
19.0129
 20
-25.0481
 30
0.0
  0
SPLINE
  5
73
330
1F
100
AcDbEntity
  8
DEFAULT_1
 62
   250
100
AcDbSpline
210
0.0
220
0.0
230
1.0
 70
    11
 71
     3
 72
   140
 73
   136
 74
     0
 42
0.0000000001
 43
0.0000000001
 40
0.0
 40
0.0
 40
0.0
 40
0.0
 40
0.0285714285714286
 40
0.0285714285714286
 40
0.0285714285714286
 40
0.0285714285714286
 40
0.0571428571428571
 40
0.0571428571428571
 40
0.0571428571428571
 40
0.0571428571428571
 40
0.0857142857142857
 40
0.0857142857142857
 40
0.0857142857142857
 40
0.0857142857142857
 40
0.1142857142857143
 40
0.1142857142857143
 40
0.1142857142857143
 40
0.1142857142857143
 40
0.1428571428571428
 40
0.1428571428571428
 40
0.1428571428571428
 40
0.1428571428571428
 40
0.1714285714285714
 40
0.1714285714285714
 40
0.1714285714285714
 40
0.1714285714285714
 40
0.2
 40
0.2
 40
0.2
 40
0.2
 40
0.2285714285714286
 40
0.2285714285714286
 40
0.2285714285714286
 40
0.2285714285714286
 40
0.2571428571428571
 40
0.2571428571428571
 40
0.2571428571428571
 40
0.2571428571428571
 40
0.2857142857142857
 40
0.2857142857142857
 40
0.2857142857142857
 40
0.2857142857142857
 40
0.3142857142857143
 40
0.3142857142857143
 40
0.3142857142857143
 40
0.3142857142857143
 40
0.3428571428571429
 40
0.3428571428571429
 40
0.3428571428571429
 40
0.3428571428571429
 40
0.3714285714285714
 40
0.3714285714285714
 40
0.3714285714285714
 40
0.3714285714285714
 40
0.4
 40
0.4
 40
0.4
 40
0.4
 40
0.4285714285714285
 40
0.4285714285714285
 40
0.4285714285714285
 40
0.4285714285714285
 40
0.4571428571428571
 40
0.4571428571428571
 40
0.4571428571428571
 40
0.4571428571428571
 40
0.4857142857142857
 40
0.4857142857142857
 40
0.4857142857142857
 40
0.4857142857142857
 40
0.5142857142857142
 40
0.5142857142857142
 40
0.5142857142857142
 40
0.5142857142857142
 40
0.5428571428571428
 40
0.5428571428571428
 40
0.5428571428571428
 40
0.5428571428571428
 40
0.5714285714285714
 40
0.5714285714285714
 40
0.5714285714285714
 40
0.5714285714285714
 40
0.6
 40
0.6
 40
0.6
 40
0.6
 40
0.6285714285714286
 40
0.6285714285714286
 40
0.6285714285714286
 40
0.6285714285714286
 40
0.6571428571428571
 40
0.6571428571428571
 40
0.6571428571428571
 40
0.6571428571428571
 40
0.6857142857142857
 40
0.6857142857142857
 40
0.6857142857142857
 40
0.6857142857142857
 40
0.7142857142857143
 40
0.7142857142857143
 40
0.7142857142857143
 40
0.7142857142857143
 40
0.7428571428571429
 40
0.7428571428571429
 40
0.7428571428571429
 40
0.7428571428571429
 40
0.7714285714285715
 40
0.7714285714285715
 40
0.7714285714285715
 40
0.7714285714285715
 40
0.8
 40
0.8
 40
0.8
 40
0.8
 40
0.8285714285714286
 40
0.8285714285714286
 40
0.8285714285714286
 40
0.8285714285714286
 40
0.8571428571428571
 40
0.8571428571428571
 40
0.8571428571428571
 40
0.8571428571428571
 40
0.8857142857142857
 40
0.8857142857142857
 40
0.8857142857142857
 40
0.8857142857142857
 40
0.9142857142857143
 40
0.9142857142857143
 40
0.9142857142857143
 40
0.9142857142857143
 40
0.9428571428571428
 40
0.9428571428571428
 40
0.9428571428571428
 40
0.9428571428571428
 40
1.0
 40
1.0
 40
1.0
 40
1.0
 10
18.7495
 20
-9.4266
 30
0.0
 10
18.7495
 20
-9.4266
 30
0.0
 10
18.7842
 20
-9.3964
 30
0.0
 10
18.7842
 20
-9.3964
 30
0.0
 10
18.7842
 20
-9.3964
 30
0.0
 10
18.7842
 20
-9.3964
 30
0.0
 10
18.89
 20
-9.3038
 30
0.0
 10
18.89
 20
-9.3038
 30
0.0
 10
18.89
 20
-9.3038
 30
0.0
 10
18.89
 20
-9.3038
 30
0.0
 10
19.0579
 20
-9.1584
 30
0.0
 10
19.0579
 20
-9.1584
 30
0.0
 10
19.0579
 20
-9.1584
 30
0.0
 10
19.0579
 20
-9.1584
 30
0.0
 10
19.2731
 20
-8.9749
 30
0.0
 10
19.2731
 20
-8.9749
 30
0.0
 10
19.2731
 20
-8.9749
 30
0.0
 10
19.2731
 20
-8.9749
 30
0.0
 10
19.5125
 20
-8.775
 30
0.0
 10
19.5125
 20
-8.775
 30
0.0
 10
19.5125
 20
-8.775
 30
0.0
 10
19.5125
 20
-8.775
 30
0.0
 10
19.7559
 20
-8.5762
 30
0.0
 10
19.7559
 20
-8.5762
 30
0.0
 10
19.7559
 20
-8.5762
 30
0.0
 10
19.7559
 20
-8.5762
 30
0.0
 10
19.9913
 20
-8.39
 30
0.0
 10
19.9913
 20
-8.39
 30
0.0
 10
19.9913
 20
-8.39
 30
0.0
 10
19.9913
 20
-8.39
 30
0.0
 10
20.214
 20
-8.22
 30
0.0
 10
20.214
 20
-8.22
 30
0.0
 10
20.214
 20
-8.22
 30
0.0
 10
20.214
 20
-8.22
 30
0.0
 10
20.4218
 20
-8.0676
 30
0.0
 10
20.4218
 20
-8.0676
 30
0.0
 10
20.4218
 20
-8.0676
 30
0.0
 10
20.4218
 20
-8.0676
 30
0.0
 10
20.6154
 20
-7.9321
 30
0.0
 10
20.6154
 20
-7.9321
 30
0.0
 10
20.6154
 20
-7.9321
 30
0.0
 10
20.6154
 20
-7.9321
 30
0.0
 10
20.7976
 20
-7.8109
 30
0.0
 10
20.7976
 20
-7.8109
 30
0.0
 10
20.7976
 20
-7.8109
 30
0.0
 10
20.7976
 20
-7.8109
 30
0.0
 10
20.9704
 20
-7.7023
 30
0.0
 10
20.9704
 20
-7.7023
 30
0.0
 10
20.9704
 20
-7.7023
 30
0.0
 10
20.9704
 20
-7.7023
 30
0.0
 10
21.1383
 20
-7.6042
 30
0.0
 10
21.1383
 20
-7.6042
 30
0.0
 10
21.1383
 20
-7.6042
 30
0.0
 10
21.1383
 20
-7.6042
 30
0.0
 10
21.305
 20
-7.514
 30
0.0
 10
21.305
 20
-7.514
 30
0.0
 10
21.305
 20
-7.514
 30
0.0
 10
21.305
 20
-7.514
 30
0.0
 10
21.4758
 20
-7.4305
 30
0.0
 10
21.4758
 20
-7.4305
 30
0.0
 10
21.4758
 20
-7.4305
 30
0.0
 10
21.4758
 20
-7.4305
 30
0.0
 10
21.6529
 20
-7.3543
 30
0.0
 10
21.6529
 20
-7.3543
 30
0.0
 10
21.6529
 20
-7.3543
 30
0.0
 10
21.6529
 20
-7.3543
 30
0.0
 10
21.8362
 20
-7.2878
 30
0.0
 10
21.8362
 20
-7.2878
 30
0.0
 10
21.8362
 20
-7.2878
 30
0.0
 10
21.8362
 20
-7.2878
 30
0.0
 10
22.0243
 20
-7.234
 30
0.0
 10
22.0243
 20
-7.234
 30
0.0
 10
22.0243
 20
-7.234
 30
0.0
 10
22.0243
 20
-7.234
 30
0.0
 10
23.2028
 20
-6.9701
 30
0.0
 10
23.2028
 20
-6.9701
 30
0.0
 10
23.2028
 20
-6.9701
 30
0.0
 10
23.2028
 20
-6.9701
 30
0.0
 10
24.6585
 20
-6.462
 30
0.0
 10
24.6585
 20
-6.462
 30
0.0
 10
24.6585
 20
-6.462
 30
0.0
 10
24.6585
 20
-6.462
 30
0.0
 10
25.5472
 20
-6.0264
 30
0.0
 10
25.5472
 20
-6.0264
 30
0.0
 10
25.5472
 20
-6.0264
 30
0.0
 10
25.5472
 20
-6.0264
 30
0.0
 10
26.1553
 20
-5.6156
 30
0.0
 10
26.1553
 20
-5.6156
 30
0.0
 10
26.1553
 20
-5.6156
 30
0.0
 10
26.1553
 20
-5.6156
 30
0.0
 10
26.3531
 20
-5.3922
 30
0.0
 10
26.3531
 20
-5.3922
 30
0.0
 10
26.3531
 20
-5.3922
 30
0.0
 10
26.3531
 20
-5.3922
 30
0.0
 10
26.4054
 20
-5.3332
 30
0.0
 10
26.4054
 20
-5.3332
 30
0.0
 10
26.4054
 20
-5.3332
 30
0.0
 10
26.4054
 20
-5.3332
 30
0.0
 10
26.2678
 20
-4.1735
 30
0.0
 10
26.2678
 20
-4.1735
 30
0.0
 10
26.2678
 20
-4.1735
 30
0.0
 10
26.2678
 20
-4.1735
 30
0.0
 10
25.8435
 20
-3.0618
 30
0.0
 10
25.8435
 20
-3.0618
 30
0.0
 10
25.8435
 20
-3.0618
 30
0.0
 10
25.8435
 20
-3.0618
 30
0.0
 10
25.1882
 20
-2.1624
 30
0.0
 10
25.1882
 20
-2.1624
 30
0.0
 10
25.1882
 20
-2.1624
 30
0.0
 10
25.1882
 20
-2.1624
 30
0.0
 10
24.4705
 20
-1.4961
 30
0.0
 10
24.4705
 20
-1.4961
 30
0.0
 10
24.4705
 20
-1.4961
 30
0.0
 10
24.4705
 20
-1.4961
 30
0.0
 10
23.4641
 20
-0.977
 30
0.0
 10
23.4641
 20
-0.977
 30
0.0
 10
23.4641
 20
-0.977
 30
0.0
 10
23.4641
 20
-0.977
 30
0.0
 10
22.8074
 20
-0.8261
 30
0.0
 10
22.8074
 20
-0.8261
 30
0.0
 10
22.8074
 20
-0.8261
 30
0.0
 10
22.8074
 20
-0.8261
 30
0.0
 10
16.7101
 20
-0.8143
 30
0.0
 10
16.7101
 20
-0.8143
 30
0.0
 10
16.7101
 20
-0.8143
 30
0.0
 10
16.7101
 20
-0.8143
 30
0.0
 10
16.711
 20
-0.9573
 30
0.0
 10
16.711
 20
-0.9573
 30
0.0
 10
16.711
 20
-0.9573
 30
0.0
 10
16.711
 20
-0.9573
 30
0.0
 10
16.7756
 20
-9.4898
 30
0.0
 10
16.7756
 20
-9.4898
 30
0.0
 10
16.7756
 20
-9.4898
 30
0.0
 10
16.7756
 20
-9.4898
 30
0.0
 10
18.7495
 20
-9.4266
 30
0.0
 10
18.7495
 20
-9.4266
 30
0.0
  0
SPLINE
  5
74
330
1F
100
AcDbEntity
  8
DEFAULT_1
 62
   250
100
AcDbSpline
210
0.0
220
0.0
230
1.0
 70
    11
 71
     3
 72
    44
 73
    40
 74
     0
 42
0.0000000001
 43
0.0000000001
 40
0.0
 40
0.0
 40
0.0
 40
0.0
 40
0.0909090909090909
 40
0.0909090909090909
 40
0.0909090909090909
 40
0.0909090909090909
 40
0.1818181818181818
 40
0.1818181818181818
 40
0.1818181818181818
 40
0.1818181818181818
 40
0.2727272727272727
 40
0.2727272727272727
 40
0.2727272727272727
 40
0.2727272727272727
 40
0.3636363636363636
 40
0.3636363636363636
 40
0.3636363636363636
 40
0.3636363636363636
 40
0.4545454545454545
 40
0.4545454545454545
 40
0.4545454545454545
 40
0.4545454545454545
 40
0.5454545454545454
 40
0.5454545454545454
 40
0.5454545454545454
 40
0.5454545454545454
 40
0.6363636363636364
 40
0.6363636363636364
 40
0.6363636363636364
 40
0.6363636363636364
 40
0.7272727272727273
 40
0.7272727272727273
 40
0.7272727272727273
 40
0.7272727272727273
 40
0.8181818181818182
 40
0.8181818181818182
 40
0.8181818181818182
 40
0.8181818181818182
 40
1.0
 40
1.0
 40
1.0
 40
1.0
 10
18.3916
 20
-13.5673
 30
0.0
 10
18.3916
 20
-13.5673
 30
0.0
 10
18.7833
 20
-13.5674
 30
0.0
 10
18.7833
 20
-13.5674
 30
0.0
 10
18.7833
 20
-13.5674
 30
0.0
 10
18.7833
 20
-13.5674
 30
0.0
 10
18.2419
 20
-11.0235
 30
0.0
 10
18.2419
 20
-11.0235
 30
0.0
 10
18.2419
 20
-11.0235
 30
0.0
 10
18.2419
 20
-11.0235
 30
0.0
 10
18.7833
 20
-13.5674
 30
0.0
 10
18.7833
 20
-13.5674
 30
0.0
 10
18.7833
 20
-13.5674
 30
0.0
 10
18.7833
 20
-13.5674
 30
0.0
 10
26.3192
 20
-13.5674
 30
0.0
 10
26.3192
 20
-13.5674
 30
0.0
 10
26.3192
 20
-13.5674
 30
0.0
 10
26.3192
 20
-13.5674
 30
0.0
 10
26.8606
 20
-11.0233
 30
0.0
 10
26.8606
 20
-11.0233
 30
0.0
 10
26.8606
 20
-11.0233
 30
0.0
 10
26.8606
 20
-11.0233
 30
0.0
 10
26.3192
 20
-13.5674
 30
0.0
 10
26.3192
 20
-13.5674
 30
0.0
 10
26.3192
 20
-13.5674
 30
0.0
 10
26.3192
 20
-13.5674
 30
0.0
 10
26.711
 20
-13.5673
 30
0.0
 10
26.711
 20
-13.5673
 30
0.0
 10
26.711
 20
-13.5673
 30
0.0
 10
26.711
 20
-13.5673
 30
0.0
 10
26.3192
 20
-13.5674
 30
0.0
 10
26.3192
 20
-13.5674
 30
0.0
 10
26.3192
 20
-13.5674
 30
0.0
 10
26.3192
 20
-13.5674
 30
0.0
 10
18.7833
 20
-13.5674
 30
0.0
 10
18.7833
 20
-13.5674
 30
0.0
 10
18.7833
 20
-13.5674
 30
0.0
 10
18.7833
 20
-13.5674
 30
0.0
 10
18.3916
 20
-13.5673
 30
0.0
 10
18.3916
 20
-13.5673
 30
0.0
  0
SPLINE
  5
75
330
1F
100
AcDbEntity
  8
DEFAULT_1
 62
   250
100
AcDbSpline
210
0.0
220
0.0
230
1.0
 70
    11
 71
     3
 72
    16
 73
    12
 74
     0
 42
0.0000000001
 43
0.0000000001
 40
0.0
 40
0.0
 40
0.0
 40
0.0
 40
0.25
 40
0.25
 40
0.25
 40
0.25
 40
0.5
 40
0.5
 40
0.5
 40
0.5
 40
1.0
 40
1.0
 40
1.0
 40
1.0
 10
16.7546
 20
-0.9573
 30
0.0
 10
16.7546
 20
-0.9573
 30
0.0
 10
16.711
 20
-0.9573
 30
0.0
 10
16.711
 20
-0.9573
 30
0.0
 10
16.711
 20
-0.9573
 30
0.0
 10
16.711
 20
-0.9573
 30
0.0
 10
16.0018
 20
-0.9574
 30
0.0
 10
16.0018
 20
-0.9574
 30
0.0
 10
16.0018
 20
-0.9574
 30
0.0
 10
16.0018
 20
-0.9574
 30
0.0
 10
16.7546
 20
-0.9573
 30
0.0
 10
16.7546
 20
-0.9573
 30
0.0
  0
SPLINE
  5
76
330
1F
100
AcDbEntity
  8
DEFAULT_1
 62
   250
100
AcDbSpline
210
0.0
220
0.0
230
1.0
 70
    11
 71
     3
 72
    28
 73
    24
 74
     0
 42
0.0000000001
 43
0.0000000001
 40
0.0
 40
0.0
 40
0.0
 40
0.0
 40
0.1428571428571428
 40
0.1428571428571428
 40
0.1428571428571428
 40
0.1428571428571428
 40
0.2857142857142857
 40
0.2857142857142857
 40
0.2857142857142857
 40
0.2857142857142857
 40
0.4285714285714285
 40
0.4285714285714285
 40
0.4285714285714285
 40
0.4285714285714285
 40
0.5714285714285714
 40
0.5714285714285714
 40
0.5714285714285714
 40
0.5714285714285714
 40
0.7142857142857143
 40
0.7142857142857143
 40
0.7142857142857143
 40
0.7142857142857143
 40
1.0
 40
1.0
 40
1.0
 40
1.0
 10
26.3532
 20
-10.9322
 30
0.0
 10
26.3532
 20
-10.9322
 30
0.0
 10
26.3531
 20
-5.3922
 30
0.0
 10
26.3531
 20
-5.3922
 30
0.0
 10
26.3531
 20
-5.3922
 30
0.0
 10
26.3531
 20
-5.3922
 30
0.0
 10
26.3531
 20
-5.0978
 30
0.0
 10
26.3531
 20
-5.0978
 30
0.0
 10
26.3531
 20
-5.0978
 30
0.0
 10
26.3531
 20
-5.0978
 30
0.0
 10
26.3531
 20
-5.3922
 30
0.0
 10
26.3531
 20
-5.3922
 30
0.0
 10
26.3531
 20
-5.3922
 30
0.0
 10
26.3531
 20
-5.3922
 30
0.0
 10
26.3532
 20
-10.9322
 30
0.0
 10
26.3532
 20
-10.9322
 30
0.0
 10
26.3532
 20
-10.9322
 30
0.0
 10
26.3532
 20
-10.9322
 30
0.0
 10
26.787
 20
-10.9322
 30
0.0
 10
26.787
 20
-10.9322
 30
0.0
 10
26.787
 20
-10.9322
 30
0.0
 10
26.787
 20
-10.9322
 30
0.0
 10
26.3532
 20
-10.9322
 30
0.0
 10
26.3532
 20
-10.9322
 30
0.0
  0
SPLINE
  5
77
330
1F
100
AcDbEntity
  8
DEFAULT_1
 62
   250
100
AcDbSpline
210
0.0
220
0.0
230
1.0
 70
    27
 71
     3
 72
    12
 73
     8
 74
     0
 42
0.0000000001
 43
0.0000000001
 40
0.0
 40
0.0
 40
0.0
 40
0.0
 40
0.3333333333333333
 40
0.3333333333333333
 40
0.3333333333333333
 40
0.3333333333333333
 40
1.0
 40
1.0
 40
1.0
 40
1.0
 10
18.7495
 20
-10.9323
 30
0.0
 10
18.7495
 20
-10.9323
 30
0.0
 10
18.7495
 20
-9.4266
 30
0.0
 10
18.7495
 20
-9.4266
 30
0.0
 10
18.7495
 20
-9.4266
 30
0.0
 10
18.7495
 20
-9.4266
 30
0.0
 10
18.7495
 20
-10.9323
 30
0.0
 10
18.7495
 20
-10.9323
 30
0.0
  0
SPLINE
  5
78
330
1F
100
AcDbEntity
  8
DEFAULT_1
 62
   250
100
AcDbSpline
210
0.0
220
0.0
230
1.0
 70
    27
 71
     3
 72
    12
 73
     8
 74
     0
 42
0.0000000001
 43
0.0000000001
 40
0.0
 40
0.0
 40
0.0
 40
0.0
 40
0.3333333333333333
 40
0.3333333333333333
 40
0.3333333333333333
 40
0.3333333333333333
 40
1.0
 40
1.0
 40
1.0
 40
1.0
 10
16.7545
 20
-9.2387
 30
0.0
 10
16.7545
 20
-9.2387
 30
0.0
 10
16.0017
 20
-9.2385
 30
0.0
 10
16.0017
 20
-9.2385
 30
0.0
 10
16.0017
 20
-9.2385
 30
0.0
 10
16.0017
 20
-9.2385
 30
0.0
 10
16.7545
 20
-9.2387
 30
0.0
 10
16.7545
 20
-9.2387
 30
0.0
  0
SPLINE
  5
79
330
1F
100
AcDbEntity
  8
DEFAULT_1
 62
   250
100
AcDbSpline
210
0.0
220
0.0
230
1.0
 70
    11
 71
     3
 72
    68
 73
    64
 74
     0
 42
0.0000000001
 43
0.0000000001
 40
0.0
 40
0.0
 40
0.0
 40
0.0
 40
0.0588235294117647
 40
0.0588235294117647
 40
0.0588235294117647
 40
0.0588235294117647
 40
0.1176470588235294
 40
0.1176470588235294
 40
0.1176470588235294
 40
0.1176470588235294
 40
0.1764705882352941
 40
0.1764705882352941
 40
0.1764705882352941
 40
0.1764705882352941
 40
0.2352941176470588
 40
0.2352941176470588
 40
0.2352941176470588
 40
0.2352941176470588
 40
0.2941176470588235
 40
0.2941176470588235
 40
0.2941176470588235
 40
0.2941176470588235
 40
0.3529411764705883
 40
0.3529411764705883
 40
0.3529411764705883
 40
0.3529411764705883
 40
0.4117647058823529
 40
0.4117647058823529
 40
0.4117647058823529
 40
0.4117647058823529
 40
0.4705882352941176
 40
0.4705882352941176
 40
0.4705882352941176
 40
0.4705882352941176
 40
0.5294117647058824
 40
0.5294117647058824
 40
0.5294117647058824
 40
0.5294117647058824
 40
0.5882352941176471
 40
0.5882352941176471
 40
0.5882352941176471
 40
0.5882352941176471
 40
0.6470588235294118
 40
0.6470588235294118
 40
0.6470588235294118
 40
0.6470588235294118
 40
0.7058823529411765
 40
0.7058823529411765
 40
0.7058823529411765
 40
0.7058823529411765
 40
0.7647058823529411
 40
0.7647058823529411
 40
0.7647058823529411
 40
0.7647058823529411
 40
0.8235294117647058
 40
0.8235294117647058
 40
0.8235294117647058
 40
0.8235294117647058
 40
0.8823529411764706
 40
0.8823529411764706
 40
0.8823529411764706
 40
0.8823529411764706
 40
1.0
 40
1.0
 40
1.0
 40
1.0
 10
25.7932
 20
-24.492
 30
0.0
 10
25.7932
 20
-24.492
 30
0.0
 10
25.7941
 20
-24.469
 30
0.0
 10
25.7941
 20
-24.469
 30
0.0
 10
25.7941
 20
-24.469
 30
0.0
 10
25.7941
 20
-24.469
 30
0.0
 10
25.9013
 20
-21.4719
 30
0.0
 10
25.9013
 20
-21.4719
 30
0.0
 10
25.9013
 20
-21.4719
 30
0.0
 10
25.9013
 20
-21.4719
 30
0.0
 10
25.8487
 20
-21.472
 30
0.0
 10
25.8487
 20
-21.472
 30
0.0
 10
25.8487
 20
-21.472
 30
0.0
 10
25.8487
 20
-21.472
 30
0.0
 10
26.1271
 20
-18.8371
 30
0.0
 10
26.1271
 20
-18.8371
 30
0.0
 10
26.1271
 20
-18.8371
 30
0.0
 10
26.1271
 20
-18.8371
 30
0.0
 10
25.9426
 20
-18.8371
 30
0.0
 10
25.9426
 20
-18.8371
 30
0.0
 10
25.9426
 20
-18.8371
 30
0.0
 10
25.9426
 20
-18.8371
 30
0.0
 10
26.4093
 20
-16.2022
 30
0.0
 10
26.4093
 20
-16.2022
 30
0.0
 10
26.4093
 20
-16.2022
 30
0.0
 10
26.4093
 20
-16.2022
 30
0.0
 10
26.2213
 20
-16.2022
 30
0.0
 10
26.2213
 20
-16.2022
 30
0.0
 10
26.2213
 20
-16.2022
 30
0.0
 10
26.2213
 20
-16.2022
 30
0.0
 10
26.7845
 20
-13.6587
 30
0.0
 10
26.7845
 20
-13.6587
 30
0.0
 10
26.7845
 20
-13.6587
 30
0.0
 10
26.7845
 20
-13.6587
 30
0.0
 10
26.2213
 20
-16.2022
 30
0.0
 10
26.2213
 20
-16.2022
 30
0.0
 10
26.2213
 20
-16.2022
 30
0.0
 10
26.2213
 20
-16.2022
 30
0.0
 10
26.4093
 20
-16.2022
 30
0.0
 10
26.4093
 20
-16.2022
 30
0.0
 10
26.4093
 20
-16.2022
 30
0.0
 10
26.4093
 20
-16.2022
 30
0.0
 10
25.9426
 20
-18.8371
 30
0.0
 10
25.9426
 20
-18.8371
 30
0.0
 10
25.9426
 20
-18.8371
 30
0.0
 10
25.9426
 20
-18.8371
 30
0.0
 10
26.1271
 20
-18.8371
 30
0.0
 10
26.1271
 20
-18.8371
 30
0.0
 10
26.1271
 20
-18.8371
 30
0.0
 10
26.1271
 20
-18.8371
 30
0.0
 10
25.8487
 20
-21.472
 30
0.0
 10
25.8487
 20
-21.472
 30
0.0
 10
25.8487
 20
-21.472
 30
0.0
 10
25.8487
 20
-21.472
 30
0.0
 10
25.9013
 20
-21.4719
 30
0.0
 10
25.9013
 20
-21.4719
 30
0.0
 10
25.9013
 20
-21.4719
 30
0.0
 10
25.9013
 20
-21.4719
 30
0.0
 10
25.7941
 20
-24.469
 30
0.0
 10
25.7941
 20
-24.469
 30
0.0
 10
25.7941
 20
-24.469
 30
0.0
 10
25.7941
 20
-24.469
 30
0.0
 10
25.7932
 20
-24.492
 30
0.0
 10
25.7932
 20
-24.492
 30
0.0
  0
SPLINE
  5
7A
330
1F
100
AcDbEntity
  8
DEFAULT_1
 62
   250
100
AcDbSpline
210
0.0
220
0.0
230
1.0
 70
    27
 71
     3
 72
    12
 73
     8
 74
     0
 42
0.0000000001
 43
0.0000000001
 40
0.0
 40
0.0
 40
0.0
 40
0.0
 40
0.3333333333333333
 40
0.3333333333333333
 40
0.3333333333333333
 40
0.3333333333333333
 40
1.0
 40
1.0
 40
1.0
 40
1.0
 10
18.3154
 20
-10.9325
 30
0.0
 10
18.3154
 20
-10.9325
 30
0.0
 10
26.3532
 20
-10.9322
 30
0.0
 10
26.3532
 20
-10.9322
 30
0.0
 10
26.3532
 20
-10.9322
 30
0.0
 10
26.3532
 20
-10.9322
 30
0.0
 10
18.3154
 20
-10.9325
 30
0.0
 10
18.3154
 20
-10.9325
 30
0.0
  0
SPLINE
  5
7B
330
1F
100
AcDbEntity
  8
DEFAULT_1
 62
   250
100
AcDbSpline
210
0.0
220
0.0
230
1.0
 70
    11
 71
     3
 72
    20
 73
    16
 74
     0
 42
0.0000000001
 43
0.0000000001
 40
0.0
 40
0.0
 40
0.0
 40
0.0
 40
0.2
 40
0.2
 40
0.2
 40
0.2
 40
0.4
 40
0.4
 40
0.4
 40
0.4
 40
0.6
 40
0.6
 40
0.6
 40
0.6
 40
1.0
 40
1.0
 40
1.0
 40
1.0
 10
18.8811
 20
-16.2024
 30
0.0
 10
18.8811
 20
-16.2024
 30
0.0
 10
18.3179
 20
-13.6588
 30
0.0
 10
18.3179
 20
-13.6588
 30
0.0
 10
18.3179
 20
-13.6588
 30
0.0
 10
18.3179
 20
-13.6588
 30
0.0
 10
18.8811
 20
-16.2024
 30
0.0
 10
18.8811
 20
-16.2024
 30
0.0
 10
18.8811
 20
-16.2024
 30
0.0
 10
18.8811
 20
-16.2024
 30
0.0
 10
26.2213
 20
-16.2022
 30
0.0
 10
26.2213
 20
-16.2022
 30
0.0
 10
26.2213
 20
-16.2022
 30
0.0
 10
26.2213
 20
-16.2022
 30
0.0
 10
18.8811
 20
-16.2024
 30
0.0
 10
18.8811
 20
-16.2024
 30
0.0
  0
SPLINE
  5
7C
330
1F
100
AcDbEntity
  8
DEFAULT_1
 62
   250
100
AcDbSpline
210
0.0
220
0.0
230
1.0
 70
    11
 71
     3
 72
    20
 73
    16
 74
     0
 42
0.0000000001
 43
0.0000000001
 40
0.0
 40
0.0
 40
0.0
 40
0.0
 40
0.2
 40
0.2
 40
0.2
 40
0.2
 40
0.4
 40
0.4
 40
0.4
 40
0.4
 40
0.6
 40
0.6
 40
0.6
 40
0.6
 40
1.0
 40
1.0
 40
1.0
 40
1.0
 10
19.1598
 20
-18.837
 30
0.0
 10
19.1598
 20
-18.837
 30
0.0
 10
18.6928
 20
-16.2023
 30
0.0
 10
18.6928
 20
-16.2023
 30
0.0
 10
18.6928
 20
-16.2023
 30
0.0
 10
18.6928
 20
-16.2023
 30
0.0
 10
18.8811
 20
-16.2024
 30
0.0
 10
18.8811
 20
-16.2024
 30
0.0
 10
18.8811
 20
-16.2024
 30
0.0
 10
18.8811
 20
-16.2024
 30
0.0
 10
18.6928
 20
-16.2023
 30
0.0
 10
18.6928
 20
-16.2023
 30
0.0
 10
18.6928
 20
-16.2023
 30
0.0
 10
18.6928
 20
-16.2023
 30
0.0
 10
19.1598
 20
-18.837
 30
0.0
 10
19.1598
 20
-18.837
 30
0.0
  0
SPLINE
  5
7D
330
1F
100
AcDbEntity
  8
DEFAULT_1
 62
   250
100
AcDbSpline
210
0.0
220
0.0
230
1.0
 70
    11
 71
     3
 72
    20
 73
    16
 74
     0
 42
0.0000000001
 43
0.0000000001
 40
0.0
 40
0.0
 40
0.0
 40
0.0
 40
0.2
 40
0.2
 40
0.2
 40
0.2
 40
0.4
 40
0.4
 40
0.4
 40
0.4
 40
0.6
 40
0.6
 40
0.6
 40
0.6
 40
1.0
 40
1.0
 40
1.0
 40
1.0
 10
19.2539
 20
-21.4719
 30
0.0
 10
19.2539
 20
-21.4719
 30
0.0
 10
18.9752
 20
-18.837
 30
0.0
 10
18.9752
 20
-18.837
 30
0.0
 10
18.9752
 20
-18.837
 30
0.0
 10
18.9752
 20
-18.837
 30
0.0
 10
25.9426
 20
-18.8371
 30
0.0
 10
25.9426
 20
-18.8371
 30
0.0
 10
25.9426
 20
-18.8371
 30
0.0
 10
25.9426
 20
-18.8371
 30
0.0
 10
18.9752
 20
-18.837
 30
0.0
 10
18.9752
 20
-18.837
 30
0.0
 10
18.9752
 20
-18.837
 30
0.0
 10
18.9752
 20
-18.837
 30
0.0
 10
19.2539
 20
-21.4719
 30
0.0
 10
19.2539
 20
-21.4719
 30
0.0
  0
SPLINE
  5
7E
330
1F
100
AcDbEntity
  8
DEFAULT_1
 62
   250
100
AcDbSpline
210
0.0
220
0.0
230
1.0
 70
    11
 71
     3
 72
    20
 73
    16
 74
     0
 42
0.0000000001
 43
0.0000000001
 40
0.0
 40
0.0
 40
0.0
 40
0.0
 40
0.2
 40
0.2
 40
0.2
 40
0.2
 40
0.4
 40
0.4
 40
0.4
 40
0.4
 40
0.6
 40
0.6
 40
0.6
 40
0.6
 40
1.0
 40
1.0
 40
1.0
 40
1.0
 10
19.3061
 20
-24.4141
 30
0.0
 10
19.3061
 20
-24.4141
 30
0.0
 10
19.201
 20
-21.472
 30
0.0
 10
19.201
 20
-21.472
 30
0.0
 10
19.201
 20
-21.472
 30
0.0
 10
19.201
 20
-21.472
 30
0.0
 10
25.8487
 20
-21.472
 30
0.0
 10
25.8487
 20
-21.472
 30
0.0
 10
25.8487
 20
-21.472
 30
0.0
 10
25.8487
 20
-21.472
 30
0.0
 10
19.201
 20
-21.472
 30
0.0
 10
19.201
 20
-21.472
 30
0.0
 10
19.201
 20
-21.472
 30
0.0
 10
19.201
 20
-21.472
 30
0.0
 10
19.3061
 20
-24.4141
 30
0.0
 10
19.3061
 20
-24.4141
 30
0.0
  0
SPLINE
  5
7F
330
1F
100
AcDbEntity
  8
DEFAULT_1
 62
   250
100
AcDbSpline
210
0.0
220
0.0
230
1.0
 70
     8
 71
     3
 72
    48
 73
    44
 74
     0
 42
0.0000000001
 43
0.0000000001
 40
0.0
 40
0.0
 40
0.0
 40
0.0
 40
0.0833333333333333
 40
0.0833333333333333
 40
0.0833333333333333
 40
0.0833333333333333
 40
0.1666666666666667
 40
0.1666666666666667
 40
0.1666666666666667
 40
0.1666666666666667
 40
0.25
 40
0.25
 40
0.25
 40
0.25
 40
0.3333333333333333
 40
0.3333333333333333
 40
0.3333333333333333
 40
0.3333333333333333
 40
0.4166666666666667
 40
0.4166666666666667
 40
0.4166666666666667
 40
0.4166666666666667
 40
0.5
 40
0.5
 40
0.5
 40
0.5
 40
0.5833333333333334
 40
0.5833333333333334
 40
0.5833333333333334
 40
0.5833333333333334
 40
0.6666666666666666
 40
0.6666666666666666
 40
0.6666666666666666
 40
0.6666666666666666
 40
0.75
 40
0.75
 40
0.75
 40
0.75
 40
0.8333333333333334
 40
0.8333333333333334
 40
0.8333333333333334
 40
0.8333333333333334
 40
1.0
 40
1.0
 40
1.0
 40
1.0
 10
15.2489
 20
2.054
 30
0.0
 10
15.6647
 20
2.0539
 30
0.0
 10
16.0017
 20
1.7169
 30
0.0
 10
16.0016
 20
1.3011
 30
0.0
 10
16.0016
 20
1.3011
 30
0.0
 10
16.0016
 20
1.3011
 30
0.0
 10
15.9503
 20
-11.5649
 30
0.0
 10
15.9503
 20
-11.5649
 30
0.0
 10
15.9503
 20
-11.5649
 30
0.0
 10
15.9503
 20
-11.5649
 30
0.0
 10
15.885
 20
-11.8086
 30
0.0
 10
15.885
 20
-11.8086
 30
0.0
 10
15.885
 20
-11.8086
 30
0.0
 10
15.885
 20
-11.8086
 30
0.0
 10
15.743
 20
-11.9842
 30
0.0
 10
15.743
 20
-11.9842
 30
0.0
 10
15.743
 20
-11.9842
 30
0.0
 10
15.743
 20
-11.9842
 30
0.0
 10
15.4786
 20
-12.1746
 30
0.0
 10
15.4786
 20
-12.1746
 30
0.0
 10
15.4786
 20
-12.1746
 30
0.0
 10
15.4786
 20
-12.1746
 30
0.0
 10
15.34
 20
-12.1613
 30
0.0
 10
15.34
 20
-12.1613
 30
0.0
 10
15.34
 20
-12.1613
 30
0.0
 10
15.34
 20
-12.1613
 30
0.0
 10
15.4014
 20
-12.4628
 30
0.0
 10
15.4014
 20
-12.4628
 30
0.0
 10
15.4014
 20
-12.4628
 30
0.0
 10
15.4014
 20
-12.4628
 30
0.0
 10
9.6738
 20
-12.5194
 30
0.0
 10
9.6738
 20
-12.5194
 30
0.0
 10
9.6738
 20
-12.5194
 30
0.0
 10
9.6738
 20
-12.5194
 30
0.0
 10
9.6019
 20
2.2497
 30
0.0
 10
9.6019
 20
2.2497
 30
0.0
 10
9.6019
 20
2.2497
 30
0.0
 10
9.6019
 20
2.2497
 30
0.0
 10
15.4445
 20
2.2044
 30
0.0
 10
15.4445
 20
2.2044
 30
0.0
 10
15.4445
 20
2.2044
 30
0.0
 10
15.4445
 20
2.2044
 30
0.0
 10
15.4395
 20
1.9207
 30
0.0
 10
15.4395
 20
1.9207
 30
0.0
  0
SPLINE
  5
80
330
1F
100
AcDbEntity
  8
DEFAULT_1
 62
   250
100
AcDbSpline
210
0.0
220
0.0
230
1.0
 70
     8
 71
     3
 72
   132
 73
   128
 74
     0
 42
0.0000000001
 43
0.0000000001
 40
0.0
 40
0.0
 40
0.0
 40
0.0
 40
0.0303030303030303
 40
0.0303030303030303
 40
0.0303030303030303
 40
0.0303030303030303
 40
0.0606060606060606
 40
0.0606060606060606
 40
0.0606060606060606
 40
0.0606060606060606
 40
0.0909090909090909
 40
0.0909090909090909
 40
0.0909090909090909
 40
0.0909090909090909
 40
0.1212121212121212
 40
0.1212121212121212
 40
0.1212121212121212
 40
0.1212121212121212
 40
0.1515151515151515
 40
0.1515151515151515
 40
0.1515151515151515
 40
0.1515151515151515
 40
0.1818181818181818
 40
0.1818181818181818
 40
0.1818181818181818
 40
0.1818181818181818
 40
0.2121212121212121
 40
0.2121212121212121
 40
0.2121212121212121
 40
0.2121212121212121
 40
0.2424242424242424
 40
0.2424242424242424
 40
0.2424242424242424
 40
0.2424242424242424
 40
0.2727272727272727
 40
0.2727272727272727
 40
0.2727272727272727
 40
0.2727272727272727
 40
0.303030303030303
 40
0.303030303030303
 40
0.303030303030303
 40
0.303030303030303
 40
0.3333333333333333
 40
0.3333333333333333
 40
0.3333333333333333
 40
0.3333333333333333
 40
0.3636363636363636
 40
0.3636363636363636
 40
0.3636363636363636
 40
0.3636363636363636
 40
0.3939393939393939
 40
0.3939393939393939
 40
0.3939393939393939
 40
0.3939393939393939
 40
0.4242424242424243
 40
0.4242424242424243
 40
0.4242424242424243
 40
0.4242424242424243
 40
0.4545454545454545
 40
0.4545454545454545
 40
0.4545454545454545
 40
0.4545454545454545
 40
0.4848484848484849
 40
0.4848484848484849
 40
0.4848484848484849
 40
0.4848484848484849
 40
0.5151515151515151
 40
0.5151515151515151
 40
0.5151515151515151
 40
0.5151515151515151
 40
0.5454545454545454
 40
0.5454545454545454
 40
0.5454545454545454
 40
0.5454545454545454
 40
0.5757575757575758
 40
0.5757575757575758
 40
0.5757575757575758
 40
0.5757575757575758
 40
0.6060606060606061
 40
0.6060606060606061
 40
0.6060606060606061
 40
0.6060606060606061
 40
0.6363636363636364
 40
0.6363636363636364
 40
0.6363636363636364
 40
0.6363636363636364
 40
0.6666666666666666
 40
0.6666666666666666
 40
0.6666666666666666
 40
0.6666666666666666
 40
0.696969696969697
 40
0.696969696969697
 40
0.696969696969697
 40
0.696969696969697
 40
0.7272727272727273
 40
0.7272727272727273
 40
0.7272727272727273
 40
0.7272727272727273
 40
0.7575757575757576
 40
0.7575757575757576
 40
0.7575757575757576
 40
0.7575757575757576
 40
0.7878787878787878
 40
0.7878787878787878
 40
0.7878787878787878
 40
0.7878787878787878
 40
0.8181818181818182
 40
0.8181818181818182
 40
0.8181818181818182
 40
0.8181818181818182
 40
0.8484848484848485
 40
0.8484848484848485
 40
0.8484848484848485
 40
0.8484848484848485
 40
0.8787878787878788
 40
0.8787878787878788
 40
0.8787878787878788
 40
0.8787878787878788
 40
0.9090909090909091
 40
0.9090909090909091
 40
0.9090909090909091
 40
0.9090909090909091
 40
0.9393939393939394
 40
0.9393939393939394
 40
0.9393939393939394
 40
0.9393939393939394
 40
1.0
 40
1.0
 40
1.0
 40
1.0
 10
10.734
 20
2.2611
 30
0.0
 10
10.734
 20
2.2611
 30
0.0
 10
10.7203
 20
0.5609
 30
0.0
 10
10.7203
 20
0.5609
 30
0.0
 10
10.7203
 20
0.5609
 30
0.0
 10
10.7203
 20
0.5609
 30
0.0
 10
14.496
 20
0.5974
 30
0.0
 10
14.496
 20
0.5974
 30
0.0
 10
14.496
 20
0.5974
 30
0.0
 10
14.496
 20
0.5974
 30
0.0
 10
14.6759
 20
0.5835
 30
0.0
 10
14.6759
 20
0.5835
 30
0.0
 10
14.6759
 20
0.5835
 30
0.0
 10
14.6759
 20
0.5835
 30
0.0
 10
14.8454
 20
0.5424
 30
0.0
 10
14.8454
 20
0.5424
 30
0.0
 10
14.8454
 20
0.5424
 30
0.0
 10
14.8454
 20
0.5424
 30
0.0
 10
14.9951
 20
0.4757
 30
0.0
 10
14.9951
 20
0.4757
 30
0.0
 10
14.9951
 20
0.4757
 30
0.0
 10
14.9951
 20
0.4757
 30
0.0
 10
15.1158
 20
0.3858
 30
0.0
 10
15.1158
 20
0.3858
 30
0.0
 10
15.1158
 20
0.3858
 30
0.0
 10
15.1158
 20
0.3858
 30
0.0
 10
15.2001
 20
0.2773
 30
0.0
 10
15.2001
 20
0.2773
 30
0.0
 10
15.2001
 20
0.2773
 30
0.0
 10
15.2001
 20
0.2773
 30
0.0
 10
15.2434
 20
0.156
 30
0.0
 10
15.2434
 20
0.156
 30
0.0
 10
15.2434
 20
0.156
 30
0.0
 10
15.2434
 20
0.156
 30
0.0
 10
15.2489
 20
0.0923
 30
0.0
 10
15.2489
 20
0.0923
 30
0.0
 10
15.2489
 20
0.0923
 30
0.0
 10
15.2489
 20
0.0923
 30
0.0
 10
15.1525
 20
-0.2062
 30
0.0
 10
15.1525
 20
-0.2062
 30
0.0
 10
15.1525
 20
-0.2062
 30
0.0
 10
15.1525
 20
-0.2062
 30
0.0
 10
14.9172
 20
-0.3425
 30
0.0
 10
14.9172
 20
-0.3425
 30
0.0
 10
14.9172
 20
-0.3425
 30
0.0
 10
14.9172
 20
-0.3425
 30
0.0
 10
14.5997
 20
-0.4566
 30
0.0
 10
14.5997
 20
-0.4566
 30
0.0
 10
14.5997
 20
-0.4566
 30
0.0
 10
14.5997
 20
-0.4566
 30
0.0
 10
10.7337
 20
-0.4607
 30
0.0
 10
10.7337
 20
-0.4607
 30
0.0
 10
10.7337
 20
-0.4607
 30
0.0
 10
10.7337
 20
-0.4607
 30
0.0
 10
10.7172
 20
-4.3958
 30
0.0
 10
10.7172
 20
-4.3958
 30
0.0
 10
10.7172
 20
-4.3958
 30
0.0
 10
10.7172
 20
-4.3958
 30
0.0
 10
14.7181
 20
-4.3832
 30
0.0
 10
14.7181
 20
-4.3832
 30
0.0
 10
14.7181
 20
-4.3832
 30
0.0
 10
14.7181
 20
-4.3832
 30
0.0
 10
15.1269
 20
-4.6699
 30
0.0
 10
15.1269
 20
-4.6699
 30
0.0
 10
15.1269
 20
-4.6699
 30
0.0
 10
15.1269
 20
-4.6699
 30
0.0
 10
15.246
 20
-4.9674
 30
0.0
 10
15.246
 20
-4.9674
 30
0.0
 10
15.246
 20
-4.9674
 30
0.0
 10
15.246
 20
-4.9674
 30
0.0
 10
15.2306
 20
-5.273
 30
0.0
 10
15.2306
 20
-5.273
 30
0.0
 10
15.2306
 20
-5.273
 30
0.0
 10
15.2306
 20
-5.273
 30
0.0
 10
15.0966
 20
-5.525
 30
0.0
 10
15.0966
 20
-5.525
 30
0.0
 10
15.0966
 20
-5.525
 30
0.0
 10
15.0966
 20
-5.525
 30
0.0
 10
15.0097
 20
-5.7673
 30
0.0
 10
15.0097
 20
-5.7673
 30
0.0
 10
15.0097
 20
-5.7673
 30
0.0
 10
15.0097
 20
-5.7673
 30
0.0
 10
14.806
 20
-5.8676
 30
0.0
 10
14.806
 20
-5.8676
 30
0.0
 10
14.806
 20
-5.8676
 30
0.0
 10
14.806
 20
-5.8676
 30
0.0
 10
10.7379
 20
-5.8841
 30
0.0
 10
10.7379
 20
-5.8841
 30
0.0
 10
10.7379
 20
-5.8841
 30
0.0
 10
10.7379
 20
-5.8841
 30
0.0
 10
10.7327
 20
-9.7779
 30
0.0
 10
10.7327
 20
-9.7779
 30
0.0
 10
10.7327
 20
-9.7779
 30
0.0
 10
10.7327
 20
-9.7779
 30
0.0
 10
14.6154
 20
-9.7114
 30
0.0
 10
14.6154
 20
-9.7114
 30
0.0
 10
14.6154
 20
-9.7114
 30
0.0
 10
14.6154
 20
-9.7114
 30
0.0
 10
14.9396
 20
-9.8205
 30
0.0
 10
14.9396
 20
-9.8205
 30
0.0
 10
14.9396
 20
-9.8205
 30
0.0
 10
14.9396
 20
-9.8205
 30
0.0
 10
15.1854
 20
-9.9748
 30
0.0
 10
15.1854
 20
-9.9748
 30
0.0
 10
15.1854
 20
-9.9748
 30
0.0
 10
15.1854
 20
-9.9748
 30
0.0
 10
15.3266
 20
-10.1898
 30
0.0
 10
15.3266
 20
-10.1898
 30
0.0
 10
15.3266
 20
-10.1898
 30
0.0
 10
15.3266
 20
-10.1898
 30
0.0
 10
15.2546
 20
-10.4584
 30
0.0
 10
15.2546
 20
-10.4584
 30
0.0
 10
15.2546
 20
-10.4584
 30
0.0
 10
15.2546
 20
-10.4584
 30
0.0
 10
15.0535
 20
-10.7143
 30
0.0
 10
15.0535
 20
-10.7143
 30
0.0
 10
15.0535
 20
-10.7143
 30
0.0
 10
15.0535
 20
-10.7143
 30
0.0
 10
14.4774
 20
-10.8032
 30
0.0
 10
14.4774
 20
-10.8032
 30
0.0
 10
14.4774
 20
-10.8032
 30
0.0
 10
14.4774
 20
-10.8032
 30
0.0
 10
10.6938
 20
-10.8298
 30
0.0
 10
10.6938
 20
-10.8298
 30
0.0
 10
10.6938
 20
-10.8298
 30
0.0
 10
10.6938
 20
-10.8298
 30
0.0
 10
10.6976
 20
-12.4138
 30
0.0
 10
10.6976
 20
-12.4138
 30
0.0
  0
SPLINE
  5
81
330
1F
100
AcDbEntity
  8
DEFAULT_1
 62
   250
100
AcDbSpline
210
0.0
220
0.0
230
1.0
 70
     8
 71
     3
 72
    60
 73
    56
 74
     0
 42
0.0000000001
 43
0.0000000001
 40
0.0
 40
0.0
 40
0.0
 40
0.0
 40
0.0666666666666667
 40
0.0666666666666667
 40
0.0666666666666667
 40
0.0666666666666667
 40
0.1333333333333333
 40
0.1333333333333333
 40
0.1333333333333333
 40
0.1333333333333333
 40
0.2
 40
0.2
 40
0.2
 40
0.2
 40
0.2666666666666667
 40
0.2666666666666667
 40
0.2666666666666667
 40
0.2666666666666667
 40
0.3333333333333333
 40
0.3333333333333333
 40
0.3333333333333333
 40
0.3333333333333333
 40
0.4
 40
0.4
 40
0.4
 40
0.4
 40
0.4666666666666667
 40
0.4666666666666667
 40
0.4666666666666667
 40
0.4666666666666667
 40
0.5333333333333333
 40
0.5333333333333333
 40
0.5333333333333333
 40
0.5333333333333333
 40
0.6
 40
0.6
 40
0.6
 40
0.6
 40
0.6666666666666666
 40
0.6666666666666666
 40
0.6666666666666666
 40
0.6666666666666666
 40
0.7333333333333333
 40
0.7333333333333333
 40
0.7333333333333333
 40
0.7333333333333333
 40
0.8
 40
0.8
 40
0.8
 40
0.8
 40
0.8666666666666667
 40
0.8666666666666667
 40
0.8666666666666667
 40
0.8666666666666667
 40
1.0
 40
1.0
 40
1.0
 40
1.0
 10
-10.4701
 20
18.2832
 30
0.0
 10
-10.4701
 20
18.2832
 30
0.0
 10
-10.4651
 20
19.9067
 30
0.0
 10
-10.4651
 20
19.9067
 30
0.0
 10
-10.4651
 20
19.9067
 30
0.0
 10
-10.4651
 20
19.9067
 30
0.0
 10
-10.4412
 20
20.1373
 30
0.0
 10
-10.4412
 20
20.1373
 30
0.0
 10
-10.4412
 20
20.1373
 30
0.0
 10
-10.4412
 20
20.1373
 30
0.0
 10
-10.3645
 20
20.3992
 30
0.0
 10
-10.3645
 20
20.3992
 30
0.0
 10
-10.3645
 20
20.3992
 30
0.0
 10
-10.3645
 20
20.3992
 30
0.0
 10
-10.2381
 20
20.6468
 30
0.0
 10
-10.2381
 20
20.6468
 30
0.0
 10
-10.2381
 20
20.6468
 30
0.0
 10
-10.2381
 20
20.6468
 30
0.0
 10
-10.071
 20
20.8625
 30
0.0
 10
-10.071
 20
20.8625
 30
0.0
 10
-10.071
 20
20.8625
 30
0.0
 10
-10.071
 20
20.8625
 30
0.0
 10
-9.8576
 20
21.0506
 30
0.0
 10
-9.8576
 20
21.0506
 30
0.0
 10
-9.8576
 20
21.0506
 30
0.0
 10
-9.8576
 20
21.0506
 30
0.0
 10
-9.6031
 20
21.1984
 30
0.0
 10
-9.6031
 20
21.1984
 30
0.0
 10
-9.6031
 20
21.1984
 30
0.0
 10
-9.6031
 20
21.1984
 30
0.0
 10
-9.3172
 20
21.2944
 30
0.0
 10
-9.3172
 20
21.2944
 30
0.0
 10
-9.3172
 20
21.2944
 30
0.0
 10
-9.3172
 20
21.2944
 30
0.0
 10
-8.9929
 20
21.3304
 30
0.0
 10
-8.9929
 20
21.3304
 30
0.0
 10
-8.9929
 20
21.3304
 30
0.0
 10
-8.9929
 20
21.3304
 30
0.0
 10
-8.3436
 20
21.2037
 30
0.0
 10
-8.3436
 20
21.2037
 30
0.0
 10
-8.3436
 20
21.2037
 30
0.0
 10
-8.3436
 20
21.2037
 30
0.0
 10
-7.9523
 20
20.9587
 30
0.0
 10
-7.9523
 20
20.9587
 30
0.0
 10
-7.9523
 20
20.9587
 30
0.0
 10
-7.9523
 20
20.9587
 30
0.0
 10
-7.6834
 20
20.5915
 30
0.0
 10
-7.6834
 20
20.5915
 30
0.0
 10
-7.6834
 20
20.5915
 30
0.0
 10
-7.6834
 20
20.5915
 30
0.0
 10
-7.6102
 20
20.2239
 30
0.0
 10
-7.6102
 20
20.2239
 30
0.0
 10
-7.6102
 20
20.2239
 30
0.0
 10
-7.6102
 20
20.2239
 30
0.0
 10
-7.5857
 20
18.3376
 30
0.0
 10
-7.5857
 20
18.3376
 30
0.0
  0
SPLINE
  5
82
330
1F
100
AcDbEntity
  8
DEFAULT_1
 62
   250
100
AcDbSpline
210
0.0
220
0.0
230
1.0
 70
    11
 71
     3
 72
    40
 73
    36
 74
     0
 42
0.0000000001
 43
0.0000000001
 40
0.0
 40
0.0
 40
0.0
 40
0.0
 40
0.1
 40
0.1
 40
0.1
 40
0.1
 40
0.2
 40
0.2
 40
0.2
 40
0.2
 40
0.3
 40
0.3
 40
0.3
 40
0.3
 40
0.4
 40
0.4
 40
0.4
 40
0.4
 40
0.5
 40
0.5
 40
0.5
 40
0.5
 40
0.6
 40
0.6
 40
0.6
 40
0.6
 40
0.7
 40
0.7
 40
0.7
 40
0.7
 40
0.8
 40
0.8
 40
0.8
 40
0.8
 40
1.0
 40
1.0
 40
1.0
 40
1.0
 10
-10.4684
 20
18.2832
 30
0.0
 10
-10.469
 20
18.2832
 30
0.0
 10
-10.4695
 20
18.2832
 30
0.0
 10
-10.4701
 20
18.2832
 30
0.0
 10
-10.4701
 20
18.2832
 30
0.0
 10
-12.4372
 20
18.184
 30
0.0
 10
-14.389
 20
17.8876
 30
0.0
 10
-16.2964
 20
17.3983
 30
0.0
 10
-16.2964
 20
17.3983
 30
0.0
 10
-16.2964
 20
17.3983
 30
0.0
 10
-15.6986
 20
13.3512
 30
0.0
 10
-15.6986
 20
13.3512
 30
0.0
 10
-15.6986
 20
13.3512
 30
0.0
 10
-15.6986
 20
13.3512
 30
0.0
 10
-2.3286
 20
13.3825
 30
0.0
 10
-2.3286
 20
13.3825
 30
0.0
 10
-2.3286
 20
13.3825
 30
0.0
 10
-2.3286
 20
13.3825
 30
0.0
 10
-1.7023
 20
17.5469
 30
0.0
 10
-1.7023
 20
17.5469
 30
0.0
 10
-1.7023
 20
17.5469
 30
0.0
 10
-1.7023
 20
17.5469
 30
0.0
 10
-5.3658
 20
18.0792
 30
0.0
 10
-5.3658
 20
18.0792
 30
0.0
 10
-5.3658
 20
18.0792
 30
0.0
 10
-5.3658
 20
18.0792
 30
0.0
 10
-7.2445
 20
18.3297
 30
0.0
 10
-7.2445
 20
18.3297
 30
0.0
 10
-7.2445
 20
18.3297
 30
0.0
 10
-7.2445
 20
18.3297
 30
0.0
 10
-7.8894
 20
18.3204
 30
0.0
 10
-7.8894
 20
18.3204
 30
0.0
 10
-7.8894
 20
18.3204
 30
0.0
 10
-7.8894
 20
18.3204
 30
0.0
 10
-10.4684
 20
18.2832
 30
0.0
 10
-10.4684
 20
18.2832
 30
0.0
  0
SPLINE
  5
83
330
1F
100
AcDbEntity
  8
DEFAULT_1
 62
   250
100
AcDbSpline
210
0.0
220
0.0
230
1.0
 70
     8
 71
     3
 72
    16
 73
    12
 74
     0
 42
0.0000000001
 43
0.0000000001
 40
0.0
 40
0.0
 40
0.0
 40
0.0
 40
0.25
 40
0.25
 40
0.25
 40
0.25
 40
0.5
 40
0.5
 40
0.5
 40
0.5
 40
1.0
 40
1.0
 40
1.0
 40
1.0
 10
-6.3742
 20
20.0908
 30
0.0
 10
-6.3742
 20
20.0908
 30
0.0
 10
-5.2677
 20
20.0908
 30
0.0
 10
-5.2677
 20
20.0908
 30
0.0
 10
-5.2677
 20
20.0908
 30
0.0
 10
-5.2677
 20
20.0908
 30
0.0
 10
-5.2549
 20
18.6727
 30
0.0
 10
-5.2549
 20
18.6727
 30
0.0
 10
-5.2549
 20
18.6727
 30
0.0
 10
-5.2549
 20
18.6727
 30
0.0
 10
-6.3361
 20
18.6493
 30
0.0
 10
-6.3361
 20
18.6493
 30
0.0
  0
SPLINE
  5
84
330
1F
100
AcDbEntity
  8
DEFAULT_1
 62
   250
100
AcDbSpline
210
0.0
220
0.0
230
1.0
 70
     8
 71
     3
 72
    24
 73
    20
 74
     0
 42
0.0000000001
 43
0.0000000001
 40
0.0
 40
0.0
 40
0.0
 40
0.0
 40
0.1666666666666667
 40
0.1666666666666667
 40
0.1666666666666667
 40
0.1666666666666667
 40
0.3333333333333333
 40
0.3333333333333333
 40
0.3333333333333333
 40
0.3333333333333333
 40
0.5
 40
0.5
 40
0.5
 40
0.5
 40
0.6666666666666666
 40
0.6666666666666666
 40
0.6666666666666666
 40
0.6666666666666666
 40
1.0
 40
1.0
 40
1.0
 40
1.0
 10
-11.6936
 20
19.878
 30
0.0
 10
-11.6936
 20
19.878
 30
0.0
 10
-12.508
 20
19.6466
 30
0.0
 10
-12.508
 20
19.6466
 30
0.0
 10
-12.508
 20
19.6466
 30
0.0
 10
-12.5888
 20
19.6249
 30
0.0
 10
-12.6447
 20
19.5521
 30
0.0
 10
-12.6447
 20
19.4684
 30
0.0
 10
-12.6447
 20
19.4684
 30
0.0
 10
-12.6447
 20
19.4684
 30
0.0
 10
-12.6426
 20
19.1482
 30
0.0
 10
-12.6426
 20
19.1482
 30
0.0
 10
-12.6426
 20
19.1482
 30
0.0
 10
-12.6426
 20
19.1482
 30
0.0
 10
-12.4992
 20
19.0598
 30
0.0
 10
-12.4992
 20
19.0598
 30
0.0
 10
-12.4992
 20
19.0598
 30
0.0
 10
-12.4992
 20
19.0598
 30
0.0
 10
-11.6769
 20
18.7944
 30
0.0
 10
-11.6769
 20
18.7944
 30
0.0
  0
SPLINE
  5
85
330
1F
100
AcDbEntity
  8
DEFAULT_1
 62
   250
100
AcDbSpline
210
0.0
220
0.0
230
1.0
 70
     8
 71
     3
 72
    36
 73
    32
 74
     0
 42
0.0000000001
 43
0.0000000001
 40
0.0
 40
0.0
 40
0.0
 40
0.0
 40
0.1111111111111111
 40
0.1111111111111111
 40
0.1111111111111111
 40
0.1111111111111111
 40
0.2222222222222222
 40
0.2222222222222222
 40
0.2222222222222222
 40
0.2222222222222222
 40
0.3333333333333333
 40
0.3333333333333333
 40
0.3333333333333333
 40
0.3333333333333333
 40
0.4444444444444444
 40
0.4444444444444444
 40
0.4444444444444444
 40
0.4444444444444444
 40
0.5555555555555556
 40
0.5555555555555556
 40
0.5555555555555556
 40
0.5555555555555556
 40
0.6666666666666666
 40
0.6666666666666666
 40
0.6666666666666666
 40
0.6666666666666666
 40
0.7777777777777778
 40
0.7777777777777778
 40
0.7777777777777778
 40
0.7777777777777778
 40
1.0
 40
1.0
 40
1.0
 40
1.0
 10
-10.4927
 20
18.3251
 30
0.0
 10
-10.4927
 20
18.3251
 30
0.0
 10
-10.4927
 20
21.6499
 30
0.0
 10
-10.4927
 20
21.6499
 30
0.0
 10
-10.4927
 20
21.6499
 30
0.0
 10
-10.4927
 20
21.6499
 30
0.0
 10
-10.5728
 20
21.8551
 30
0.0
 10
-10.5728
 20
21.8551
 30
0.0
 10
-10.5728
 20
21.8551
 30
0.0
 10
-11.3855
 20
22.5223
 30
0.0
 10
-11.6916
 20
23.6281
 30
0.0
 10
-11.3372
 20
24.6184
 30
0.0
 10
-11.3372
 20
24.6184
 30
0.0
 10
-10.9831
 20
25.6083
 30
0.0
 10
-10.0446
 20
26.2691
 30
0.0
 10
-8.9932
 20
26.2691
 30
0.0
 10
-8.9932
 20
26.2691
 30
0.0
 10
-7.9415
 20
26.2691
 30
0.0
 10
-7.0033
 20
25.6083
 30
0.0
 10
-6.649
 20
24.6184
 30
0.0
 10
-6.649
 20
24.6184
 30
0.0
 10
-6.2946
 20
23.6281
 30
0.0
 10
-6.6007
 20
22.5223
 30
0.0
 10
-7.4133
 20
21.8551
 30
0.0
 10
-7.4133
 20
21.8551
 30
0.0
 10
-7.4133
 20
21.8551
 30
0.0
 10
-7.5274
 20
21.5323
 30
0.0
 10
-7.5274
 20
21.5323
 30
0.0
 10
-7.5274
 20
21.5323
 30
0.0
 10
-7.5274
 20
21.5323
 30
0.0
 10
-7.504
 20
18.3016
 30
0.0
 10
-7.504
 20
18.3016
 30
0.0
  0
SPLINE
  5
86
330
1F
100
AcDbEntity
  8
DEFAULT_1
 62
   250
100
AcDbSpline
210
0.0
220
0.0
230
1.0
 70
     8
 71
     3
 72
    24
 73
    20
 74
     0
 42
0.0000000001
 43
0.0000000001
 40
0.0
 40
0.0
 40
0.0
 40
0.0
 40
0.1666666666666667
 40
0.1666666666666667
 40
0.1666666666666667
 40
0.1666666666666667
 40
0.3333333333333333
 40
0.3333333333333333
 40
0.3333333333333333
 40
0.3333333333333333
 40
0.5
 40
0.5
 40
0.5
 40
0.5
 40
0.6666666666666666
 40
0.6666666666666666
 40
0.6666666666666666
 40
0.6666666666666666
 40
1.0
 40
1.0
 40
1.0
 40
1.0
 10
-11.6222
 20
18.2071
 30
0.0
 10
-11.6222
 20
18.2071
 30
0.0
 10
-11.612
 20
21.182
 30
0.0
 10
-11.612
 20
21.182
 30
0.0
 10
-11.612
 20
21.182
 30
0.0
 10
-13.0438
 20
22.6256
 30
0.0
 10
-13.0374
 20
24.9555
 30
0.0
 10
-11.5976
 20
26.3911
 30
0.0
 10
-11.5976
 20
26.3911
 30
0.0
 10
-10.1582
 20
27.8268
 30
0.0
 10
-7.828
 20
27.8268
 30
0.0
 10
-6.3885
 20
26.3911
 30
0.0
 10
-6.3885
 20
26.3911
 30
0.0
 10
-4.9488
 20
24.9555
 30
0.0
 10
-4.9426
 20
22.6256
 30
0.0
 10
-6.3742
 20
21.182
 30
0.0
 10
-6.3742
 20
21.182
 30
0.0
 10
-6.3742
 20
21.182
 30
0.0
 10
-6.4216
 20
18.2308
 30
0.0
 10
-6.4216
 20
18.2308
 30
0.0
  0
SPLINE
  5
87
330
1F
100
AcDbEntity
  8
DEFAULT_1
 62
   250
100
AcDbSpline
210
0.0
220
0.0
230
1.0
 70
    24
 71
     3
 72
     8
 73
     4
 74
     0
 42
0.0000000001
 43
0.0000000001
 40
0.0
 40
0.0
 40
0.0
 40
0.0
 40
1.0
 40
1.0
 40
1.0
 40
1.0
 10
-17.8863
 20
-16.5383
 30
0.0
 10
-17.8863
 20
-16.5383
 30
0.0
 10
-0.4454
 20
-16.0847
 30
0.0
 10
-0.4454
 20
-16.0847
 30
0.0
  0
SPLINE
  5
88
330
1F
100
AcDbEntity
  8
DEFAULT_1
 62
   250
100
AcDbSpline
210
0.0
220
0.0
230
1.0
 70
    24
 71
     3
 72
     8
 73
     4
 74
     0
 42
0.0000000001
 43
0.0000000001
 40
0.0
 40
0.0
 40
0.0
 40
0.0
 40
1.0
 40
1.0
 40
1.0
 40
1.0
 10
-17.8064
 20
-15.7646
 30
0.0
 10
-17.8064
 20
-15.7646
 30
0.0
 10
-0.3655
 20
-15.311
 30
0.0
 10
-0.3655
 20
-15.311
 30
0.0
  0
SPLINE
  5
89
330
1F
100
AcDbEntity
  8
DEFAULT_1
 62
   250
100
AcDbSpline
210
0.0
220
0.0
230
1.0
 70
    24
 71
     3
 72
     8
 73
     4
 74
     0
 42
0.0000000001
 43
0.0000000001
 40
0.0
 40
0.0
 40
0.0
 40
0.0
 40
1.0
 40
1.0
 40
1.0
 40
1.0
 10
-17.833
 20
-14.8574
 30
0.0
 10
-17.833
 20
-14.8574
 30
0.0
 10
-0.3921
 20
-14.4038
 30
0.0
 10
-0.3921
 20
-14.4038
 30
0.0
  0
SPLINE
  5
8A
330
1F
100
AcDbEntity
  8
DEFAULT_1
 62
   250
100
AcDbSpline
210
0.0
220
0.0
230
1.0
 70
    24
 71
     3
 72
     8
 73
     4
 74
     0
 42
0.0000000001
 43
0.0000000001
 40
0.0
 40
0.0
 40
0.0
 40
0.0
 40
1.0
 40
1.0
 40
1.0
 40
1.0
 10
-17.8064
 20
-14.0303
 30
0.0
 10
-17.8064
 20
-14.0303
 30
0.0
 10
-0.3655
 20
-13.5767
 30
0.0
 10
-0.3655
 20
-13.5767
 30
0.0
  0
SPLINE
  5
8B
330
1F
100
AcDbEntity
  8
DEFAULT_1
 62
   250
100
AcDbSpline
210
0.0
220
0.0
230
1.0
 70
    24
 71
     3
 72
     8
 73
     4
 74
     0
 42
0.0000000001
 43
0.0000000001
 40
0.0
 40
0.0
 40
0.0
 40
0.0
 40
1.0
 40
1.0
 40
1.0
 40
1.0
 10
-17.9129
 20
-13.2032
 30
0.0
 10
-17.9129
 20
-13.2032
 30
0.0
 10
-0.472
 20
-12.7496
 30
0.0
 10
-0.472
 20
-12.7496
 30
0.0
  0
SPLINE
  5
8C
330
1F
100
AcDbEntity
  8
DEFAULT_1
 62
   250
100
AcDbSpline
210
0.0
220
0.0
230
1.0
 70
    24
 71
     3
 72
     8
 73
     4
 74
     0
 42
0.0000000001
 43
0.0000000001
 40
0.0
 40
0.0
 40
0.0
 40
0.0
 40
1.0
 40
1.0
 40
1.0
 40
1.0
 10
-17.9395
 20
-12.4561
 30
0.0
 10
-17.9395
 20
-12.4561
 30
0.0
 10
-0.4986
 20
-12.0025
 30
0.0
 10
-0.4986
 20
-12.0025
 30
0.0
  0
SPLINE
  5
8D
330
1F
100
AcDbEntity
  8
DEFAULT_1
 62
   250
100
AcDbSpline
210
0.0
220
0.0
230
1.0
 70
    24
 71
     3
 72
     8
 73
     4
 74
     0
 42
0.0000000001
 43
0.0000000001
 40
0.0
 40
0.0
 40
0.0
 40
0.0
 40
1.0
 40
1.0
 40
1.0
 40
1.0
 10
-17.8596
 20
-11.869
 30
0.0
 10
-17.8596
 20
-11.869
 30
0.0
 10
-0.4187
 20
-11.4154
 30
0.0
 10
-0.4187
 20
-11.4154
 30
0.0
  0
SPLINE
  5
8E
330
1F
100
AcDbEntity
  8
DEFAULT_1
 62
   250
100
AcDbSpline
210
0.0
220
0.0
230
1.0
 70
    11
 71
     3
 72
    20
 73
    16
 74
     0
 42
0.0000000001
 43
0.0000000001
 40
0.0
 40
0.0
 40
0.0
 40
0.0
 40
0.2
 40
0.2
 40
0.2
 40
0.2
 40
0.4
 40
0.4
 40
0.4
 40
0.4
 40
0.6
 40
0.6
 40
0.6
 40
0.6
 40
1.0
 40
1.0
 40
1.0
 40
1.0
 10
-20.2248
 20
10.0414
 30
0.0
 10
-20.2248
 20
10.0414
 30
0.0
 10
1.9855
 20
10.0414
 30
0.0
 10
1.9855
 20
10.0414
 30
0.0
 10
1.9855
 20
10.0414
 30
0.0
 10
1.9855
 20
10.0414
 30
0.0
 10
1.9855
 20
9.2567
 30
0.0
 10
1.9855
 20
9.2567
 30
0.0
 10
1.9855
 20
9.2567
 30
0.0
 10
1.9855
 20
9.2567
 30
0.0
 10
-20.2248
 20
9.2567
 30
0.0
 10
-20.2248
 20
9.2567
 30
0.0
 10
-20.2248
 20
9.2567
 30
0.0
 10
-20.2248
 20
9.2567
 30
0.0
 10
-20.2248
 20
10.0414
 30
0.0
 10
-20.2248
 20
10.0414
 30
0.0
  0
SPLINE
  5
8F
330
1F
100
AcDbEntity
  8
DEFAULT_1
 62
   250
100
AcDbSpline
210
0.0
220
0.0
230
1.0
 70
    24
 71
     3
 72
     8
 73
     4
 74
     0
 42
0.0000000001
 43
0.0000000001
 40
0.0
 40
0.0
 40
0.0
 40
0.0
 40
1.0
 40
1.0
 40
1.0
 40
1.0
 10
-17.9058
 20
-16.5937
 30
0.0
 10
-17.9058
 20
-16.5937
 30
0.0
 10
-17.9058
 20
-21.9435
 30
0.0
 10
-17.9058
 20
-21.9435
 30
0.0
  0
SPLINE
  5
90
330
1F
100
AcDbEntity
  8
DEFAULT_1
 62
   250
100
AcDbSpline
210
0.0
220
0.0
230
1.0
 70
    24
 71
     3
 72
     8
 73
     4
 74
     0
 42
0.0000000001
 43
0.0000000001
 40
0.0
 40
0.0
 40
0.0
 40
0.0
 40
1.0
 40
1.0
 40
1.0
 40
1.0
 10
-0.3441
 20
-16.5937
 30
0.0
 10
-0.3441
 20
-16.5937
 30
0.0
 10
-0.3441
 20
-22.0563
 30
0.0
 10
-0.3441
 20
-22.0563
 30
0.0
  0
SPLINE
  5
91
330
1F
100
AcDbEntity
  8
DEFAULT_1
 62
   250
100
AcDbSpline
210
0.0
220
0.0
230
1.0
 70
    24
 71
     3
 72
     8
 73
     4
 74
     0
 42
0.0000000001
 43
0.0000000001
 40
0.0
 40
0.0
 40
0.0
 40
0.0
 40
1.0
 40
1.0
 40
1.0
 40
1.0
 10
-0.5317
 20
-21.3896
 30
0.0
 10
-0.5317
 20
-21.3896
 30
0.0
 10
-17.8119
 20
-21.3896
 30
0.0
 10
-17.8119
 20
-21.3896
 30
0.0
  0
SPLINE
  5
92
330
1F
100
AcDbEntity
  8
DEFAULT_1
 62
   250
100
AcDbSpline
210
0.0
220
0.0
230
1.0
 70
    24
 71
     3
 72
     8
 73
     4
 74
     0
 42
0.0000000001
 43
0.0000000001
 40
0.0
 40
0.0
 40
0.0
 40
0.0
 40
1.0
 40
1.0
 40
1.0
 40
1.0
 10
25.6472
 20
-25.6284
 30
0.0
 10
25.6472
 20
-25.6284
 30
0.0
 10
25.6472
 20
-28.3793
 30
0.0
 10
25.6472
 20
-28.3793
 30
0.0
  0
SPLINE
  5
93
330
1F
100
AcDbEntity
  8
DEFAULT_1
 62
   250
100
AcDbSpline
210
0.0
220
0.0
230
1.0
 70
    24
 71
     3
 72
     8
 73
     4
 74
     0
 42
0.0000000001
 43
0.0000000001
 40
0.0
 40
0.0
 40
0.0
 40
0.0
 40
1.0
 40
1.0
 40
1.0
 40
1.0
 10
19.251
 20
-25.572
 30
0.0
 10
19.251
 20
-25.572
 30
0.0
 10
19.251
 20
-28.3793
 30
0.0
 10
19.251
 20
-28.3793
 30
0.0
  0
SPLINE
  5
94
330
1F
100
AcDbEntity
  8
DEFAULT_1
 62
   250
100
AcDbSpline
210
0.0
220
0.0
230
1.0
 70
    24
 71
     3
 72
     8
 73
     4
 74
     0
 42
0.0000000001
 43
0.0000000001
 40
0.0
 40
0.0
 40
0.0
 40
0.0
 40
1.0
 40
1.0
 40
1.0
 40
1.0
 10
29.5011
 20
-28.0095
 30
0.0
 10
29.5011
 20
-28.0095
 30
0.0
 10
10.3828
 20
-28.0095
 30
0.0
 10
10.3828
 20
-28.0095
 30
0.0
  0
SPLINE
  5
95
330
1F
100
AcDbEntity
  8
DEFAULT_1
 62
   250
100
AcDbSpline
210
0.0
220
0.0
230
1.0
 70
    24
 71
     3
 72
     8
 73
     4
 74
     0
 42
0.0000000001
 43
0.0000000001
 40
0.0
 40
0.0
 40
0.0
 40
0.0
 40
1.0
 40
1.0
 40
1.0
 40
1.0
 10
-20.6377
 20
12.7472
 30
0.0
 10
-20.6377
 20
12.7472
 30
0.0
 10
-20.6377
 20
30.8905
 30
0.0
 10
-20.6377
 20
30.8905
 30
0.0
  0
SPLINE
  5
96
330
1F
100
AcDbEntity
  8
DEFAULT_1
 62
   250
100
AcDbSpline
210
0.0
220
0.0
230
1.0
 70
    24
 71
     3
 72
     8
 73
     4
 74
     0
 42
0.0000000001
 43
0.0000000001
 40
0.0
 40
0.0
 40
0.0
 40
0.0
 40
1.0
 40
1.0
 40
1.0
 40
1.0
 10
2.3877
 20
12.7472
 30
0.0
 10
2.3877
 20
12.7472
 30
0.0
 10
2.3877
 20
30.869
 30
0.0
 10
2.3877
 20
30.869
 30
0.0
  0
SPLINE
  5
97
330
1F
100
AcDbEntity
  8
DEFAULT_1
 62
   250
100
AcDbSpline
210
0.0
220
0.0
230
1.0
 70
    24
 71
     3
 72
     8
 73
     4
 74
     0
 42
0.0000000001
 43
0.0000000001
 40
0.0
 40
0.0
 40
0.0
 40
0.0
 40
1.0
 40
1.0
 40
1.0
 40
1.0
 10
-20.6378
 20
29.9297
 30
0.0
 10
-20.6378
 20
29.9297
 30
0.0
 10
2.2583
 20
29.9297
 30
0.0
 10
2.2583
 20
29.9297
 30
0.0
  0
SPLINE
  5
98
330
1F
100
AcDbEntity
  8
DEFAULT_1
 62
   250
100
AcDbSpline
210
0.0
220
0.0
230
1.0
 70
    24
 71
     3
 72
     8
 73
     4
 74
     0
 42
0.0000000001
 43
0.0000000001
 40
0.0
 40
0.0
 40
0.0
 40
0.0
 40
1.0
 40
1.0
 40
1.0
 40
1.0
 10
-19.0703
 20
-16.9634
 30
0.0
 10
-19.0703
 20
-16.9634
 30
0.0
 10
-27.3804
 20
-16.9634
 30
0.0
 10
-27.3804
 20
-16.9634
 30
0.0
  0
SPLINE
  5
99
330
1F
100
AcDbEntity
  8
DEFAULT_1
 62
   250
100
AcDbSpline
210
0.0
220
0.0
230
1.0
 70
    24
 71
     3
 72
     8
 73
     4
 74
     0
 42
0.0000000001
 43
0.0000000001
 40
0.0
 40
0.0
 40
0.0
 40
0.0
 40
1.0
 40
1.0
 40
1.0
 40
1.0
 10
-22.0652
 20
5.5895
 30
0.0
 10
-22.0652
 20
5.5895
 30
0.0
 10
-27.3053
 20
5.5895
 30
0.0
 10
-27.3053
 20
5.5895
 30
0.0
  0
SPLINE
  5
9A
330
1F
100
AcDbEntity
  8
DEFAULT_1
 62
   250
100
AcDbSpline
210
0.0
220
0.0
230
1.0
 70
    24
 71
     3
 72
     8
 73
     4
 74
     0
 42
0.0000000001
 43
0.0000000001
 40
0.0
 40
0.0
 40
0.0
 40
0.0
 40
1.0
 40
1.0
 40
1.0
 40
1.0
 10
-26.6971
 20
-16.9635
 30
0.0
 10
-26.6971
 20
-16.9635
 30
0.0
 10
-26.6971
 20
5.5373
 30
0.0
 10
-26.6971
 20
5.5373
 30
0.0
  0
SPLINE
  5
9B
330
1F
100
AcDbEntity
  8
DEFAULT_1
 62
   250
100
AcDbSpline
210
0.0
220
0.0
230
1.0
 70
    24
 71
     3
 72
     8
 73
     4
 74
     0
 42
0.0000000001
 43
0.0000000001
 40
0.0
 40
0.0
 40
0.0
 40
0.0
 40
1.0
 40
1.0
 40
1.0
 40
1.0
 10
-20.6377
 20
11.3289
 30
0.0
 10
-20.6377
 20
11.3289
 30
0.0
 10
-27.1418
 20
11.3289
 30
0.0
 10
-27.1418
 20
11.3289
 30
0.0
  0
SPLINE
  5
9C
330
1F
100
AcDbEntity
  8
DEFAULT_1
 62
   250
100
AcDbSpline
210
0.0
220
0.0
230
1.0
 70
    24
 71
     3
 72
     8
 73
     4
 74
     0
 42
0.0000000001
 43
0.0000000001
 40
0.0
 40
0.0
 40
0.0
 40
0.0
 40
1.0
 40
1.0
 40
1.0
 40
1.0
 10
-26.6928
 20
5.6345
 30
0.0
 10
-26.6928
 20
5.6345
 30
0.0
 10
-26.6928
 20
18.3173
 30
0.0
 10
-26.6928
 20
18.3173
 30
0.0
  0
SPLINE
  5
9D
330
1F
100
AcDbEntity
  8
DEFAULT_1
 62
   250
100
AcDbSpline
210
0.0
220
0.0
230
1.0
 70
    24
 71
     3
 72
     8
 73
     4
 74
     0
 42
0.0000000001
 43
0.0000000001
 40
0.0
 40
0.0
 40
0.0
 40
0.0
 40
1.0
 40
1.0
 40
1.0
 40
1.0
 10
-9.125
 20
-23.59
 30
0.0
 10
-9.125
 20
-23.59
 30
0.0
 10
-9.125
 20
-32.7518
 30
0.0
 10
-9.125
 20
-32.7518
 30
0.0
  0
SPLINE
  5
9E
330
1F
100
AcDbEntity
  8
DEFAULT_1
 62
   250
100
AcDbSpline
210
0.0
220
0.0
230
1.0
 70
    24
 71
     3
 72
     8
 73
     4
 74
     0
 42
0.0000000001
 43
0.0000000001
 40
0.0
 40
0.0
 40
0.0
 40
0.0
 40
1.0
 40
1.0
 40
1.0
 40
1.0
 10
22.4491
 20
-29.1704
 30
0.0
 10
22.4491
 20
-29.1704
 30
0.0
 10
22.4491
 20
-32.5086
 30
0.0
 10
22.4491
 20
-32.5086
 30
0.0
  0
SPLINE
  5
9F
330
1F
100
AcDbEntity
  8
DEFAULT_1
 62
   250
100
AcDbSpline
210
0.0
220
0.0
230
1.0
 70
    24
 71
     3
 72
     8
 73
     4
 74
     0
 42
0.0000000001
 43
0.0000000001
 40
0.0
 40
0.0
 40
0.0
 40
0.0
 40
1.0
 40
1.0
 40
1.0
 40
1.0
 10
22.2435
 20
-32.1389
 30
0.0
 10
22.2435
 20
-32.1389
 30
0.0
 10
-9.0697
 20
-32.1389
 30
0.0
 10
-9.0697
 20
-32.1389
 30
0.0
  0
SPLINE
  5
A0
330
1F
100
AcDbEntity
  8
DEFAULT_1
 62
   250
100
AcDbSpline
210
0.0
220
0.0
230
1.0
 70
    24
 71
     3
 72
     8
 73
     4
 74
     0
 42
0.0000000001
 43
0.0000000001
 40
0.0
 40
0.0
 40
0.0
 40
0.0
 40
1.0
 40
1.0
 40
1.0
 40
1.0
 10
-22.6616
 20
2.434
 30
0.0
 10
-22.6616
 20
2.434
 30
0.0
 10
-22.8046
 20
4.4803
 30
0.0
 10
-22.8046
 20
4.4803
 30
0.0
  0
SPLINE
  5
A1
330
1F
100
AcDbEntity
  8
DEFAULT_1
 62
   250
100
AcDbSpline
210
0.0
220
0.0
230
1.0
 70
    24
 71
     3
 72
     8
 73
     4
 74
     0
 42
0.0000000001
 43
0.0000000001
 40
0.0
 40
0.0
 40
0.0
 40
0.0
 40
1.0
 40
1.0
 40
1.0
 40
1.0
 10
-22.0652
 20
5.5895
 30
0.0
 10
-22.0652
 20
5.5895
 30
0.0
 10
-22.0652
 20
4.4803
 30
0.0
 10
-22.0652
 20
4.4803
 30
0.0
  0
SPLINE
  5
A2
330
1F
100
AcDbEntity
  8
DEFAULT_1
 62
   250
100
AcDbSpline
210
0.0
220
0.0
230
1.0
 70
    24
 71
     3
 72
     8
 73
     4
 74
     0
 42
0.0000000001
 43
0.0000000001
 40
0.0
 40
0.0
 40
0.0
 40
0.0
 40
1.0
 40
1.0
 40
1.0
 40
1.0
 10
-17.5042
 20
-10.3084
 30
0.0
 10
-17.5042
 20
-10.3084
 30
0.0
 10
-18.8106
 20
2.2471
 30
0.0
 10
-18.8106
 20
2.2471
 30
0.0
  0
SPLINE
  5
A3
330
1F
100
AcDbEntity
  8
DEFAULT_1
 62
   250
100
AcDbSpline
210
0.0
220
0.0
230
1.0
 70
    24
 71
     3
 72
     8
 73
     4
 74
     0
 42
0.0000000001
 43
0.0000000001
 40
0.0
 40
0.0
 40
0.0
 40
0.0
 40
1.0
 40
1.0
 40
1.0
 40
1.0
 10
-17.9058
 20
-16.5937
 30
0.0
 10
-17.9058
 20
-16.5937
 30
0.0
 10
-17.9058
 20
-11.4176
 30
0.0
 10
-17.9058
 20
-11.4176
 30
0.0
  0
SPLINE
  5
A4
330
1F
100
AcDbEntity
  8
DEFAULT_1
 62
   250
100
AcDbSpline
210
0.0
220
0.0
230
1.0
 70
    24
 71
     3
 72
     8
 73
     4
 74
     0
 42
0.0000000001
 43
0.0000000001
 40
0.0
 40
0.0
 40
0.0
 40
0.0
 40
1.0
 40
1.0
 40
1.0
 40
1.0
 10
-17.5042
 20
-11.4176
 30
0.0
 10
-17.5042
 20
-11.4176
 30
0.0
 10
-17.5042
 20
-10.3084
 30
0.0
 10
-17.5042
 20
-10.3084
 30
0.0
  0
SPLINE
  5
A5
330
1F
100
AcDbEntity
  8
DEFAULT_1
 62
   250
100
AcDbSpline
210
0.0
220
0.0
230
1.0
 70
    24
 71
     3
 72
     8
 73
     4
 74
     0
 42
0.0000000001
 43
0.0000000001
 40
0.0
 40
0.0
 40
0.0
 40
0.0
 40
1.0
 40
1.0
 40
1.0
 40
1.0
 10
-17.3513
 20
-16.9634
 30
0.0
 10
-17.3513
 20
-16.9634
 30
0.0
 10
-17.3513
 20
-16.5937
 30
0.0
 10
-17.3513
 20
-16.5937
 30
0.0
  0
SPLINE
  5
A6
330
1F
100
AcDbEntity
  8
DEFAULT_1
 62
   250
100
AcDbSpline
210
0.0
220
0.0
230
1.0
 70
    24
 71
     3
 72
     8
 73
     4
 74
     0
 42
0.0000000001
 43
0.0000000001
 40
0.0
 40
0.0
 40
0.0
 40
0.0
 40
1.0
 40
1.0
 40
1.0
 40
1.0
 10
-17.3513
 20
-16.9634
 30
0.0
 10
-17.3513
 20
-16.9634
 30
0.0
 10
-0.8987
 20
-16.9634
 30
0.0
 10
-0.8987
 20
-16.9634
 30
0.0
  0
SPLINE
  5
A7
330
1F
100
AcDbEntity
  8
DEFAULT_1
 62
   250
100
AcDbSpline
210
0.0
220
0.0
230
1.0
 70
    24
 71
     3
 72
     8
 73
     4
 74
     0
 42
0.0000000001
 43
0.0000000001
 40
0.0
 40
0.0
 40
0.0
 40
0.0
 40
1.0
 40
1.0
 40
1.0
 40
1.0
 10
-17.9058
 20
-16.5937
 30
0.0
 10
-17.9058
 20
-16.5937
 30
0.0
 10
-0.3442
 20
-16.5937
 30
0.0
 10
-0.3442
 20
-16.5937
 30
0.0
  0
SPLINE
  5
A8
330
1F
100
AcDbEntity
  8
DEFAULT_1
 62
   250
100
AcDbSpline
210
0.0
220
0.0
230
1.0
 70
    24
 71
     3
 72
     8
 73
     4
 74
     0
 42
0.0000000001
 43
0.0000000001
 40
0.0
 40
0.0
 40
0.0
 40
0.0
 40
1.0
 40
1.0
 40
1.0
 40
1.0
 10
-17.9058
 20
-11.4176
 30
0.0
 10
-17.9058
 20
-11.4176
 30
0.0
 10
-0.3442
 20
-11.4176
 30
0.0
 10
-0.3442
 20
-11.4176
 30
0.0
  0
SPLINE
  5
A9
330
1F
100
AcDbEntity
  8
DEFAULT_1
  6
NEW_LINE1
 62
   250
100
AcDbSpline
210
0.0
220
0.0
230
1.0
 70
    24
 71
     3
 72
     8
 73
     4
 74
     0
 42
0.0000000001
 43
0.0000000001
 40
0.0
 40
0.0
 40
0.0
 40
0.0
 40
1.0
 40
1.0
 40
1.0
 40
1.0
 10
-9.125
 20
26.5093
 30
0.0
 10
-9.125
 20
26.5093
 30
0.0
 10
-9.125
 20
-17.9645
 30
0.0
 10
-9.125
 20
-17.9645
 30
0.0
  0
SPLINE
  5
AB
330
1F
100
AcDbEntity
  8
DEFAULT_1
 62
   250
100
AcDbSpline
210
0.0
220
0.0
230
1.0
 70
    24
 71
     3
 72
     8
 73
     4
 74
     0
 42
0.0000000001
 43
0.0000000001
 40
0.0
 40
0.0
 40
0.0
 40
0.0
 40
1.0
 40
1.0
 40
1.0
 40
1.0
 10
-17.5042
 20
-10.3084
 30
0.0
 10
-17.5042
 20
-10.3084
 30
0.0
 10
-0.7459
 20
-10.3084
 30
0.0
 10
-0.7459
 20
-10.3084
 30
0.0
  0
SPLINE
  5
AC
330
1F
100
AcDbEntity
  8
DEFAULT_1
  6
NEW_LINE2
 62
   250
100
AcDbSpline
210
0.0
220
0.0
230
1.0
 70
    24
 71
     3
 72
     8
 73
     4
 74
     0
 42
0.0000000001
 43
0.0000000001
 40
0.0
 40
0.0
 40
0.0
 40
0.0
 40
1.0
 40
1.0
 40
1.0
 40
1.0
 10
-2.8397
 20
-5.1323
 30
0.0
 10
-2.8397
 20
-5.1323
 30
0.0
 10
26.9227
 20
-5.1323
 30
0.0
 10
26.9227
 20
-5.1323
 30
0.0
  0
SPLINE
  5
AE
330
1F
100
AcDbEntity
  8
DEFAULT_1
 62
   250
100
AcDbSpline
210
0.0
220
0.0
230
1.0
 70
    24
 71
     3
 72
     8
 73
     4
 74
     0
 42
0.0000000001
 43
0.0000000001
 40
0.0
 40
0.0
 40
0.0
 40
0.0
 40
1.0
 40
1.0
 40
1.0
 40
1.0
 10
-0.8987
 20
-16.9634
 30
0.0
 10
-0.8987
 20
-16.9634
 30
0.0
 10
-0.8987
 20
-16.5937
 30
0.0
 10
-0.8987
 20
-16.5937
 30
0.0
  0
SPLINE
  5
AF
330
1F
100
AcDbEntity
  8
DEFAULT_1
 62
   250
100
AcDbSpline
210
0.0
220
0.0
230
1.0
 70
    24
 71
     3
 72
     8
 73
     4
 74
     0
 42
0.0000000001
 43
0.0000000001
 40
0.0
 40
0.0
 40
0.0
 40
0.0
 40
1.0
 40
1.0
 40
1.0
 40
1.0
 10
-0.7459
 20
-11.4176
 30
0.0
 10
-0.7459
 20
-11.4176
 30
0.0
 10
-0.7459
 20
-10.3084
 30
0.0
 10
-0.7459
 20
-10.3084
 30
0.0
  0
SPLINE
  5
B0
330
1F
100
AcDbEntity
  8
DEFAULT_1
 62
   250
100
AcDbSpline
210
0.0
220
0.0
230
1.0
 70
    24
 71
     3
 72
     8
 73
     4
 74
     0
 42
0.0000000001
 43
0.0000000001
 40
0.0
 40
0.0
 40
0.0
 40
0.0
 40
1.0
 40
1.0
 40
1.0
 40
1.0
 10
-0.3441
 20
-16.5937
 30
0.0
 10
-0.3441
 20
-16.5937
 30
0.0
 10
-0.3441
 20
-11.4176
 30
0.0
 10
-0.3441
 20
-11.4176
 30
0.0
  0
SPLINE
  5
B1
330
1F
100
AcDbEntity
  8
DEFAULT_1
 62
   250
100
AcDbSpline
210
0.0
220
0.0
230
1.0
 70
    24
 71
     3
 72
     8
 73
     4
 74
     0
 42
0.0000000001
 43
0.0000000001
 40
0.0
 40
0.0
 40
0.0
 40
0.0
 40
1.0
 40
1.0
 40
1.0
 40
1.0
 10
-0.7459
 20
-10.3084
 30
0.0
 10
-0.7459
 20
-10.3084
 30
0.0
 10
-0.6881
 20
-9.7539
 30
0.0
 10
-0.6881
 20
-9.7539
 30
0.0
  0
SPLINE
  5
B2
330
1F
100
AcDbEntity
  8
DEFAULT_1
 62
   250
100
AcDbSpline
210
0.0
220
0.0
230
1.0
 70
    24
 71
     3
 72
     8
 73
     4
 74
     0
 42
0.0000000001
 43
0.0000000001
 40
0.0
 40
0.0
 40
0.0
 40
0.0
 40
1.0
 40
1.0
 40
1.0
 40
1.0
 10
0.2736
 20
-0.5109
 30
0.0
 10
0.2736
 20
-0.5109
 30
0.0
 10
0.5577
 20
2.2191
 30
0.0
 10
0.5577
 20
2.2191
 30
0.0
  0
SPLINE
  5
B3
330
1F
100
AcDbEntity
  8
DEFAULT_1
 62
   250
100
AcDbSpline
210
0.0
220
0.0
230
1.0
 70
    24
 71
     3
 72
     8
 73
     4
 74
     0
 42
0.0000000001
 43
0.0000000001
 40
0.0
 40
0.0
 40
0.0
 40
0.0
 40
1.0
 40
1.0
 40
1.0
 40
1.0
 10
3.8152
 20
5.5895
 30
0.0
 10
3.8152
 20
5.5895
 30
0.0
 10
3.8152
 20
4.4803
 30
0.0
 10
3.8152
 20
4.4803
 30
0.0
  0
SPLINE
  5
B4
330
1F
100
AcDbEntity
  8
DEFAULT_1
 62
   250
100
AcDbSpline
210
0.0
220
0.0
230
1.0
 70
    24
 71
     3
 72
     8
 73
     4
 74
     0
 42
0.0000000001
 43
0.0000000001
 40
0.0
 40
0.0
 40
0.0
 40
0.0
 40
1.0
 40
1.0
 40
1.0
 40
1.0
 10
4.4116
 20
2.434
 30
0.0
 10
4.4116
 20
2.434
 30
0.0
 10
4.5547
 20
4.4803
 30
0.0
 10
4.5547
 20
4.4803
 30
0.0
  0
SPLINE
  5
B5
330
1F
100
AcDbEntity
  8
DEFAULT_1
 62
   250
100
AcDbSpline
210
0.0
220
0.0
230
1.0
 70
    24
 71
     3
 72
     8
 73
     4
 74
     0
 42
0.0000000001
 43
0.0000000001
 40
0.0
 40
0.0
 40
0.0
 40
0.0
 40
1.0
 40
1.0
 40
1.0
 40
1.0
 10
-22.8046
 20
4.4803
 30
0.0
 10
-22.8046
 20
4.4803
 30
0.0
 10
4.5546
 20
4.4803
 30
0.0
 10
4.5546
 20
4.4803
 30
0.0
  0
SPLINE
  5
B6
330
1F
100
AcDbEntity
  8
DEFAULT_1
 62
   250
100
AcDbSpline
210
0.0
220
0.0
230
1.0
 70
    24
 71
     3
 72
     8
 73
     4
 74
     0
 42
0.0000000001
 43
0.0000000001
 40
0.0
 40
0.0
 40
0.0
 40
0.0
 40
1.0
 40
1.0
 40
1.0
 40
1.0
 10
3.8151
 20
5.5895
 30
0.0
 10
3.8151
 20
5.5895
 30
0.0
 10
-22.0651
 20
5.5895
 30
0.0
 10
-22.0651
 20
5.5895
 30
0.0
  0
SPLINE
  5
B7
330
1F
100
AcDbEntity
  8
DEFAULT_1
 62
   250
100
AcDbSpline
210
0.0
220
0.0
230
1.0
 70
     8
 71
     3
 72
    16
 73
    12
 74
     0
 42
0.0000000001
 43
0.0000000001
 40
0.0
 40
0.0
 40
0.0
 40
0.0
 40
0.25
 40
0.25
 40
0.25
 40
0.25
 40
0.5
 40
0.5
 40
0.5
 40
0.5
 40
1.0
 40
1.0
 40
1.0
 40
1.0
 10
9.5789
 20
0.8714
 30
0.0
 10
9.5789
 20
0.8714
 30
0.0
 10
9.361
 20
0.8755
 30
0.0
 10
9.361
 20
0.8755
 30
0.0
 10
9.361
 20
0.8755
 30
0.0
 10
9.361
 20
0.8755
 30
0.0
 10
9.361
 20
-11.1403
 30
0.0
 10
9.361
 20
-11.1403
 30
0.0
 10
9.361
 20
-11.1403
 30
0.0
 10
9.361
 20
-11.1403
 30
0.0
 10
9.6804
 20
-11.1301
 30
0.0
 10
9.6804
 20
-11.1301
 30
0.0
  0
SPLINE
  5
B8
330
1F
100
AcDbEntity
  8
DEFAULT_1
  6
NEW_LINE3
 62
   250
100
AcDbSpline
210
0.0
220
0.0
230
1.0
 70
    24
 71
     3
 72
     8
 73
     4
 74
     0
 42
0.0000000001
 43
0.0000000001
 40
0.0
 40
0.0
 40
0.0
 40
0.0
 40
1.0
 40
1.0
 40
1.0
 40
1.0
 10
22.4491
 20
-4.3929
 30
0.0
 10
22.4491
 20
-4.3929
 30
0.0
 10
22.4491
 20
-25.8625
 30
0.0
 10
22.4491
 20
-25.8625
 30
0.0
  0
SPLINE
  5
BA
330
1F
100
AcDbEntity
  8
DEFAULT_1
 62
   250
100
AcDbSpline
210
0.0
220
0.0
230
1.0
 70
     8
 71
     3
 72
    92
 73
    88
 74
     0
 42
0.0000000001
 43
0.0000000001
 40
0.0
 40
0.0
 40
0.0
 40
0.0
 40
0.0434782608695652
 40
0.0434782608695652
 40
0.0434782608695652
 40
0.0434782608695652
 40
0.0869565217391304
 40
0.0869565217391304
 40
0.0869565217391304
 40
0.0869565217391304
 40
0.1304347826086956
 40
0.1304347826086956
 40
0.1304347826086956
 40
0.1304347826086956
 40
0.1739130434782609
 40
0.1739130434782609
 40
0.1739130434782609
 40
0.1739130434782609
 40
0.2173913043478261
 40
0.2173913043478261
 40
0.2173913043478261
 40
0.2173913043478261
 40
0.2608695652173913
 40
0.2608695652173913
 40
0.2608695652173913
 40
0.2608695652173913
 40
0.3043478260869565
 40
0.3043478260869565
 40
0.3043478260869565
 40
0.3043478260869565
 40
0.3478260869565217
 40
0.3478260869565217
 40
0.3478260869565217
 40
0.3478260869565217
 40
0.391304347826087
 40
0.391304347826087
 40
0.391304347826087
 40
0.391304347826087
 40
0.4347826086956522
 40
0.4347826086956522
 40
0.4347826086956522
 40
0.4347826086956522
 40
0.4782608695652174
 40
0.4782608695652174
 40
0.4782608695652174
 40
0.4782608695652174
 40
0.5217391304347826
 40
0.5217391304347826
 40
0.5217391304347826
 40
0.5217391304347826
 40
0.5652173913043478
 40
0.5652173913043478
 40
0.5652173913043478
 40
0.5652173913043478
 40
0.6086956521739131
 40
0.6086956521739131
 40
0.6086956521739131
 40
0.6086956521739131
 40
0.6521739130434783
 40
0.6521739130434783
 40
0.6521739130434783
 40
0.6521739130434783
 40
0.6956521739130435
 40
0.6956521739130435
 40
0.6956521739130435
 40
0.6956521739130435
 40
0.7391304347826086
 40
0.7391304347826086
 40
0.7391304347826086
 40
0.7391304347826086
 40
0.782608695652174
 40
0.782608695652174
 40
0.782608695652174
 40
0.782608695652174
 40
0.8260869565217391
 40
0.8260869565217391
 40
0.8260869565217391
 40
0.8260869565217391
 40
0.8695652173913043
 40
0.8695652173913043
 40
0.8695652173913043
 40
0.8695652173913043
 40
0.9130434782608695
 40
0.9130434782608695
 40
0.9130434782608695
 40
0.9130434782608695
 40
1.0
 40
1.0
 40
1.0
 40
1.0
 10
0.2736
 20
-0.5109
 30
0.0
 10
0.2736
 20
-0.5109
 30
0.0
 10
0.2386
 20
-0.57
 30
0.0
 10
0.2386
 20
-0.57
 30
0.0
 10
0.2386
 20
-0.57
 30
0.0
 10
0.2386
 20
-0.57
 30
0.0
 10
0.1263
 20
-0.7619
 30
0.0
 10
0.1263
 20
-0.7619
 30
0.0
 10
0.1263
 20
-0.7619
 30
0.0
 10
0.1263
 20
-0.7619
 30
0.0
 10
-0.0557
 20
-1.0835
 30
0.0
 10
-0.0557
 20
-1.0835
 30
0.0
 10
-0.0557
 20
-1.0835
 30
0.0
 10
-0.0557
 20
-1.0835
 30
0.0
 10
-0.2872
 20
-1.5152
 30
0.0
 10
-0.2872
 20
-1.5152
 30
0.0
 10
-0.2872
 20
-1.5152
 30
0.0
 10
-0.2872
 20
-1.5152
 30
0.0
 10
-0.5358
 20
-2.0152
 30
0.0
 10
-0.5358
 20
-2.0152
 30
0.0
 10
-0.5358
 20
-2.0152
 30
0.0
 10
-0.5358
 20
-2.0152
 30
0.0
 10
-0.7831
 20
-2.5663
 30
0.0
 10
-0.7831
 20
-2.5663
 30
0.0
 10
-0.7831
 20
-2.5663
 30
0.0
 10
-0.7831
 20
-2.5663
 30
0.0
 10
-1.0268
 20
-3.1912
 30
0.0
 10
-1.0268
 20
-3.1912
 30
0.0
 10
-1.0268
 20
-3.1912
 30
0.0
 10
-1.0268
 20
-3.1912
 30
0.0
 10
-1.2459
 20
-3.8796
 30
0.0
 10
-1.2459
 20
-3.8796
 30
0.0
 10
-1.2459
 20
-3.8796
 30
0.0
 10
-1.2459
 20
-3.8796
 30
0.0
 10
-1.4176
 20
-4.6132
 30
0.0
 10
-1.4176
 20
-4.6132
 30
0.0
 10
-1.4176
 20
-4.6132
 30
0.0
 10
-1.4176
 20
-4.6132
 30
0.0
 10
-1.5215
 20
-5.3495
 30
0.0
 10
-1.5215
 20
-5.3495
 30
0.0
 10
-1.5215
 20
-5.3495
 30
0.0
 10
-1.5215
 20
-5.3495
 30
0.0
 10
-1.5542
 20
-6.067
 30
0.0
 10
-1.5542
 20
-6.067
 30
0.0
 10
-1.5542
 20
-6.067
 30
0.0
 10
-1.5542
 20
-6.067
 30
0.0
 10
-1.5207
 20
-6.76
 30
0.0
 10
-1.5207
 20
-6.76
 30
0.0
 10
-1.5207
 20
-6.76
 30
0.0
 10
-1.5207
 20
-6.76
 30
0.0
 10
-1.4296
 20
-7.4225
 30
0.0
 10
-1.4296
 20
-7.4225
 30
0.0
 10
-1.4296
 20
-7.4225
 30
0.0
 10
-1.4296
 20
-7.4225
 30
0.0
 10
-1.3009
 20
-8.0148
 30
0.0
 10
-1.3009
 20
-8.0148
 30
0.0
 10
-1.3009
 20
-8.0148
 30
0.0
 10
-1.3009
 20
-8.0148
 30
0.0
 10
-1.1642
 20
-8.4986
 30
0.0
 10
-1.1642
 20
-8.4986
 30
0.0
 10
-1.1642
 20
-8.4986
 30
0.0
 10
-1.1642
 20
-8.4986
 30
0.0
 10
-1.0431
 20
-8.8637
 30
0.0
 10
-1.0431
 20
-8.8637
 30
0.0
 10
-1.0431
 20
-8.8637
 30
0.0
 10
-1.0431
 20
-8.8637
 30
0.0
 10
-0.9418
 20
-9.1397
 30
0.0
 10
-0.9418
 20
-9.1397
 30
0.0
 10
-0.9418
 20
-9.1397
 30
0.0
 10
-0.9418
 20
-9.1397
 30
0.0
 10
-0.8575
 20
-9.3543
 30
0.0
 10
-0.8575
 20
-9.3543
 30
0.0
 10
-0.8575
 20
-9.3543
 30
0.0
 10
-0.8575
 20
-9.3543
 30
0.0
 10
-0.7873
 20
-9.5247
 30
0.0
 10
-0.7873
 20
-9.5247
 30
0.0
 10
-0.7873
 20
-9.5247
 30
0.0
 10
-0.7873
 20
-9.5247
 30
0.0
 10
-0.7331
 20
-9.6513
 30
0.0
 10
-0.7331
 20
-9.6513
 30
0.0
 10
-0.7331
 20
-9.6513
 30
0.0
 10
-0.7331
 20
-9.6513
 30
0.0
 10
-0.6993
 20
-9.7284
 30
0.0
 10
-0.6993
 20
-9.7284
 30
0.0
 10
-0.6993
 20
-9.7284
 30
0.0
 10
-0.6993
 20
-9.7284
 30
0.0
 10
-0.6881
 20
-9.7539
 30
0.0
 10
-0.6881
 20
-9.7539
 30
0.0
  0
SPLINE
  5
BB
330
1F
100
AcDbEntity
  8
DEFAULT_1
 62
   250
100
AcDbSpline
210
0.0
220
0.0
230
1.0
 70
     8
 71
     3
 72
    36
 73
    32
 74
     0
 42
0.0000000001
 43
0.0000000001
 40
0.0
 40
0.0
 40
0.0
 40
0.0
 40
0.1111111111111111
 40
0.1111111111111111
 40
0.1111111111111111
 40
0.1111111111111111
 40
0.2222222222222222
 40
0.2222222222222222
 40
0.2222222222222222
 40
0.2222222222222222
 40
0.3333333333333333
 40
0.3333333333333333
 40
0.3333333333333333
 40
0.3333333333333333
 40
0.4444444444444444
 40
0.4444444444444444
 40
0.4444444444444444
 40
0.4444444444444444
 40
0.5555555555555556
 40
0.5555555555555556
 40
0.5555555555555556
 40
0.5555555555555556
 40
0.6666666666666666
 40
0.6666666666666666
 40
0.6666666666666666
 40
0.6666666666666666
 40
0.7777777777777778
 40
0.7777777777777778
 40
0.7777777777777778
 40
0.7777777777777778
 40
1.0
 40
1.0
 40
1.0
 40
1.0
 10
0.1985
 20
-0.531
 30
0.0
 10
0.1985
 20
-0.531
 30
0.0
 10
4.2884
 20
-0.6062
 30
0.0
 10
4.2884
 20
-0.6062
 30
0.0
 10
4.2884
 20
-0.6062
 30
0.0
 10
4.2884
 20
-0.6062
 30
0.0
 10
4.3699
 20
-0.5202
 30
0.0
 10
4.3699
 20
-0.5202
 30
0.0
 10
4.3699
 20
-0.5202
 30
0.0
 10
4.3699
 20
-0.5202
 30
0.0
 10
5.339
 20
0.503
 30
0.0
 10
5.339
 20
0.503
 30
0.0
 10
5.339
 20
0.503
 30
0.0
 10
5.339
 20
0.503
 30
0.0
 10
9.361
 20
0.5058
 30
0.0
 10
9.361
 20
0.5058
 30
0.0
 10
9.361
 20
0.5058
 30
0.0
 10
9.361
 20
0.5058
 30
0.0
 10
9.361
 20
-10.7706
 30
0.0
 10
9.361
 20
-10.7706
 30
0.0
 10
9.361
 20
-10.7706
 30
0.0
 10
9.361
 20
-10.7706
 30
0.0
 10
5.3437
 20
-10.7606
 30
0.0
 10
5.3437
 20
-10.7606
 30
0.0
 10
5.3437
 20
-10.7606
 30
0.0
 10
5.3437
 20
-10.7606
 30
0.0
 10
4.4053
 20
-9.761
 30
0.0
 10
4.4053
 20
-9.761
 30
0.0
 10
4.4053
 20
-9.761
 30
0.0
 10
4.4053
 20
-9.761
 30
0.0
 10
-0.6335
 20
-9.7406
 30
0.0
 10
-0.6335
 20
-9.7406
 30
0.0
  0
SPLINE
  5
BC
330
1F
100
AcDbEntity
  8
DEFAULT_1
 62
   250
100
AcDbSpline
210
0.0
220
0.0
230
1.0
 70
    27
 71
     3
 72
    12
 73
     8
 74
     0
 42
0.0000000001
 43
0.0000000001
 40
0.0
 40
0.0
 40
0.0
 40
0.0
 40
0.3333333333333333
 40
0.3333333333333333
 40
0.3333333333333333
 40
0.3333333333333333
 40
1.0
 40
1.0
 40
1.0
 40
1.0
 10
5.2942
 20
0.4135
 30
0.0
 10
5.2942
 20
0.4135
 30
0.0
 10
5.2942
 20
-10.678
 30
0.0
 10
5.2942
 20
-10.678
 30
0.0
 10
5.2942
 20
-10.678
 30
0.0
 10
5.2942
 20
-10.678
 30
0.0
 10
5.2942
 20
0.4135
 30
0.0
 10
5.2942
 20
0.4135
 30
0.0
  0
SPLINE
  5
BD
330
1F
100
AcDbEntity
  8
DEFAULT_1
 62
   250
100
AcDbSpline
210
0.0
220
0.0
230
1.0
 70
    27
 71
     3
 72
    20
 73
    16
 74
     0
 42
0.0000000001
 43
0.0000000001
 40
0.0
 40
0.0
 40
0.0
 40
0.0
 40
0.2
 40
0.2
 40
0.2
 40
0.2
 40
0.4
 40
0.4
 40
0.4
 40
0.4
 40
0.6
 40
0.6
 40
0.6
 40
0.6
 40
1.0
 40
1.0
 40
1.0
 40
1.0
 10
4.3699
 20
-0.5109
 30
0.0
 10
4.3699
 20
-0.5109
 30
0.0
 10
4.3699
 20
-0.5202
 30
0.0
 10
4.3699
 20
-0.5202
 30
0.0
 10
4.3699
 20
-0.5202
 30
0.0
 10
4.3699
 20
-0.5202
 30
0.0
 10
4.3699
 20
-9.7539
 30
0.0
 10
4.3699
 20
-9.7539
 30
0.0
 10
4.3699
 20
-9.7539
 30
0.0
 10
4.3699
 20
-9.7539
 30
0.0
 10
4.3699
 20
-0.5202
 30
0.0
 10
4.3699
 20
-0.5202
 30
0.0
 10
4.3699
 20
-0.5202
 30
0.0
 10
4.3699
 20
-0.5202
 30
0.0
 10
4.3699
 20
-0.5109
 30
0.0
 10
4.3699
 20
-0.5109
 30
0.0
  0
SPLINE
  5
BE
330
1F
100
AcDbEntity
  8
DEFAULT_1
 62
   250
100
AcDbSpline
210
0.0
220
0.0
230
1.0
 70
     8
 71
     3
 72
    12
 73
     8
 74
     0
 42
0.0000000001
 43
0.0000000001
 40
0.0
 40
0.0
 40
0.0
 40
0.0
 40
0.3333333333333333
 40
0.3333333333333333
 40
0.3333333333333333
 40
0.3333333333333333
 40
1.0
 40
1.0
 40
1.0
 40
1.0
 10
-15.2331
 20
5.5895
 30
0.0
 10
-15.648
 20
5.5895
 30
0.0
 10
-16.0024
 20
5.8889
 30
0.0
 10
-16.0716
 20
6.2979
 30
0.0
 10
-16.0716
 20
6.2979
 30
0.0
 10
-16.0716
 20
6.2979
 30
0.0
 10
-16.5461
 20
9.263
 30
0.0
 10
-16.5461
 20
9.263
 30
0.0
  0
SPLINE
  5
BF
330
1F
100
AcDbEntity
  8
DEFAULT_1
 62
   250
100
AcDbSpline
210
0.0
220
0.0
230
1.0
 70
     8
 71
     3
 72
    12
 73
     8
 74
     0
 42
0.0000000001
 43
0.0000000001
 40
0.0
 40
0.0
 40
0.0
 40
0.0
 40
0.3333333333333333
 40
0.3333333333333333
 40
0.3333333333333333
 40
0.3333333333333333
 40
1.0
 40
1.0
 40
1.0
 40
1.0
 10
-3.0168
 20
5.5895
 30
0.0
 10
-2.6019
 20
5.5895
 30
0.0
 10
-2.2477
 20
5.8889
 30
0.0
 10
-2.1784
 20
6.2979
 30
0.0
 10
-2.1784
 20
6.2979
 30
0.0
 10
-2.1784
 20
6.2979
 30
0.0
 10
-1.688
 20
9.263
 30
0.0
 10
-1.688
 20
9.263
 30
0.0
  0
SPLINE
  5
C0
330
1F
100
AcDbEntity
  8
DEFAULT_1
 62
   250
100
AcDbSpline
210
0.0
220
0.0
230
1.0
 70
     8
 71
     3
 72
    48
 73
    44
 74
     0
 42
0.0000000001
 43
0.0000000001
 40
0.0
 40
0.0
 40
0.0
 40
0.0
 40
0.0833333333333333
 40
0.0833333333333333
 40
0.0833333333333333
 40
0.0833333333333333
 40
0.1666666666666667
 40
0.1666666666666667
 40
0.1666666666666667
 40
0.1666666666666667
 40
0.25
 40
0.25
 40
0.25
 40
0.25
 40
0.3333333333333333
 40
0.3333333333333333
 40
0.3333333333333333
 40
0.3333333333333333
 40
0.4166666666666667
 40
0.4166666666666667
 40
0.4166666666666667
 40
0.4166666666666667
 40
0.5
 40
0.5
 40
0.5
 40
0.5
 40
0.5833333333333334
 40
0.5833333333333334
 40
0.5833333333333334
 40
0.5833333333333334
 40
0.6666666666666666
 40
0.6666666666666666
 40
0.6666666666666666
 40
0.6666666666666666
 40
0.75
 40
0.75
 40
0.75
 40
0.75
 40
0.8333333333333334
 40
0.8333333333333334
 40
0.8333333333333334
 40
0.8333333333333334
 40
1.0
 40
1.0
 40
1.0
 40
1.0
 10
-16.7789
 20
10.0299
 30
0.0
 10
-17.0015
 20
10.4591
 30
0.0
 10
-17.4114
 20
10.76
 30
0.0
 10
-17.8876
 20
10.844
 30
0.0
 10
-17.8876
 20
10.844
 30
0.0
 10
-17.8876
 20
10.844
 30
0.0
 10
-20.6626
 20
11.3303
 30
0.0
 10
-20.6626
 20
11.3303
 30
0.0
 10
-20.6626
 20
11.3303
 30
0.0
 10
-20.6626
 20
11.3303
 30
0.0
 10
-20.6205
 20
11.6111
 30
0.0
 10
-20.6205
 20
11.6111
 30
0.0
 10
-20.6205
 20
11.6111
 30
0.0
 10
-20.6205
 20
11.6111
 30
0.0
 10
-8.0216
 20
11.6111
 30
0.0
 10
-8.0216
 20
11.6111
 30
0.0
 10
-8.0216
 20
11.6111
 30
0.0
 10
-8.0216
 20
11.6111
 30
0.0
 10
2.3911
 20
11.583
 30
0.0
 10
2.3911
 20
11.583
 30
0.0
 10
2.3911
 20
11.583
 30
0.0
 10
2.3911
 20
11.583
 30
0.0
 10
2.4332
 20
11.3443
 30
0.0
 10
2.4332
 20
11.3443
 30
0.0
 10
2.4332
 20
11.3443
 30
0.0
 10
2.4332
 20
11.3443
 30
0.0
 10
-0.5239
 20
10.7966
 30
0.0
 10
-0.5239
 20
10.7966
 30
0.0
 10
-0.5239
 20
10.7966
 30
0.0
 10
-0.5239
 20
10.7966
 30
0.0
 10
-0.9723
 20
10.6
 30
0.0
 10
-0.9723
 20
10.6
 30
0.0
 10
-0.9723
 20
10.6
 30
0.0
 10
-0.9723
 20
10.6
 30
0.0
 10
-1.2246
 20
10.3472
 30
0.0
 10
-1.2246
 20
10.3472
 30
0.0
 10
-1.2246
 20
10.3472
 30
0.0
 10
-1.2246
 20
10.3472
 30
0.0
 10
-1.3507
 20
10.2349
 30
0.0
 10
-1.3507
 20
10.2349
 30
0.0
 10
-1.3507
 20
10.2349
 30
0.0
 10
-1.3507
 20
10.2349
 30
0.0
 10
-1.3928
 20
10.0664
 30
0.0
 10
-1.3928
 20
10.0664
 30
0.0
  0
SPLINE
  5
C1
330
1F
100
AcDbEntity
  8
DEFAULT_1
 62
   250
100
AcDbSpline
210
0.0
220
0.0
230
1.0
 70
    24
 71
     3
 72
     8
 73
     4
 74
     0
 42
0.0000000001
 43
0.0000000001
 40
0.0
 40
0.0
 40
0.0
 40
0.0
 40
1.0
 40
1.0
 40
1.0
 40
1.0
 10
-22.4771
 20
2.262
 30
0.0
 10
-22.4771
 20
2.262
 30
0.0
 10
4.227
 20
2.262
 30
0.0
 10
4.227
 20
2.262
 30
0.0
  0
SPLINE
  5
C2
330
1F
100
AcDbEntity
  8
DEFAULT_1
 62
   250
100
AcDbSpline
210
0.0
220
0.0
230
1.0
 70
     8
 71
     3
 72
     8
 73
     4
 74
     0
 42
0.0000000001
 43
0.0000000001
 40
0.0
 40
0.0
 40
0.0
 40
0.0
 40
1.0
 40
1.0
 40
1.0
 40
1.0
 10
-22.6616
 20
2.434
 30
0.0
 10
-22.6548
 20
2.3371
 30
0.0
 10
-22.5742
 20
2.262
 30
0.0
 10
-22.4771
 20
2.262
 30
0.0
  0
SPLINE
  5
C3
330
1F
100
AcDbEntity
  8
DEFAULT_1
 62
   250
100
AcDbSpline
210
0.0
220
0.0
230
1.0
 70
     8
 71
     3
 72
     8
 73
     4
 74
     0
 42
0.0000000001
 43
0.0000000001
 40
0.0
 40
0.0
 40
0.0
 40
0.0
 40
1.0
 40
1.0
 40
1.0
 40
1.0
 10
4.2272
 20
2.262
 30
0.0
 10
4.3243
 20
2.262
 30
0.0
 10
4.4048
 20
2.3371
 30
0.0
 10
4.4116
 20
2.434
 30
0.0
  0
ENDSEC
  0
SECTION
  2
OBJECTS
  0
DICTIONARY
  5
C
330
0
100
AcDbDictionary
  3
ACAD_GROUP
350
D
  3
ACAD_LAYOUT
350
1A
  3
ACAD_MATERIAL
350
3B
  3
ACAD_MLEADERSTYLE
350
E6
  3
ACAD_MLINESTYLE
350
17
  3
ACAD_PLOTSETTINGS
350
19
  3
ACAD_VISUALSTYLE
350
2A
  3
ACDBHEADERROUNDTRIPXREC
350
C4
  3
ACDBVARIABLEDICTIONARY
350
E4
  0
DICTIONARY
  5
D
102
{ACAD_REACTORS
330
C
102
}
330
C
100
AcDbDictionary
  0
DICTIONARY
  5
1A
102
{ACAD_REACTORS
330
C
102
}
330
C
100
AcDbDictionary
  0
DICTIONARY
  5
3B
102
{ACAD_REACTORS
330
C
102
}
330
C
100
AcDbDictionary
  3
BYBLOCK
350
3D
  3
BYLAYER
350
3C
  3
GLOBAL
350
3E
  0
DICTIONARY
  5
E6
102
{ACAD_REACTORS
330
C
102
}
330
C
100
AcDbDictionary
  0
DICTIONARY
  5
17
102
{ACAD_REACTORS
330
C
102
}
330
C
100
AcDbDictionary
  3
STANDARD
350
18
  0
DICTIONARY
  5
19
102
{ACAD_REACTORS
330
C
102
}
330
C
100
AcDbDictionary
  0
DICTIONARY
  5
2A
102
{ACAD_REACTORS
330
C
102
}
330
C
100
AcDbDictionary
  3
2DWIREFRAME
350
2F
  3
3D_HIDDEN
350
31
  3
3DWIREFRAME
350
30
  3
BASIC
350
32
  3
BRIGHTEN
350
36
  3
COLORCHANGE
350
3A
  3
CONCEPTUAL
350
34
  3
DIM
350
35
  3
FACEPATTERN
350
39
  3
FLAT
350
2B
  3
FLATWITHEDGES
350
2C
  3
GOURAUD
350
2D
  3
GOURAUDWITHEDGES
350
2E
  3
LINEPATTERN
350
38
  3
REALISTIC
350
33
  3
THICKEN
350
37
  0
DICTIONARY
  5
C4
102
{ACAD_REACTORS
330
C
102
}
330
C
100
AcDbDictionary
  3
CEPSNTYPE
350
CD
  3
DIMSTYLEDATA
350
E3
  3
FINGERPRINTGUID
350
CE
  3
HYPERLINKBASE
350
C7
  3
INSUNITS
350
CC
  3
LAYOUTDICT
350
C9
  3
LWETCUNION
350
CB
  3
PLOTSETDICT
350
CA
  3
PSVPSCALE
350
D0
  3
PUCSBASE
350
D3
  3
PUCSORGBACK
350
D9
  3
PUCSORGBOTTOM
350
D5
  3
PUCSORGFRONT
350
D8
  3
PUCSORGLEFT
350
D6
  3
PUCSORGRIGHT
350
D7
  3
PUCSORGTOP
350
D4
  3
PUCSORTHOREF
350
D1
  3
PUCSORTHOVIEW
350
D2
  3
STYLESHEET
350
C8
  3
TSTACKALIGN
350
C5
  3
TSTACKSIZE
350
C6
  3
UCSBASE
350
DC
  3
UCSORGBACK
350
E2
  3
UCSORGBOTTOM
350
DE
  3
UCSORGFRONT
350
E1
  3
UCSORGLEFT
350
DF
  3
UCSORGRIGHT
350
E0
  3
UCSORGTOP
350
DD
  3
UCSORTHOREF
350
DA
  3
UCSORTHOVIEW
350
DB
  3
VERSIONGUID
350
CF
  0
DICTIONARY
  5
E4
102
{ACAD_REACTORS
330
C
102
}
330
C
100
AcDbDictionary
  3
DIMASSOC
350
E7
  3
HIDETEXT
350
E8
  0
MATERIAL
  5
3D
102
{ACAD_REACTORS
330
3B
102
}
102
{ACAD_XDICTIONARY
360
EB
102
}
330
3B
100
AcDbMaterial
  1
ByBlock
  0
MATERIAL
  5
3C
102
{ACAD_REACTORS
330
3B
102
}
102
{ACAD_XDICTIONARY
360
E9
102
}
330
3B
100
AcDbMaterial
  1
ByLayer
  0
MATERIAL
  5
3E
102
{ACAD_REACTORS
330
3B
102
}
102
{ACAD_XDICTIONARY
360
ED
102
}
330
3B
100
AcDbMaterial
  1
Global
  0
MLINESTYLE
  5
18
102
{ACAD_REACTORS
330
17
102
}
330
17
100
AcDbMlineStyle
  2
Standard
 70
     0
  3

 62
   256
 51
90.0
 52
90.0
 71
     2
 49
0.5
 62
   256
  6
BYLAYER
 49
-0.5
 62
   256
  6
BYLAYER
  0
ACAD_PROXY_OBJECT
  5
2F
102
{ACAD_REACTORS
330
2A
102
}
330
2A
100
AcDbProxyObject
 90
      499
 91
      501
 93
      436
310
42CC9915DA5C99599C985B595049028333333333333E3BF0000000000000FB0107901411070040501600405405064090741402480A0340
1001
ACAD
1000
AcDbSavedByObjectVersion
1070
     0
  0
ACAD_PROXY_OBJECT
  5
31
102
{ACAD_REACTORS
330
2A
102
}
330
2A
100
AcDbProxyObject
 90
      499
 91
      501
 93
      500
310
424CD108121A5919195B90640502408333333333333E3BF0000000000000FB01079024090700405020000000000001110200405405064090740C02480A0340
1001
ACAD
1000
AcDbSavedByObjectVersion
1070
     0
  0
ACAD_PROXY_OBJECT
  5
30
102
{ACAD_REACTORS
330
2A
102
}
330
2A
100
AcDbProxyObject
 90
      499
 91
      501
 93
      436
310
42CCD915DA5C99599C985B595059028333333333333E3BF0000000000000FB0107901411070040501600405405064090741402480A0340
1001
ACAD
1000
AcDbSavedByObjectVersion
1070
     0
  0
ACAD_PROXY_OBJECT
  5
32
102
{ACAD_REACTORS
330
2A
102
}
330
2A
100
AcDbProxyObject
 90
      499
 91
      501
 93
      388
310
4150985CDA58D07406404333333333333E3BF0000000000000FB0107A41107004050150841D405064090741402480A0350
1001
ACAD
1000
AcDbSavedByObjectVersion
1070
     0
  0
ACAD_PROXY_OBJECT
  5
36
102
{ACAD_REACTORS
330
2A
102
}
330
2A
100
AcDbProxyObject
 90
      499
 91
      501
 93
      428
310
42109C9A59DA1D195B90C409028333333333333E3BF0000000000000FB010790141107004050150841D405064090741402480A029950
1001
ACAD
1000
AcDbSavedByObjectVersion
1070
     0
  0
ACAD_PROXY_OBJECT
  5
3A
102
{ACAD_REACTORS
330
2A
102
}
330
2A
100
AcDbProxyObject
 90
      499
 91
      501
 93
      452
310
42D0DBDB1BDC90DA185B99D95104090240C333333333333E3BF0000000000000FB0108901411070040501508421405064090741402480A0350
1001
ACAD
1000
AcDbSavedByObjectVersion
1070
     0
  0
ACAD_PROXY_OBJECT
  5
34
102
{ACAD_REACTORS
330
2A
102
}
330
2A
100
AcDbProxyObject
 90
      499
 91
      501
 93
      500
310
4290DBDB98D95C1D1D585B10940D028333333333333E3BF0000000000000FB0107902409070040501000000000000111010841D405064090740C02480A0340
1001
ACAD
1000
AcDbSavedByObjectVersion
1070
     0
  0
ACAD_PROXY_OBJECT
  5
35
102
{ACAD_REACTORS
330
2A
102
}
330
2A
100
AcDbProxyObject
 90
      499
 91
      501
 93
      412
310
40D11A5B50B409028333333333333E3BF0000000000000FB010790141107004050150841D405064090741402480A02677FFFFFD0
1001
ACAD
1000
AcDbSavedByObjectVersion
1070
     0
  0
ACAD_PROXY_OBJECT
  5
39
102
{ACAD_REACTORS
330
2A
102
}
330
2A
100
AcDbProxyObject
 90
      499
 91
      501
 93
      444
310
42D19858D95C185D1D195C9B90F409028333333333333E3BF0000000000000FB010790141107004050150841D405064090741402480A0350
1001
ACAD
1000
AcDbSavedByObjectVersion
1070
     0
  0
ACAD_PROXY_OBJECT
  5
2B
102
{ACAD_REACTORS
330
2A
102
}
330
2A
100
AcDbProxyObject
 90
      499
 91
      501
 93
      388
310
41119B185D240901404333333333333E3BF0000000000000F9010740A41107004050150841D405064090741402480A1B50
1001
ACAD
1000
AcDbSavedByObjectVersion
1070
     0
  0
ACAD_PROXY_OBJECT
  5
2C
102
{ACAD_REACTORS
330
2A
102
}
330
2A
100
AcDbProxyObject
 90
      499
 91
      501
 93
      476
310
43519B185D15DA5D1A115919D95CD0140901404333333333333E3BF0000000000000F9010740901411070040501600405405064090741402480A1B50
1001
ACAD
1000
AcDbSavedByObjectVersion
1070
     0
  0
ACAD_PROXY_OBJECT
  5
2D
102
{ACAD_REACTORS
330
2A
102
}
330
2A
100
AcDbProxyObject
 90
      499
 91
      501
 93
      412
310
41D1DBDD5C985D5910240902404333333333333E3BF0000000000000F9010740A411070040501641D405064090741402480A1B50
1001
ACAD
1000
AcDbSavedByObjectVersion
1070
     0
  0
ACAD_PROXY_OBJECT
  5
2E
102
{ACAD_REACTORS
330
2A
102
}
330
2A
100
AcDbProxyObject
 90
      499
 91
      501
 93
      500
310
4411DBDD5C985D5915DA5D1A115919D95CD0340902404333333333333E3BF0000000000000F9010740901411070040501600405405064090741402480A1B50
1001
ACAD
1000
AcDbSavedByObjectVersion
1070
     0
  0
ACAD_PROXY_OBJECT
  5
38
102
{ACAD_REACTORS
330
2A
102
}
330
2A
100
AcDbProxyObject
 90
      499
 91
      501
 93
      444
310
42D31A5B995C185D1D195C9B90E409028333333333333E3BF0000000000000FB010790141107004050750841D405064090741402483A0350
1001
ACAD
1000
AcDbSavedByObjectVersion
1070
     0
  0
ACAD_PROXY_OBJECT
  5
33
102
{ACAD_REACTORS
330
2A
102
}
330
2A
100
AcDbProxyObject
 90
      499
 91
      501
 93
      420
310
425499585B1A5CDD1A58D08409028333333333333E3BF0000000000000FB01079019070040501508421405064090741402480A1B40
1001
ACAD
1000
AcDbSavedByObjectVersion
1070
     0
  0
ACAD_PROXY_OBJECT
  5
37
102
{ACAD_REACTORS
330
2A
102
}
330
2A
100
AcDbProxyObject
 90
      499
 91
      501
 93
      412
310
41D51A1A58DAD95B90D409028333333333333E3BF0000000000000FB010790141107004050150C41D405064090741402480A0350
1001
ACAD
1000
AcDbSavedByObjectVersion
1070
     0
  0
XRECORD
  5
CD
102
{ACAD_REACTORS
330
C4
102
}
330
C4
100
AcDbXrecord
 90
        0
  0
XRECORD
  5
E3
102
{ACAD_REACTORS
330
C4
102
}
330
C4
100
AcDbXrecord
1000
DSTYLE
1002
{
1070
   340
340
11
1002
}
  0
XRECORD
  5
CE
102
{ACAD_REACTORS
330
C4
102
}
330
C4
100
AcDbXrecord
  1
{1932573B-5B94-4504-9E90-DACBA8A449B3}
  0
XRECORD
  5
C7
102
{ACAD_REACTORS
330
C4
102
}
330
C4
100
AcDbXrecord
  1

  0
XRECORD
  5
CC
102
{ACAD_REACTORS
330
C4
102
}
330
C4
100
AcDbXrecord
 90
        4
  0
XRECORD
  5
C9
102
{ACAD_REACTORS
330
C4
102
}
330
C4
100
AcDbXrecord
340
1A
  0
XRECORD
  5
CB
102
{ACAD_REACTORS
330
C4
102
}
330
C4
100
AcDbXrecord
 90
    10781
  0
XRECORD
  5
CA
102
{ACAD_REACTORS
330
C4
102
}
330
C4
100
AcDbXrecord
340
19
  0
XRECORD
  5
D0
102
{ACAD_REACTORS
330
C4
102
}
330
C4
100
AcDbXrecord
 40
0.0
  0
XRECORD
  5
D3
102
{ACAD_REACTORS
330
C4
102
}
330
C4
100
AcDbXrecord
340
0
  0
XRECORD
  5
D9
102
{ACAD_REACTORS
330
C4
102
}
330
C4
100
AcDbXrecord
 10
0.0
 20
0.0
 30
0.0
  0
XRECORD
  5
D5
102
{ACAD_REACTORS
330
C4
102
}
330
C4
100
AcDbXrecord
 10
0.0
 20
0.0
 30
0.0
  0
XRECORD
  5
D8
102
{ACAD_REACTORS
330
C4
102
}
330
C4
100
AcDbXrecord
 10
0.0
 20
0.0
 30
0.0
  0
XRECORD
  5
D6
102
{ACAD_REACTORS
330
C4
102
}
330
C4
100
AcDbXrecord
 10
0.0
 20
0.0
 30
0.0
  0
XRECORD
  5
D7
102
{ACAD_REACTORS
330
C4
102
}
330
C4
100
AcDbXrecord
 10
0.0
 20
0.0
 30
0.0
  0
XRECORD
  5
D4
102
{ACAD_REACTORS
330
C4
102
}
330
C4
100
AcDbXrecord
 10
0.0
 20
0.0
 30
0.0
  0
XRECORD
  5
D1
102
{ACAD_REACTORS
330
C4
102
}
330
C4
100
AcDbXrecord
340
0
  0
XRECORD
  5
D2
102
{ACAD_REACTORS
330
C4
102
}
330
C4
100
AcDbXrecord
 70
     0
  0
XRECORD
  5
C8
102
{ACAD_REACTORS
330
C4
102
}
330
C4
100
AcDbXrecord
  1

  0
XRECORD
  5
C5
102
{ACAD_REACTORS
330
C4
102
}
330
C4
100
AcDbXrecord
 90
        1
  0
XRECORD
  5
C6
102
{ACAD_REACTORS
330
C4
102
}
330
C4
100
AcDbXrecord
 90
       70
  0
XRECORD
  5
DC
102
{ACAD_REACTORS
330
C4
102
}
330
C4
100
AcDbXrecord
340
0
  0
XRECORD
  5
E2
102
{ACAD_REACTORS
330
C4
102
}
330
C4
100
AcDbXrecord
 10
0.0
 20
0.0
 30
0.0
  0
XRECORD
  5
DE
102
{ACAD_REACTORS
330
C4
102
}
330
C4
100
AcDbXrecord
 10
0.0
 20
0.0
 30
0.0
  0
XRECORD
  5
E1
102
{ACAD_REACTORS
330
C4
102
}
330
C4
100
AcDbXrecord
 10
0.0
 20
0.0
 30
0.0
  0
XRECORD
  5
DF
102
{ACAD_REACTORS
330
C4
102
}
330
C4
100
AcDbXrecord
 10
0.0
 20
0.0
 30
0.0
  0
XRECORD
  5
E0
102
{ACAD_REACTORS
330
C4
102
}
330
C4
100
AcDbXrecord
 10
0.0
 20
0.0
 30
0.0
  0
XRECORD
  5
DD
102
{ACAD_REACTORS
330
C4
102
}
330
C4
100
AcDbXrecord
 10
0.0
 20
0.0
 30
0.0
  0
XRECORD
  5
DA
102
{ACAD_REACTORS
330
C4
102
}
330
C4
100
AcDbXrecord
340
0
  0
XRECORD
  5
DB
102
{ACAD_REACTORS
330
C4
102
}
330
C4
100
AcDbXrecord
 70
     0
  0
XRECORD
  5
CF
102
{ACAD_REACTORS
330
C4
102
}
330
C4
100
AcDbXrecord
  1
{FAEB1C32-E019-11D5-929B-00C0DF256EC4}
  0
DICTIONARYVAR
  5
E7
102
{ACAD_REACTORS
330
E4
102
}
330
E4
100
DictionaryVariables
280
     0
  1
2
  0
DICTIONARYVAR
  5
E8
102
{ACAD_REACTORS
330
E4
102
}
330
E4
100
DictionaryVariables
280
     0
  1
1
  0
DICTIONARY
  5
EB
330
3D
100
AcDbDictionary
280
     1
  3
ACAD_XREC_ROUNDTRIP
360
EC
  0
DICTIONARY
  5
E9
330
3C
100
AcDbDictionary
280
     1
  3
ACAD_XREC_ROUNDTRIP
360
EA
  0
DICTIONARY
  5
ED
330
3E
100
AcDbDictionary
280
     1
  3
ACAD_XREC_ROUNDTRIP
360
EE
  0
XRECORD
  5
EC
102
{ACAD_REACTORS
330
EB
102
}
330
EB
100
AcDbXrecord
102
MATERIAL
148
0.0
149
0.0
149
0.0
 93
        0
 94
      127
282
     0
 72
     1
 77
     1
171
     1
175
     1
179
     1
273
     0
  0
XRECORD
  5
EA
102
{ACAD_REACTORS
330
E9
102
}
330
E9
100
AcDbXrecord
102
MATERIAL
148
0.0
149
0.0
149
0.0
 93
        0
 94
      127
282
     0
 72
     1
 77
     1
171
     1
175
     1
179
     1
273
     0
  0
XRECORD
  5
EE
102
{ACAD_REACTORS
330
ED
102
}
330
ED
100
AcDbXrecord
102
MATERIAL
148
0.0
149
0.0
149
0.0
 93
        0
 94
      127
282
     0
 72
     1
 77
     1
171
     1
175
     1
179
     1
273
     0
  0
ENDSEC
  0
EOF
