  0
SECTION
  2
HEADER
  9
$ACADVER
  1
AC1014
  9
$ACADMAINTVER
 70
     9
  9
$DWGCODEPAGE
  3
ANSI_1250
  9
$INSBASE
 10
0.0
 20
0.0
 30
0.0
  9
$EXTMIN
 10
-17.5354
 20
-36.442
 30
0.0
  9
$EXTMAX
 10
17.535
 20
36.3146
 30
0.0
  9
$LIMMIN
 10
0.0
 20
0.0
  9
$LIMMAX
 10
12.0
 20
9.0
  9
$ORTHOMODE
 70
     0
  9
$REGENMODE
 70
     1
  9
$FILLMODE
 70
     1
  9
$QTEXTMODE
 70
     0
  9
$MIRRTEXT
 70
     1
  9
$DRAGMODE
 70
     2
  9
$LTSCALE
 40
1.0
  9
$OSMODE
 70
    37
  9
$ATTMODE
 70
     1
  9
$TEXTSIZE
 40
0.2
  9
$TRACEWID
 40
0.05
  9
$TEXTSTYLE
  7
STANDARD
  9
$CLAYER
  8
0
  9
$CELTYPE
  6
BYLAYER
  9
$CECOLOR
 62
   256
  9
$CELTSCALE
 40
1.0
  9
$DELOBJ
 70
     1
  9
$DISPSILH
 70
     0
  9
$DIMSCALE
 40
1.0
  9
$DIMASZ
 40
0.18
  9
$DIMEXO
 40
0.0625
  9
$DIMDLI
 40
0.38
  9
$DIMRND
 40
0.0
  9
$DIMDLE
 40
0.0
  9
$DIMEXE
 40
0.18
  9
$DIMTP
 40
0.0
  9
$DIMTM
 40
0.0
  9
$DIMTXT
 40
0.18
  9
$DIMCEN
 40
0.09
  9
$DIMTSZ
 40
0.0
  9
$DIMTOL
 70
     0
  9
$DIMLIM
 70
     0
  9
$DIMTIH
 70
     1
  9
$DIMTOH
 70
     1
  9
$DIMSE1
 70
     0
  9
$DIMSE2
 70
     0
  9
$DIMTAD
 70
     0
  9
$DIMZIN
 70
     0
  9
$DIMBLK
  1

  9
$DIMASO
 70
     1
  9
$DIMSHO
 70
     1
  9
$DIMPOST
  1

  9
$DIMAPOST
  1

  9
$DIMALT
 70
     0
  9
$DIMALTD
 70
     2
  9
$DIMALTF
 40
25.4
  9
$DIMLFAC
 40
1.0
  9
$DIMTOFL
 70
     0
  9
$DIMTVP
 40
0.0
  9
$DIMTIX
 70
     0
  9
$DIMSOXD
 70
     0
  9
$DIMSAH
 70
     0
  9
$DIMBLK1
  1

  9
$DIMBLK2
  1

  9
$DIMSTYLE
  2
STANDARD
  9
$DIMCLRD
 70
     0
  9
$DIMCLRE
 70
     0
  9
$DIMCLRT
 70
     0
  9
$DIMTFAC
 40
1.0
  9
$DIMGAP
 40
0.09
  9
$DIMJUST
 70
     0
  9
$DIMSD1
 70
     0
  9
$DIMSD2
 70
     0
  9
$DIMTOLJ
 70
     1
  9
$DIMTZIN
 70
     0
  9
$DIMALTZ
 70
     0
  9
$DIMALTTZ
 70
     0
  9
$DIMFIT
 70
     3
  9
$DIMUPT
 70
     0
  9
$DIMUNIT
 70
     2
  9
$DIMDEC
 70
     4
  9
$DIMTDEC
 70
     4
  9
$DIMALTU
 70
     2
  9
$DIMALTTD
 70
     2
  9
$DIMTXSTY
  7
STANDARD
  9
$DIMAUNIT
 70
     0
  9
$LUNITS
 70
     2
  9
$LUPREC
 70
     4
  9
$SKETCHINC
 40
0.1
  9
$FILLETRAD
 40
0.5
  9
$AUNITS
 70
     0
  9
$AUPREC
 70
     0
  9
$MENU
  1
.
  9
$ELEVATION
 40
0.0
  9
$PELEVATION
 40
0.0
  9
$THICKNESS
 40
0.0
  9
$LIMCHECK
 70
     0
  9
$CHAMFERA
 40
0.5
  9
$CHAMFERB
 40
0.5
  9
$CHAMFERC
 40
1.0
  9
$CHAMFERD
 40
0.0
  9
$SKPOLY
 70
     0
  9
$TDCREATE
 40
2456223.341422245
  9
$TDUPDATE
 40
2456223.341422257
  9
$TDINDWG
 40
0.0000000116
  9
$TDUSRTIMER
 40
0.0000000116
  9
$USRTIMER
 70
     1
  9
$ANGBASE
 50
0.0
  9
$ANGDIR
 70
     0
  9
$PDMODE
 70
     0
  9
$PDSIZE
 40
0.0
  9
$PLINEWID
 40
0.0
  9
$COORDS
 70
     1
  9
$SPLFRAME
 70
     0
  9
$SPLINETYPE
 70
     6
  9
$SPLINESEGS
 70
     8
  9
$ATTDIA
 70
     0
  9
$ATTREQ
 70
     1
  9
$HANDLING
 70
     1
  9
$HANDSEED
  5
BE
  9
$SURFTAB1
 70
     6
  9
$SURFTAB2
 70
     6
  9
$SURFTYPE
 70
     6
  9
$SURFU
 70
     6
  9
$SURFV
 70
     6
  9
$UCSNAME
  2

  9
$UCSORG
 10
0.0
 20
0.0
 30
0.0
  9
$UCSXDIR
 10
1.0
 20
0.0
 30
0.0
  9
$UCSYDIR
 10
0.0
 20
1.0
 30
0.0
  9
$PUCSNAME
  2

  9
$PUCSORG
 10
0.0
 20
0.0
 30
0.0
  9
$PUCSXDIR
 10
1.0
 20
0.0
 30
0.0
  9
$PUCSYDIR
 10
0.0
 20
1.0
 30
0.0
  9
$USERI1
 70
     0
  9
$USERI2
 70
     0
  9
$USERI3
 70
     0
  9
$USERI4
 70
     0
  9
$USERI5
 70
     0
  9
$USERR1
 40
0.0
  9
$USERR2
 40
0.0
  9
$USERR3
 40
0.0
  9
$USERR4
 40
0.0
  9
$USERR5
 40
0.0
  9
$WORLDVIEW
 70
     1
  9
$SHADEDGE
 70
     3
  9
$SHADEDIF
 70
    70
  9
$TILEMODE
 70
     1
  9
$MAXACTVP
 70
    64
  9
$PINSBASE
 10
0.0
 20
0.0
 30
0.0
  9
$PLIMCHECK
 70
     0
  9
$PEXTMIN
 10
1.000000000000000E+20
 20
1.000000000000000E+20
 30
1.000000000000000E+20
  9
$PEXTMAX
 10
-1.000000000000000E+20
 20
-1.000000000000000E+20
 30
-1.000000000000000E+20
  9
$PLIMMIN
 10
0.0
 20
0.0
  9
$PLIMMAX
 10
12.0
 20
9.0
  9
$UNITMODE
 70
     0
  9
$VISRETAIN
 70
     1
  9
$PLINEGEN
 70
     0
  9
$PSLTSCALE
 70
     1
  9
$TREEDEPTH
 70
  3020
  9
$PICKSTYLE
 70
     1
  9
$CMLSTYLE
  2
STANDARD
  9
$CMLJUST
 70
     0
  9
$CMLSCALE
 40
1.0
  9
$PROXYGRAPHICS
 70
     1
  9
$MEASUREMENT
 70
     0
  0
ENDSEC
  0
SECTION
  2
CLASSES
  0
CLASS
  1
ACDBDICTIONARYWDFLT
  2
AcDbDictionaryWithDefault
  3
ObjectDBX Classes
 90
        0
280
     0
281
     0
  0
CLASS
  1
VISUALSTYLE
  2
AcDbVisualStyle
  3
ObjectDBX Classes
 90
     4095
280
     0
281
     0
  0
CLASS
  1
MATERIAL
  2
AcDbMaterial
  3
ObjectDBX Classes
 90
     1153
280
     0
281
     0
  0
CLASS
  1
DICTIONARYVAR
  2
AcDbDictionaryVar
  3
ObjectDBX Classes
 90
        0
280
     0
281
     0
  0
CLASS
  1
XRECORD
  2
AcDbXrecord
  3
AutoCAD 2000
 90
        0
280
     0
281
     0
  0
CLASS
  1
LWPOLYLINE
  2
AcDbPolyline
  3
AutoCAD 2000
 90
        0
280
     0
281
     1
  0
CLASS
  1
HATCH
  2
AcDbHatch
  3
AutoCAD 2000
 90
        0
280
     0
281
     1
  0
CLASS
  1
ACDBPLACEHOLDER
  2
AcDbPlaceHolder
  3
ObjectDBX Classes
 90
        0
280
     0
281
     0
  0
CLASS
  1
LAYOUT
  2
AcDbLayout
  3
ObjectDBX Classes
 90
        0
280
     0
281
     0
  0
ENDSEC
  0
SECTION
  2
TABLES
  0
TABLE
  2
VPORT
  5
8
330
0
100
AcDbSymbolTable
 70
     1
  0
VPORT
  5
29
330
8
100
AcDbSymbolTableRecord
100
AcDbViewportTableRecord
  2
*ACTIVE
 70
     0
 10
0.0
 20
0.0
 11
1.0
 21
1.0
 12
10.42990654205607
 22
4.5
 13
0.0
 23
0.0
 14
0.5
 24
0.5
 15
0.5
 25
0.5
 16
0.0
 26
0.0
 36
1.0
 17
0.0
 27
0.0
 37
0.0
 40
9.0
 41
1.972972972850329
 42
50.0
 43
0.0
 44
0.0
 50
0.0
 51
0.0
 71
     0
 72
   100
 73
     1
 74
     3
 75
     0
 76
     0
 77
     0
 78
     0
  0
ENDTAB
  0
TABLE
  2
LTYPE
  5
5
330
0
100
AcDbSymbolTable
 70
     7
  0
LTYPE
  5
14
330
5
100
AcDbSymbolTableRecord
100
AcDbLinetypeTableRecord
  2
BYBLOCK
 70
     0
  3

 72
    65
 73
     0
 40
0.0
  0
LTYPE
  5
15
330
5
100
AcDbSymbolTableRecord
100
AcDbLinetypeTableRecord
  2
BYLAYER
 70
     0
  3

 72
    65
 73
     0
 40
0.0
  0
LTYPE
  5
16
330
5
100
AcDbSymbolTableRecord
100
AcDbLinetypeTableRecord
  2
CONTINUOUS
 70
     0
  3
Solid line
 72
    65
 73
     0
 40
0.0
  0
LTYPE
  5
55
330
5
100
AcDbSymbolTableRecord
100
AcDbLinetypeTableRecord
  2
NEW_LINE1
 70
     0
  3

 72
    65
 73
     4
 40
1.2
 49
0.5
 74
     4
 75
     0
340
0
 46
1.0
 50
0.0
 44
0.0
 45
0.0
 49
-0.3
 74
     4
 75
     0
340
0
 46
1.0
 50
0.0
 44
0.0
 45
0.0
 49
0.1
 74
     4
 75
     0
340
0
 46
1.0
 50
0.0
 44
0.0
 45
0.0
 49
-0.3
 74
     4
 75
     0
340
0
 46
1.0
 50
0.0
 44
0.0
 45
0.0
  0
LTYPE
  5
8A
330
5
100
AcDbSymbolTableRecord
100
AcDbLinetypeTableRecord
  2
NEW_LINE2
 70
     0
  3

 72
    65
 73
     2
 40
0.8
 49
0.5
 74
     4
 75
     0
340
0
 46
1.0
 50
0.0
 44
0.0
 45
0.0
 49
-0.3
 74
     4
 75
     0
340
0
 46
1.0
 50
0.0
 44
0.0
 45
0.0
  0
LTYPE
  5
8C
330
5
100
AcDbSymbolTableRecord
100
AcDbLinetypeTableRecord
  2
NEW_LINE3
 70
     0
  3

 72
    65
 73
     2
 40
0.8
 49
0.5
 74
     4
 75
     0
340
0
 46
1.0
 50
0.0
 44
0.0
 45
0.0
 49
-0.3
 74
     4
 75
     0
340
0
 46
1.0
 50
0.0
 44
0.0
 45
0.0
  0
LTYPE
  5
8E
330
5
100
AcDbSymbolTableRecord
100
AcDbLinetypeTableRecord
  2
NEW_LINE4
 70
     0
  3

 72
    65
 73
     2
 40
0.8
 49
0.5
 74
     4
 75
     0
340
0
 46
1.0
 50
0.0
 44
0.0
 45
0.0
 49
-0.3
 74
     4
 75
     0
340
0
 46
1.0
 50
0.0
 44
0.0
 45
0.0
  0
LTYPE
  5
90
330
5
100
AcDbSymbolTableRecord
100
AcDbLinetypeTableRecord
  2
NEW_LINE5
 70
     0
  3

 72
    65
 73
     2
 40
0.8
 49
0.5
 74
     4
 75
     0
340
0
 46
1.0
 50
0.0
 44
0.0
 45
0.0
 49
-0.3
 74
     4
 75
     0
340
0
 46
1.0
 50
0.0
 44
0.0
 45
0.0
  0
LTYPE
  5
92
330
5
100
AcDbSymbolTableRecord
100
AcDbLinetypeTableRecord
  2
NEW_LINE6
 70
     0
  3

 72
    65
 73
     2
 40
0.8
 49
0.5
 74
     4
 75
     0
340
0
 46
1.0
 50
0.0
 44
0.0
 45
0.0
 49
-0.3
 74
     4
 75
     0
340
0
 46
1.0
 50
0.0
 44
0.0
 45
0.0
  0
ENDTAB
  0
TABLE
  2
LAYER
  5
2
330
0
100
AcDbSymbolTable
 70
     2
  0
LAYER
  5
10
330
2
100
AcDbSymbolTableRecord
100
AcDbLayerTableRecord
  2
0
 70
     0
 62
     7
  6
CONTINUOUS
  0
LAYER
  5
40
330
2
100
AcDbSymbolTableRecord
100
AcDbLayerTableRecord
  2
DEFAULT_1
 70
     0
 62
     7
  6
CONTINUOUS
  0
ENDTAB
  0
TABLE
  2
STYLE
  5
3
330
0
100
AcDbSymbolTable
 70
     1
  0
STYLE
  5
11
330
3
100
AcDbSymbolTableRecord
100
AcDbTextStyleTableRecord
  2
STANDARD
 70
     0
 40
0.0
 41
1.0
 50
0.0
 71
     0
 42
0.2
  3
txt
  4

  0
ENDTAB
  0
TABLE
  2
VIEW
  5
6
330
0
100
AcDbSymbolTable
 70
     0
  0
ENDTAB
  0
TABLE
  2
UCS
  5
7
330
0
100
AcDbSymbolTable
 70
     0
  0
ENDTAB
  0
TABLE
  2
APPID
  5
9
330
0
100
AcDbSymbolTable
 70
     2
  0
APPID
  5
12
330
9
100
AcDbSymbolTableRecord
100
AcDbRegAppTableRecord
  2
ACAD
 70
     0
  0
APPID
  5
3F
330
9
100
AcDbSymbolTableRecord
100
AcDbRegAppTableRecord
  2
ODA
 70
     0
  0
ENDTAB
  0
TABLE
  2
DIMSTYLE
  5
A
330
0
100
AcDbSymbolTable
 70
     1
  0
DIMSTYLE
105
27
330
A
100
AcDbSymbolTableRecord
100
AcDbDimStyleTableRecord
  2
STANDARD
 70
     0
  3

  4

  5

  6

  7

 40
1.0
 41
0.18
 42
0.0625
 43
0.38
 44
0.18
 45
0.0
 46
0.0
 47
0.0
 48
0.0
140
0.18
141
0.09
142
0.0
143
25.4
144
1.0
145
0.0
146
1.0
147
0.09
 71
     0
 72
     0
 73
     1
 74
     1
 75
     0
 76
     0
 77
     0
 78
     0
170
     0
171
     2
172
     0
173
     0
174
     0
175
     0
176
     0
177
     0
178
     0
270
     2
271
     4
272
     4
273
     2
274
     2
340
11
275
     0
280
     0
281
     0
282
     0
283
     1
284
     0
285
     0
286
     0
287
     3
288
     0
  0
ENDTAB
  0
TABLE
  2
BLOCK_RECORD
  5
1
330
0
100
AcDbSymbolTable
 70
     1
  0
BLOCK_RECORD
  5
1F
330
1
100
AcDbSymbolTableRecord
100
AcDbBlockTableRecord
  2
*MODEL_SPACE
  0
BLOCK_RECORD
  5
1B
330
1
100
AcDbSymbolTableRecord
100
AcDbBlockTableRecord
  2
*PAPER_SPACE
  0
ENDTAB
  0
ENDSEC
  0
SECTION
  2
BLOCKS
  0
BLOCK
  5
20
330
1F
100
AcDbEntity
  8
0
100
AcDbBlockBegin
  2
*MODEL_SPACE
 70
     0
 10
0.0
 20
0.0
 30
0.0
  3
*MODEL_SPACE
  1

  0
ENDBLK
  5
21
330
1F
100
AcDbEntity
  8
0
100
AcDbBlockEnd
  0
BLOCK
  5
1C
330
1B
100
AcDbEntity
 67
     1
  8
0
100
AcDbBlockBegin
  2
*PAPER_SPACE
 70
     0
 10
0.0
 20
0.0
 30
0.0
  3
*PAPER_SPACE
  1

  0
ENDBLK
  5
1D
330
1B
100
AcDbEntity
 67
     1
  8
0
100
AcDbBlockEnd
  0
ENDSEC
  0
SECTION
  2
ENTITIES
  0
SPLINE
  5
41
330
1F
100
AcDbEntity
  8
DEFAULT_1
 62
   250
100
AcDbSpline
210
0.0
220
0.0
230
1.0
 70
     8
 71
     3
 72
    40
 73
    36
 74
     0
 42
0.0000000001
 43
0.0000000001
 40
0.0
 40
0.0
 40
0.0
 40
0.0
 40
0.1
 40
0.1
 40
0.1
 40
0.1
 40
0.2
 40
0.2
 40
0.2
 40
0.2
 40
0.3
 40
0.3
 40
0.3
 40
0.3
 40
0.4
 40
0.4
 40
0.4
 40
0.4
 40
0.5
 40
0.5
 40
0.5
 40
0.5
 40
0.6
 40
0.6
 40
0.6
 40
0.6
 40
0.7
 40
0.7
 40
0.7
 40
0.7
 40
0.8
 40
0.8
 40
0.8
 40
0.8
 40
1.0
 40
1.0
 40
1.0
 40
1.0
 10
1.9299
 20
17.0815
 30
0.0
 10
1.9299
 20
17.0815
 30
0.0
 10
1.9051
 20
25.3187
 30
0.0
 10
1.9051
 20
25.3187
 30
0.0
 10
1.9051
 20
25.3187
 30
0.0
 10
1.9051
 20
25.3187
 30
0.0
 10
7.6193
 20
25.294
 30
0.0
 10
7.6193
 20
25.294
 30
0.0
 10
7.6193
 20
25.294
 30
0.0
 10
7.6193
 20
25.294
 30
0.0
 10
1.8804
 20
25.3187
 30
0.0
 10
1.8804
 20
25.3187
 30
0.0
 10
1.8804
 20
25.3187
 30
0.0
 10
1.8804
 20
25.3187
 30
0.0
 10
1.2867
 20
26.3824
 30
0.0
 10
1.2867
 20
26.3824
 30
0.0
 10
1.2867
 20
26.3824
 30
0.0
 10
1.2867
 20
26.3824
 30
0.0
 10
1.2945
 20
28.4756
 30
0.0
 10
1.2945
 20
28.4756
 30
0.0
 10
1.2945
 20
28.4756
 30
0.0
 10
1.2945
 20
28.4756
 30
0.0
 10
8.1078
 20
28.4756
 30
0.0
 10
8.1078
 20
28.4756
 30
0.0
 10
8.1078
 20
28.4756
 30
0.0
 10
8.1078
 20
28.4756
 30
0.0
 10
8.1387
 20
26.4072
 30
0.0
 10
8.1387
 20
26.4072
 30
0.0
 10
8.1387
 20
26.4072
 30
0.0
 10
8.1387
 20
26.4072
 30
0.0
 10
7.5203
 20
25.2446
 30
0.0
 10
7.5203
 20
25.2446
 30
0.0
 10
7.5203
 20
25.2446
 30
0.0
 10
7.5203
 20
25.2446
 30
0.0
 10
7.4461
 20
17.0321
 30
0.0
 10
7.4461
 20
17.0321
 30
0.0
  0
SPLINE
  5
42
330
1F
100
AcDbEntity
  8
DEFAULT_1
 62
   250
100
AcDbSpline
210
0.0
220
0.0
230
1.0
 70
    11
 71
     3
 72
    36
 73
    32
 74
     0
 42
0.0000000001
 43
0.0000000001
 40
0.0
 40
0.0
 40
0.0
 40
0.0
 40
0.1111111111111111
 40
0.1111111111111111
 40
0.1111111111111111
 40
0.1111111111111111
 40
0.2222222222222222
 40
0.2222222222222222
 40
0.2222222222222222
 40
0.2222222222222222
 40
0.3333333333333333
 40
0.3333333333333333
 40
0.3333333333333333
 40
0.3333333333333333
 40
0.4444444444444444
 40
0.4444444444444444
 40
0.4444444444444444
 40
0.4444444444444444
 40
0.5555555555555556
 40
0.5555555555555556
 40
0.5555555555555556
 40
0.5555555555555556
 40
0.6666666666666666
 40
0.6666666666666666
 40
0.6666666666666666
 40
0.6666666666666666
 40
0.7777777777777778
 40
0.7777777777777778
 40
0.7777777777777778
 40
0.7777777777777778
 40
1.0
 40
1.0
 40
1.0
 40
1.0
 10
8.1695
 20
15.231
 30
0.0
 10
8.1695
 20
15.231
 30
0.0
 10
8.1695
 20
16.9624
 30
0.0
 10
8.1695
 20
16.9624
 30
0.0
 10
8.1695
 20
16.9624
 30
0.0
 10
8.1695
 20
16.9624
 30
0.0
 10
8.1188
 20
17.0472
 30
0.0
 10
8.1188
 20
17.0472
 30
0.0
 10
8.1188
 20
17.0472
 30
0.0
 10
8.1188
 20
17.0472
 30
0.0
 10
7.8986
 20
17.0529
 30
0.0
 10
7.8986
 20
17.0529
 30
0.0
 10
7.8986
 20
17.0529
 30
0.0
 10
7.8986
 20
17.0529
 30
0.0
 10
7.6806
 20
17.0533
 30
0.0
 10
7.6806
 20
17.0533
 30
0.0
 10
7.6806
 20
17.0533
 30
0.0
 10
7.7712
 20
17.2104
 30
0.0
 10
7.9562
 20
17.2869
 30
0.0
 10
8.1314
 20
17.24
 30
0.0
 10
8.1314
 20
17.24
 30
0.0
 10
8.3066
 20
17.1931
 30
0.0
 10
8.4284
 20
17.0342
 30
0.0
 10
8.4284
 20
16.8528
 30
0.0
 10
8.4284
 20
16.8528
 30
0.0
 10
8.4284
 20
16.8528
 30
0.0
 10
8.4349
 20
15.2198
 30
0.0
 10
8.4349
 20
15.2198
 30
0.0
 10
8.4349
 20
15.2198
 30
0.0
 10
8.4349
 20
15.2198
 30
0.0
 10
8.1695
 20
15.231
 30
0.0
 10
8.1695
 20
15.231
 30
0.0
  0
SPLINE
  5
43
330
1F
100
AcDbEntity
  8
DEFAULT_1
 62
   250
100
AcDbSpline
210
0.0
220
0.0
230
1.0
 70
    11
 71
     3
 72
    28
 73
    24
 74
     0
 42
0.0000000001
 43
0.0000000001
 40
0.0
 40
0.0
 40
0.0
 40
0.0
 40
0.1428571428571428
 40
0.1428571428571428
 40
0.1428571428571428
 40
0.1428571428571428
 40
0.2857142857142857
 40
0.2857142857142857
 40
0.2857142857142857
 40
0.2857142857142857
 40
0.4285714285714285
 40
0.4285714285714285
 40
0.4285714285714285
 40
0.4285714285714285
 40
0.5714285714285714
 40
0.5714285714285714
 40
0.5714285714285714
 40
0.5714285714285714
 40
0.7142857142857143
 40
0.7142857142857143
 40
0.7142857142857143
 40
0.7142857142857143
 40
1.0
 40
1.0
 40
1.0
 40
1.0
 10
2.6205
 20
15.1674
 30
0.0
 10
2.6205
 20
15.1674
 30
0.0
 10
2.6371
 20
16.8528
 30
0.0
 10
2.6371
 20
16.8528
 30
0.0
 10
2.6371
 20
16.8528
 30
0.0
 10
2.6371
 20
17.0342
 30
0.0
 10
2.7589
 20
17.1931
 30
0.0
 10
2.9342
 20
17.24
 30
0.0
 10
2.9342
 20
17.24
 30
0.0
 10
3.1093
 20
17.2869
 30
0.0
 10
3.2943
 20
17.2104
 30
0.0
 10
3.3849
 20
17.0533
 30
0.0
 10
3.3849
 20
17.0533
 30
0.0
 10
3.3849
 20
17.0533
 30
0.0
 10
3.2336
 20
17.0189
 30
0.0
 10
3.2336
 20
17.0189
 30
0.0
 10
3.2336
 20
17.0189
 30
0.0
 10
3.2336
 20
17.0189
 30
0.0
 10
3.2672
 20
15.1506
 30
0.0
 10
3.2672
 20
15.1506
 30
0.0
 10
3.2672
 20
15.1506
 30
0.0
 10
3.2672
 20
15.1506
 30
0.0
 10
2.6205
 20
15.1674
 30
0.0
 10
2.6205
 20
15.1674
 30
0.0
  0
SPLINE
  5
44
330
1F
100
AcDbEntity
  8
DEFAULT_1
 62
   250
100
AcDbSpline
210
0.0
220
0.0
230
1.0
 70
    11
 71
     3
 72
    32
 73
    28
 74
     0
 42
0.0000000001
 43
0.0000000001
 40
0.0
 40
0.0
 40
0.0
 40
0.0
 40
0.125
 40
0.125
 40
0.125
 40
0.125
 40
0.25
 40
0.25
 40
0.25
 40
0.25
 40
0.375
 40
0.375
 40
0.375
 40
0.375
 40
0.5
 40
0.5
 40
0.5
 40
0.5
 40
0.625
 40
0.625
 40
0.625
 40
0.625
 40
0.75
 40
0.75
 40
0.75
 40
0.75
 40
1.0
 40
1.0
 40
1.0
 40
1.0
 10
6.1185
 20
15.2521
 30
0.0
 10
6.1185
 20
15.2521
 30
0.0
 10
6.1109
 20
16.9277
 30
0.0
 10
6.1109
 20
16.9277
 30
0.0
 10
6.1109
 20
16.9277
 30
0.0
 10
6.1109
 20
16.9277
 30
0.0
 10
6.0956
 20
17.0117
 30
0.0
 10
6.0956
 20
17.0117
 30
0.0
 10
6.0956
 20
17.0117
 30
0.0
 10
6.0956
 20
17.0117
 30
0.0
 10
6.0173
 20
17.0533
 30
0.0
 10
6.0173
 20
17.0533
 30
0.0
 10
6.0173
 20
17.0533
 30
0.0
 10
6.1081
 20
17.2104
 30
0.0
 10
6.2929
 20
17.2869
 30
0.0
 10
6.4682
 20
17.24
 30
0.0
 10
6.4682
 20
17.24
 30
0.0
 10
6.6435
 20
17.1931
 30
0.0
 10
6.7652
 20
17.0342
 30
0.0
 10
6.7652
 20
16.8528
 30
0.0
 10
6.7652
 20
16.8528
 30
0.0
 10
6.7652
 20
16.8528
 30
0.0
 10
6.7523
 20
15.1985
 30
0.0
 10
6.7523
 20
15.1985
 30
0.0
 10
6.7523
 20
15.1985
 30
0.0
 10
6.7523
 20
15.1985
 30
0.0
 10
6.1185
 20
15.2521
 30
0.0
 10
6.1185
 20
15.2521
 30
0.0
  0
SPLINE
  5
45
330
1F
100
AcDbEntity
  8
DEFAULT_1
 62
   250
100
AcDbSpline
210
0.0
220
0.0
230
1.0
 70
    11
 71
     3
 72
    48
 73
    44
 74
     0
 42
0.0000000001
 43
0.0000000001
 40
0.0
 40
0.0
 40
0.0
 40
0.0
 40
0.0833333333333333
 40
0.0833333333333333
 40
0.0833333333333333
 40
0.0833333333333333
 40
0.1666666666666667
 40
0.1666666666666667
 40
0.1666666666666667
 40
0.1666666666666667
 40
0.25
 40
0.25
 40
0.25
 40
0.25
 40
0.3333333333333333
 40
0.3333333333333333
 40
0.3333333333333333
 40
0.3333333333333333
 40
0.4166666666666667
 40
0.4166666666666667
 40
0.4166666666666667
 40
0.4166666666666667
 40
0.5
 40
0.5
 40
0.5
 40
0.5
 40
0.5833333333333334
 40
0.5833333333333334
 40
0.5833333333333334
 40
0.5833333333333334
 40
0.6666666666666666
 40
0.6666666666666666
 40
0.6666666666666666
 40
0.6666666666666666
 40
0.75
 40
0.75
 40
0.75
 40
0.75
 40
0.8333333333333334
 40
0.8333333333333334
 40
0.8333333333333334
 40
0.8333333333333334
 40
1.0
 40
1.0
 40
1.0
 40
1.0
 10
1.7217
 20
17.0533
 30
0.0
 10
1.6311
 20
17.2104
 30
0.0
 10
1.4461
 20
17.2869
 30
0.0
 10
1.271
 20
17.24
 30
0.0
 10
1.271
 20
17.24
 30
0.0
 10
1.0957
 20
17.1931
 30
0.0
 10
0.9738
 20
17.0342
 30
0.0
 10
0.9738
 20
16.8528
 30
0.0
 10
0.9738
 20
16.8528
 30
0.0
 10
0.9738
 20
16.8528
 30
0.0
 10
0.9659
 20
15.2011
 30
0.0
 10
0.9659
 20
15.2011
 30
0.0
 10
0.9659
 20
15.2011
 30
0.0
 10
0.9659
 20
15.2011
 30
0.0
 10
1.2011
 20
15.2011
 30
0.0
 10
1.2011
 20
15.2011
 30
0.0
 10
1.2011
 20
15.2011
 30
0.0
 10
1.2011
 20
15.2011
 30
0.0
 10
1.2178
 20
16.8926
 30
0.0
 10
1.2178
 20
16.8926
 30
0.0
 10
1.2178
 20
16.8926
 30
0.0
 10
1.2178
 20
16.8926
 30
0.0
 10
1.2599
 20
17.002
 30
0.0
 10
1.2599
 20
17.002
 30
0.0
 10
1.2599
 20
17.002
 30
0.0
 10
1.2599
 20
17.002
 30
0.0
 10
1.3354
 20
17.0357
 30
0.0
 10
1.3354
 20
17.0357
 30
0.0
 10
1.3354
 20
17.0357
 30
0.0
 10
1.3354
 20
17.0357
 30
0.0
 10
1.4279
 20
17.0526
 30
0.0
 10
1.4279
 20
17.0526
 30
0.0
 10
1.4279
 20
17.0526
 30
0.0
 10
1.4279
 20
17.0526
 30
0.0
 10
1.7217
 20
17.0533
 30
0.0
 10
1.7217
 20
17.0533
 30
0.0
 10
1.7217
 20
17.0533
 30
0.0
 10
1.7217
 20
17.0533
 30
0.0
 10
2.6908
 20
17.0533
 30
0.0
 10
2.6908
 20
17.0533
 30
0.0
 10
2.6908
 20
17.0533
 30
0.0
 10
2.6908
 20
17.0533
 30
0.0
 10
1.7217
 20
17.0533
 30
0.0
 10
1.7217
 20
17.0533
 30
0.0
  0
SPLINE
  5
46
330
1F
100
AcDbEntity
  8
DEFAULT_1
 62
   250
100
AcDbSpline
210
0.0
220
0.0
230
1.0
 70
    27
 71
     3
 72
    20
 73
    16
 74
     0
 42
0.0000000001
 43
0.0000000001
 40
0.0
 40
0.0
 40
0.0
 40
0.0
 40
0.2
 40
0.2
 40
0.2
 40
0.2
 40
0.4
 40
0.4
 40
0.4
 40
0.4
 40
0.6
 40
0.6
 40
0.6
 40
0.6
 40
1.0
 40
1.0
 40
1.0
 40
1.0
 10
6.1003
 20
17.0533
 30
0.0
 10
6.1003
 20
17.0533
 30
0.0
 10
6.0173
 20
17.0533
 30
0.0
 10
6.0173
 20
17.0533
 30
0.0
 10
6.0173
 20
17.0533
 30
0.0
 10
6.0173
 20
17.0533
 30
0.0
 10
3.3021
 20
17.0533
 30
0.0
 10
3.3021
 20
17.0533
 30
0.0
 10
3.3021
 20
17.0533
 30
0.0
 10
3.3021
 20
17.0533
 30
0.0
 10
6.0173
 20
17.0533
 30
0.0
 10
6.0173
 20
17.0533
 30
0.0
 10
6.0173
 20
17.0533
 30
0.0
 10
6.0173
 20
17.0533
 30
0.0
 10
6.1003
 20
17.0533
 30
0.0
 10
6.1003
 20
17.0533
 30
0.0
  0
SPLINE
  5
47
330
1F
100
AcDbEntity
  8
DEFAULT_1
 62
   250
100
AcDbSpline
210
0.0
220
0.0
230
1.0
 70
    27
 71
     3
 72
    20
 73
    16
 74
     0
 42
0.0000000001
 43
0.0000000001
 40
0.0
 40
0.0
 40
0.0
 40
0.0
 40
0.2
 40
0.2
 40
0.2
 40
0.2
 40
0.4
 40
0.4
 40
0.4
 40
0.4
 40
0.6
 40
0.6
 40
0.6
 40
0.6
 40
1.0
 40
1.0
 40
1.0
 40
1.0
 10
8.0906
 20
17.0533
 30
0.0
 10
8.0906
 20
17.0533
 30
0.0
 10
7.6806
 20
17.0533
 30
0.0
 10
7.6806
 20
17.0533
 30
0.0
 10
7.6806
 20
17.0533
 30
0.0
 10
7.6806
 20
17.0533
 30
0.0
 10
6.7114
 20
17.0533
 30
0.0
 10
6.7114
 20
17.0533
 30
0.0
 10
6.7114
 20
17.0533
 30
0.0
 10
6.7114
 20
17.0533
 30
0.0
 10
7.6806
 20
17.0533
 30
0.0
 10
7.6806
 20
17.0533
 30
0.0
 10
7.6806
 20
17.0533
 30
0.0
 10
7.6806
 20
17.0533
 30
0.0
 10
8.0906
 20
17.0533
 30
0.0
 10
8.0906
 20
17.0533
 30
0.0
  0
SPLINE
  5
48
330
1F
100
AcDbEntity
  8
DEFAULT_1
 62
   250
100
AcDbSpline
210
0.0
220
0.0
230
1.0
 70
     8
 71
     3
 72
    32
 73
    28
 74
     0
 42
0.0000000001
 43
0.0000000001
 40
0.0
 40
0.0
 40
0.0
 40
0.0
 40
0.125
 40
0.125
 40
0.125
 40
0.125
 40
0.25
 40
0.25
 40
0.25
 40
0.25
 40
0.375
 40
0.375
 40
0.375
 40
0.375
 40
0.5
 40
0.5
 40
0.5
 40
0.5
 40
0.625
 40
0.625
 40
0.625
 40
0.625
 40
0.75
 40
0.75
 40
0.75
 40
0.75
 40
1.0
 40
1.0
 40
1.0
 40
1.0
 10
8.1695
 20
15.231
 30
0.0
 10
8.1695
 20
15.231
 30
0.0
 10
8.1695
 20
16.9624
 30
0.0
 10
8.1695
 20
16.9624
 30
0.0
 10
8.1695
 20
16.9624
 30
0.0
 10
8.1695
 20
16.9624
 30
0.0
 10
8.1188
 20
17.0472
 30
0.0
 10
8.1188
 20
17.0472
 30
0.0
 10
8.1188
 20
17.0472
 30
0.0
 10
8.1188
 20
17.0472
 30
0.0
 10
7.8986
 20
17.0529
 30
0.0
 10
7.8986
 20
17.0529
 30
0.0
 10
7.8986
 20
17.0529
 30
0.0
 10
7.8986
 20
17.0529
 30
0.0
 10
7.6806
 20
17.0533
 30
0.0
 10
7.6806
 20
17.0533
 30
0.0
 10
7.6806
 20
17.0533
 30
0.0
 10
7.7712
 20
17.2104
 30
0.0
 10
7.9562
 20
17.2869
 30
0.0
 10
8.1314
 20
17.24
 30
0.0
 10
8.1314
 20
17.24
 30
0.0
 10
8.3066
 20
17.1931
 30
0.0
 10
8.4284
 20
17.0342
 30
0.0
 10
8.4284
 20
16.8528
 30
0.0
 10
8.4284
 20
16.8528
 30
0.0
 10
8.4284
 20
16.8528
 30
0.0
 10
8.4349
 20
15.2198
 30
0.0
 10
8.4349
 20
15.2198
 30
0.0
  0
SPLINE
  5
49
330
1F
100
AcDbEntity
  8
DEFAULT_1
 62
   250
100
AcDbSpline
210
0.0
220
0.0
230
1.0
 70
     8
 71
     3
 72
    24
 73
    20
 74
     0
 42
0.0000000001
 43
0.0000000001
 40
0.0
 40
0.0
 40
0.0
 40
0.0
 40
0.1666666666666667
 40
0.1666666666666667
 40
0.1666666666666667
 40
0.1666666666666667
 40
0.3333333333333333
 40
0.3333333333333333
 40
0.3333333333333333
 40
0.3333333333333333
 40
0.5
 40
0.5
 40
0.5
 40
0.5
 40
0.6666666666666666
 40
0.6666666666666666
 40
0.6666666666666666
 40
0.6666666666666666
 40
1.0
 40
1.0
 40
1.0
 40
1.0
 10
2.6205
 20
15.1674
 30
0.0
 10
2.6205
 20
15.1674
 30
0.0
 10
2.6371
 20
16.8528
 30
0.0
 10
2.6371
 20
16.8528
 30
0.0
 10
2.6371
 20
16.8528
 30
0.0
 10
2.6371
 20
17.0342
 30
0.0
 10
2.7589
 20
17.1931
 30
0.0
 10
2.9342
 20
17.24
 30
0.0
 10
2.9342
 20
17.24
 30
0.0
 10
3.1093
 20
17.2869
 30
0.0
 10
3.2943
 20
17.2104
 30
0.0
 10
3.3849
 20
17.0533
 30
0.0
 10
3.3849
 20
17.0533
 30
0.0
 10
3.3849
 20
17.0533
 30
0.0
 10
3.2336
 20
17.0189
 30
0.0
 10
3.2336
 20
17.0189
 30
0.0
 10
3.2336
 20
17.0189
 30
0.0
 10
3.2336
 20
17.0189
 30
0.0
 10
3.2672
 20
15.1506
 30
0.0
 10
3.2672
 20
15.1506
 30
0.0
  0
SPLINE
  5
4A
330
1F
100
AcDbEntity
  8
DEFAULT_1
 62
   250
100
AcDbSpline
210
0.0
220
0.0
230
1.0
 70
     8
 71
     3
 72
    28
 73
    24
 74
     0
 42
0.0000000001
 43
0.0000000001
 40
0.0
 40
0.0
 40
0.0
 40
0.0
 40
0.1428571428571428
 40
0.1428571428571428
 40
0.1428571428571428
 40
0.1428571428571428
 40
0.2857142857142857
 40
0.2857142857142857
 40
0.2857142857142857
 40
0.2857142857142857
 40
0.4285714285714285
 40
0.4285714285714285
 40
0.4285714285714285
 40
0.4285714285714285
 40
0.5714285714285714
 40
0.5714285714285714
 40
0.5714285714285714
 40
0.5714285714285714
 40
0.7142857142857143
 40
0.7142857142857143
 40
0.7142857142857143
 40
0.7142857142857143
 40
1.0
 40
1.0
 40
1.0
 40
1.0
 10
6.1185
 20
15.2521
 30
0.0
 10
6.1185
 20
15.2521
 30
0.0
 10
6.1109
 20
16.9277
 30
0.0
 10
6.1109
 20
16.9277
 30
0.0
 10
6.1109
 20
16.9277
 30
0.0
 10
6.1109
 20
16.9277
 30
0.0
 10
6.0956
 20
17.0117
 30
0.0
 10
6.0956
 20
17.0117
 30
0.0
 10
6.0956
 20
17.0117
 30
0.0
 10
6.0956
 20
17.0117
 30
0.0
 10
6.0173
 20
17.0533
 30
0.0
 10
6.0173
 20
17.0533
 30
0.0
 10
6.0173
 20
17.0533
 30
0.0
 10
6.1081
 20
17.2104
 30
0.0
 10
6.2929
 20
17.2869
 30
0.0
 10
6.4682
 20
17.24
 30
0.0
 10
6.4682
 20
17.24
 30
0.0
 10
6.6435
 20
17.1931
 30
0.0
 10
6.7652
 20
17.0342
 30
0.0
 10
6.7652
 20
16.8528
 30
0.0
 10
6.7652
 20
16.8528
 30
0.0
 10
6.7652
 20
16.8528
 30
0.0
 10
6.7523
 20
15.1985
 30
0.0
 10
6.7523
 20
15.1985
 30
0.0
  0
SPLINE
  5
4B
330
1F
100
AcDbEntity
  8
DEFAULT_1
 62
   250
100
AcDbSpline
210
0.0
220
0.0
230
1.0
 70
    11
 71
     3
 72
    48
 73
    44
 74
     0
 42
0.0000000001
 43
0.0000000001
 40
0.0
 40
0.0
 40
0.0
 40
0.0
 40
0.0833333333333333
 40
0.0833333333333333
 40
0.0833333333333333
 40
0.0833333333333333
 40
0.1666666666666667
 40
0.1666666666666667
 40
0.1666666666666667
 40
0.1666666666666667
 40
0.25
 40
0.25
 40
0.25
 40
0.25
 40
0.3333333333333333
 40
0.3333333333333333
 40
0.3333333333333333
 40
0.3333333333333333
 40
0.4166666666666667
 40
0.4166666666666667
 40
0.4166666666666667
 40
0.4166666666666667
 40
0.5
 40
0.5
 40
0.5
 40
0.5
 40
0.5833333333333334
 40
0.5833333333333334
 40
0.5833333333333334
 40
0.5833333333333334
 40
0.6666666666666666
 40
0.6666666666666666
 40
0.6666666666666666
 40
0.6666666666666666
 40
0.75
 40
0.75
 40
0.75
 40
0.75
 40
0.8333333333333334
 40
0.8333333333333334
 40
0.8333333333333334
 40
0.8333333333333334
 40
1.0
 40
1.0
 40
1.0
 40
1.0
 10
1.7217
 20
17.0533
 30
0.0
 10
1.6311
 20
17.2104
 30
0.0
 10
1.4461
 20
17.2869
 30
0.0
 10
1.271
 20
17.24
 30
0.0
 10
1.271
 20
17.24
 30
0.0
 10
1.0957
 20
17.1931
 30
0.0
 10
0.9738
 20
17.0342
 30
0.0
 10
0.9738
 20
16.8528
 30
0.0
 10
0.9738
 20
16.8528
 30
0.0
 10
0.9738
 20
16.8528
 30
0.0
 10
0.9659
 20
15.2011
 30
0.0
 10
0.9659
 20
15.2011
 30
0.0
 10
0.9659
 20
15.2011
 30
0.0
 10
0.9659
 20
15.2011
 30
0.0
 10
1.2011
 20
15.2011
 30
0.0
 10
1.2011
 20
15.2011
 30
0.0
 10
1.2011
 20
15.2011
 30
0.0
 10
1.2011
 20
15.2011
 30
0.0
 10
1.2178
 20
16.8926
 30
0.0
 10
1.2178
 20
16.8926
 30
0.0
 10
1.2178
 20
16.8926
 30
0.0
 10
1.2178
 20
16.8926
 30
0.0
 10
1.2599
 20
17.002
 30
0.0
 10
1.2599
 20
17.002
 30
0.0
 10
1.2599
 20
17.002
 30
0.0
 10
1.2599
 20
17.002
 30
0.0
 10
1.3354
 20
17.0357
 30
0.0
 10
1.3354
 20
17.0357
 30
0.0
 10
1.3354
 20
17.0357
 30
0.0
 10
1.3354
 20
17.0357
 30
0.0
 10
1.4279
 20
17.0526
 30
0.0
 10
1.4279
 20
17.0526
 30
0.0
 10
1.4279
 20
17.0526
 30
0.0
 10
1.4279
 20
17.0526
 30
0.0
 10
1.7217
 20
17.0533
 30
0.0
 10
1.7217
 20
17.0533
 30
0.0
 10
1.7217
 20
17.0533
 30
0.0
 10
1.7217
 20
17.0533
 30
0.0
 10
2.6908
 20
17.0533
 30
0.0
 10
2.6908
 20
17.0533
 30
0.0
 10
2.6908
 20
17.0533
 30
0.0
 10
2.6908
 20
17.0533
 30
0.0
 10
1.7217
 20
17.0533
 30
0.0
 10
1.7217
 20
17.0533
 30
0.0
  0
SPLINE
  5
4C
330
1F
100
AcDbEntity
  8
DEFAULT_1
 62
   250
100
AcDbSpline
210
0.0
220
0.0
230
1.0
 70
    27
 71
     3
 72
    20
 73
    16
 74
     0
 42
0.0000000001
 43
0.0000000001
 40
0.0
 40
0.0
 40
0.0
 40
0.0
 40
0.2
 40
0.2
 40
0.2
 40
0.2
 40
0.4
 40
0.4
 40
0.4
 40
0.4
 40
0.6
 40
0.6
 40
0.6
 40
0.6
 40
1.0
 40
1.0
 40
1.0
 40
1.0
 10
6.1003
 20
17.0533
 30
0.0
 10
6.1003
 20
17.0533
 30
0.0
 10
6.0173
 20
17.0533
 30
0.0
 10
6.0173
 20
17.0533
 30
0.0
 10
6.0173
 20
17.0533
 30
0.0
 10
6.0173
 20
17.0533
 30
0.0
 10
3.3021
 20
17.0533
 30
0.0
 10
3.3021
 20
17.0533
 30
0.0
 10
3.3021
 20
17.0533
 30
0.0
 10
3.3021
 20
17.0533
 30
0.0
 10
6.0173
 20
17.0533
 30
0.0
 10
6.0173
 20
17.0533
 30
0.0
 10
6.0173
 20
17.0533
 30
0.0
 10
6.0173
 20
17.0533
 30
0.0
 10
6.1003
 20
17.0533
 30
0.0
 10
6.1003
 20
17.0533
 30
0.0
  0
SPLINE
  5
4D
330
1F
100
AcDbEntity
  8
DEFAULT_1
 62
   250
100
AcDbSpline
210
0.0
220
0.0
230
1.0
 70
    27
 71
     3
 72
    20
 73
    16
 74
     0
 42
0.0000000001
 43
0.0000000001
 40
0.0
 40
0.0
 40
0.0
 40
0.0
 40
0.2
 40
0.2
 40
0.2
 40
0.2
 40
0.4
 40
0.4
 40
0.4
 40
0.4
 40
0.6
 40
0.6
 40
0.6
 40
0.6
 40
1.0
 40
1.0
 40
1.0
 40
1.0
 10
8.0906
 20
17.0533
 30
0.0
 10
8.0906
 20
17.0533
 30
0.0
 10
7.6806
 20
17.0533
 30
0.0
 10
7.6806
 20
17.0533
 30
0.0
 10
7.6806
 20
17.0533
 30
0.0
 10
7.6806
 20
17.0533
 30
0.0
 10
6.7114
 20
17.0533
 30
0.0
 10
6.7114
 20
17.0533
 30
0.0
 10
6.7114
 20
17.0533
 30
0.0
 10
6.7114
 20
17.0533
 30
0.0
 10
7.6806
 20
17.0533
 30
0.0
 10
7.6806
 20
17.0533
 30
0.0
 10
7.6806
 20
17.0533
 30
0.0
 10
7.6806
 20
17.0533
 30
0.0
 10
8.0906
 20
17.0533
 30
0.0
 10
8.0906
 20
17.0533
 30
0.0
  0
SPLINE
  5
4E
330
1F
100
AcDbEntity
  8
DEFAULT_1
 62
   250
100
AcDbSpline
210
0.0
220
0.0
230
1.0
 70
     8
 71
     3
 72
   112
 73
   108
 74
     0
 42
0.0000000001
 43
0.0000000001
 40
0.0
 40
0.0
 40
0.0
 40
0.0
 40
0.0357142857142857
 40
0.0357142857142857
 40
0.0357142857142857
 40
0.0357142857142857
 40
0.0714285714285714
 40
0.0714285714285714
 40
0.0714285714285714
 40
0.0714285714285714
 40
0.1071428571428571
 40
0.1071428571428571
 40
0.1071428571428571
 40
0.1071428571428571
 40
0.1428571428571428
 40
0.1428571428571428
 40
0.1428571428571428
 40
0.1428571428571428
 40
0.1785714285714286
 40
0.1785714285714286
 40
0.1785714285714286
 40
0.1785714285714286
 40
0.2142857142857143
 40
0.2142857142857143
 40
0.2142857142857143
 40
0.2142857142857143
 40
0.25
 40
0.25
 40
0.25
 40
0.25
 40
0.2857142857142857
 40
0.2857142857142857
 40
0.2857142857142857
 40
0.2857142857142857
 40
0.3214285714285715
 40
0.3214285714285715
 40
0.3214285714285715
 40
0.3214285714285715
 40
0.3571428571428572
 40
0.3571428571428572
 40
0.3571428571428572
 40
0.3571428571428572
 40
0.3928571428571428
 40
0.3928571428571428
 40
0.3928571428571428
 40
0.3928571428571428
 40
0.4285714285714285
 40
0.4285714285714285
 40
0.4285714285714285
 40
0.4285714285714285
 40
0.4642857142857143
 40
0.4642857142857143
 40
0.4642857142857143
 40
0.4642857142857143
 40
0.5
 40
0.5
 40
0.5
 40
0.5
 40
0.5357142857142857
 40
0.5357142857142857
 40
0.5357142857142857
 40
0.5357142857142857
 40
0.5714285714285714
 40
0.5714285714285714
 40
0.5714285714285714
 40
0.5714285714285714
 40
0.6071428571428571
 40
0.6071428571428571
 40
0.6071428571428571
 40
0.6071428571428571
 40
0.6428571428571429
 40
0.6428571428571429
 40
0.6428571428571429
 40
0.6428571428571429
 40
0.6785714285714286
 40
0.6785714285714286
 40
0.6785714285714286
 40
0.6785714285714286
 40
0.7142857142857143
 40
0.7142857142857143
 40
0.7142857142857143
 40
0.7142857142857143
 40
0.75
 40
0.75
 40
0.75
 40
0.75
 40
0.7857142857142857
 40
0.7857142857142857
 40
0.7857142857142857
 40
0.7857142857142857
 40
0.8214285714285714
 40
0.8214285714285714
 40
0.8214285714285714
 40
0.8214285714285714
 40
0.8571428571428571
 40
0.8571428571428571
 40
0.8571428571428571
 40
0.8571428571428571
 40
0.8928571428571429
 40
0.8928571428571429
 40
0.8928571428571429
 40
0.8928571428571429
 40
0.9285714285714286
 40
0.9285714285714286
 40
0.9285714285714286
 40
0.9285714285714286
 40
1.0
 40
1.0
 40
1.0
 40
1.0
 10
1.5107
 20
26.0358
 30
0.0
 10
1.5107
 20
26.0358
 30
0.0
 10
0.8603
 20
26.0648
 30
0.0
 10
0.8603
 20
26.0648
 30
0.0
 10
0.8603
 20
26.0648
 30
0.0
 10
0.8603
 20
26.0648
 30
0.0
 10
0.7492
 20
26.1389
 30
0.0
 10
0.7492
 20
26.1389
 30
0.0
 10
0.7492
 20
26.1389
 30
0.0
 10
0.7492
 20
26.1389
 30
0.0
 10
0.6752
 20
26.2499
 30
0.0
 10
0.6752
 20
26.2499
 30
0.0
 10
0.6752
 20
26.2499
 30
0.0
 10
0.6752
 20
26.2499
 30
0.0
 10
0.6934
 20
28.8764
 30
0.0
 10
0.6934
 20
28.8764
 30
0.0
 10
0.6934
 20
28.8764
 30
0.0
 10
0.6934
 20
29.2084
 30
0.0
 10
0.9624
 20
29.4775
 30
0.0
 10
1.2945
 20
29.4775
 30
0.0
 10
1.2945
 20
29.4775
 30
0.0
 10
1.2945
 20
29.4775
 30
0.0
 10
2.9339
 20
29.4714
 30
0.0
 10
2.9339
 20
29.4714
 30
0.0
 10
2.9339
 20
29.4714
 30
0.0
 10
2.9339
 20
29.4714
 30
0.0
 10
3.0773
 20
29.5702
 30
0.0
 10
3.0773
 20
29.5702
 30
0.0
 10
3.0773
 20
29.5702
 30
0.0
 10
3.0773
 20
29.5702
 30
0.0
 10
3.0984
 20
29.7507
 30
0.0
 10
3.0984
 20
29.7507
 30
0.0
 10
3.0984
 20
29.7507
 30
0.0
 10
3.0984
 20
29.7507
 30
0.0
 10
3.0753
 20
34.5216
 30
0.0
 10
3.0753
 20
34.5216
 30
0.0
 10
3.0753
 20
34.5216
 30
0.0
 10
3.0753
 20
34.5216
 30
0.0
 10
3.1858
 20
34.857
 30
0.0
 10
3.1858
 20
34.857
 30
0.0
 10
3.1858
 20
34.857
 30
0.0
 10
3.1858
 20
34.857
 30
0.0
 10
3.3875
 20
35.0186
 30
0.0
 10
3.3875
 20
35.0186
 30
0.0
 10
3.3875
 20
35.0186
 30
0.0
 10
3.3875
 20
35.0186
 30
0.0
 10
3.6965
 20
35.0994
 30
0.0
 10
3.6965
 20
35.0994
 30
0.0
 10
3.6965
 20
35.0994
 30
0.0
 10
3.6965
 20
35.0994
 30
0.0
 10
5.7256
 20
35.0725
 30
0.0
 10
5.7256
 20
35.0725
 30
0.0
 10
5.7256
 20
35.0725
 30
0.0
 10
5.7256
 20
35.0725
 30
0.0
 10
5.954
 20
35.0455
 30
0.0
 10
5.954
 20
35.0455
 30
0.0
 10
5.954
 20
35.0455
 30
0.0
 10
5.954
 20
35.0455
 30
0.0
 10
6.2228
 20
34.7896
 30
0.0
 10
6.2228
 20
34.7896
 30
0.0
 10
6.2228
 20
34.7896
 30
0.0
 10
6.2228
 20
34.7896
 30
0.0
 10
6.3304
 20
34.5204
 30
0.0
 10
6.3304
 20
34.5204
 30
0.0
 10
6.3304
 20
34.5204
 30
0.0
 10
6.3304
 20
34.5204
 30
0.0
 10
6.3266
 20
29.632
 30
0.0
 10
6.3266
 20
29.632
 30
0.0
 10
6.3266
 20
29.632
 30
0.0
 10
6.3266
 20
29.632
 30
0.0
 10
6.3856
 20
29.5194
 30
0.0
 10
6.3856
 20
29.5194
 30
0.0
 10
6.3856
 20
29.5194
 30
0.0
 10
6.3856
 20
29.5194
 30
0.0
 10
6.5428
 20
29.4764
 30
0.0
 10
6.5428
 20
29.4764
 30
0.0
 10
6.5428
 20
29.4764
 30
0.0
 10
6.5428
 20
29.4764
 30
0.0
 10
8.1868
 20
29.4764
 30
0.0
 10
8.1868
 20
29.4764
 30
0.0
 10
8.1868
 20
29.4764
 30
0.0
 10
8.1868
 20
29.4764
 30
0.0
 10
8.4727
 20
29.3619
 30
0.0
 10
8.4727
 20
29.3619
 30
0.0
 10
8.4727
 20
29.3619
 30
0.0
 10
8.4727
 20
29.3619
 30
0.0
 10
8.6442
 20
29.147
 30
0.0
 10
8.6442
 20
29.147
 30
0.0
 10
8.6442
 20
29.147
 30
0.0
 10
8.6442
 20
29.147
 30
0.0
 10
8.7157
 20
28.9178
 30
0.0
 10
8.7157
 20
28.9178
 30
0.0
 10
8.7157
 20
28.9178
 30
0.0
 10
8.7157
 20
28.9178
 30
0.0
 10
8.7301
 20
26.1961
 30
0.0
 10
8.7301
 20
26.1961
 30
0.0
 10
8.7301
 20
26.1961
 30
0.0
 10
8.7301
 20
26.1961
 30
0.0
 10
8.5442
 20
26.0671
 30
0.0
 10
8.5442
 20
26.0671
 30
0.0
 10
8.5442
 20
26.0671
 30
0.0
 10
8.5442
 20
26.0671
 30
0.0
 10
8.3013
 20
26.0671
 30
0.0
 10
8.3013
 20
26.0671
 30
0.0
 10
8.3013
 20
26.0671
 30
0.0
 10
8.3013
 20
26.0671
 30
0.0
 10
8.0153
 20
26.0958
 30
0.0
 10
8.0153
 20
26.0958
 30
0.0
  0
SPLINE
  5
4F
330
1F
100
AcDbEntity
  8
DEFAULT_1
 62
   250
100
AcDbSpline
210
0.0
220
0.0
230
1.0
 70
    11
 71
     3
 72
    36
 73
    32
 74
     0
 42
0.0000000001
 43
0.0000000001
 40
0.0
 40
0.0
 40
0.0
 40
0.0
 40
0.1111111111111111
 40
0.1111111111111111
 40
0.1111111111111111
 40
0.1111111111111111
 40
0.2222222222222222
 40
0.2222222222222222
 40
0.2222222222222222
 40
0.2222222222222222
 40
0.3333333333333333
 40
0.3333333333333333
 40
0.3333333333333333
 40
0.3333333333333333
 40
0.4444444444444444
 40
0.4444444444444444
 40
0.4444444444444444
 40
0.4444444444444444
 40
0.5555555555555556
 40
0.5555555555555556
 40
0.5555555555555556
 40
0.5555555555555556
 40
0.6666666666666666
 40
0.6666666666666666
 40
0.6666666666666666
 40
0.6666666666666666
 40
0.7777777777777778
 40
0.7777777777777778
 40
0.7777777777777778
 40
0.7777777777777778
 40
1.0
 40
1.0
 40
1.0
 40
1.0
 10
3.9774
 20
34.1029
 30
0.0
 10
3.9774
 20
34.1029
 30
0.0
 10
5.4139
 20
34.1029
 30
0.0
 10
5.4139
 20
34.1029
 30
0.0
 10
5.4139
 20
34.1029
 30
0.0
 10
5.5622
 20
34.1029
 30
0.0
 10
5.6833
 20
33.9818
 30
0.0
 10
5.6833
 20
33.8335
 30
0.0
 10
5.6833
 20
33.8335
 30
0.0
 10
5.6833
 20
33.8335
 30
0.0
 10
5.6833
 20
30.7098
 30
0.0
 10
5.6833
 20
30.7098
 30
0.0
 10
5.6833
 20
30.7098
 30
0.0
 10
5.6833
 20
30.5615
 30
0.0
 10
5.5622
 20
30.4404
 30
0.0
 10
5.4139
 20
30.4404
 30
0.0
 10
5.4139
 20
30.4404
 30
0.0
 10
5.4139
 20
30.4404
 30
0.0
 10
3.9774
 20
30.4404
 30
0.0
 10
3.9774
 20
30.4404
 30
0.0
 10
3.9774
 20
30.4404
 30
0.0
 10
3.8291
 20
30.4404
 30
0.0
 10
3.708
 20
30.5615
 30
0.0
 10
3.708
 20
30.7098
 30
0.0
 10
3.708
 20
30.7098
 30
0.0
 10
3.708
 20
30.7098
 30
0.0
 10
3.708
 20
33.8335
 30
0.0
 10
3.708
 20
33.8335
 30
0.0
 10
3.708
 20
33.8335
 30
0.0
 10
3.708
 20
33.9818
 30
0.0
 10
3.8291
 20
34.1029
 30
0.0
 10
3.9774
 20
34.1029
 30
0.0
  0
SPLINE
  5
50
330
1F
100
AcDbEntity
  8
DEFAULT_1
 62
   250
100
AcDbSpline
210
0.0
220
0.0
230
1.0
 70
    24
 71
     3
 72
     8
 73
     4
 74
     0
 42
0.0000000001
 43
0.0000000001
 40
0.0
 40
0.0
 40
0.0
 40
0.0
 40
1.0
 40
1.0
 40
1.0
 40
1.0
 10
17.535
 20
-0.1904
 30
0.0
 10
17.535
 20
-0.1904
 30
0.0
 10
-7.5604
 20
-0.1904
 30
0.0
 10
-7.5604
 20
-0.1904
 30
0.0
  0
SPLINE
  5
51
330
1F
100
AcDbEntity
  8
DEFAULT_1
 62
   250
100
AcDbSpline
210
0.0
220
0.0
230
1.0
 70
     8
 71
     3
 72
    16
 73
    12
 74
     0
 42
0.0000000001
 43
0.0000000001
 40
0.0
 40
0.0
 40
0.0
 40
0.0
 40
0.25
 40
0.25
 40
0.25
 40
0.25
 40
0.5
 40
0.5
 40
0.5
 40
0.5
 40
1.0
 40
1.0
 40
1.0
 40
1.0
 10
-3.3628
 20
-19.9731
 30
0.0
 10
-3.3628
 20
-19.9731
 30
0.0
 10
-3.3242
 20
-19.1528
 30
0.0
 10
-3.3242
 20
-19.1528
 30
0.0
 10
-3.3242
 20
-19.1528
 30
0.0
 10
-3.3242
 20
-19.1528
 30
0.0
 10
13.0078
 20
-19.1528
 30
0.0
 10
13.0078
 20
-19.1528
 30
0.0
 10
13.0078
 20
-19.1528
 30
0.0
 10
13.0078
 20
-19.1528
 30
0.0
 10
12.9951
 20
-19.9214
 30
0.0
 10
12.9951
 20
-19.9214
 30
0.0
  0
SPLINE
  5
52
330
1F
100
AcDbEntity
  8
DEFAULT_1
 62
   250
100
AcDbSpline
210
0.0
220
0.0
230
1.0
 70
    11
 71
     3
 72
    72
 73
    68
 74
     0
 42
0.0000000001
 43
0.0000000001
 40
0.0
 40
0.0
 40
0.0
 40
0.0
 40
0.0555555555555556
 40
0.0555555555555556
 40
0.0555555555555556
 40
0.0555555555555556
 40
0.1111111111111111
 40
0.1111111111111111
 40
0.1111111111111111
 40
0.1111111111111111
 40
0.1666666666666667
 40
0.1666666666666667
 40
0.1666666666666667
 40
0.1666666666666667
 40
0.2222222222222222
 40
0.2222222222222222
 40
0.2222222222222222
 40
0.2222222222222222
 40
0.2777777777777778
 40
0.2777777777777778
 40
0.2777777777777778
 40
0.2777777777777778
 40
0.3333333333333333
 40
0.3333333333333333
 40
0.3333333333333333
 40
0.3333333333333333
 40
0.3888888888888889
 40
0.3888888888888889
 40
0.3888888888888889
 40
0.3888888888888889
 40
0.4444444444444444
 40
0.4444444444444444
 40
0.4444444444444444
 40
0.4444444444444444
 40
0.5
 40
0.5
 40
0.5
 40
0.5
 40
0.5555555555555556
 40
0.5555555555555556
 40
0.5555555555555556
 40
0.5555555555555556
 40
0.6111111111111112
 40
0.6111111111111112
 40
0.6111111111111112
 40
0.6111111111111112
 40
0.6666666666666666
 40
0.6666666666666666
 40
0.6666666666666666
 40
0.6666666666666666
 40
0.7222222222222222
 40
0.7222222222222222
 40
0.7222222222222222
 40
0.7222222222222222
 40
0.7777777777777778
 40
0.7777777777777778
 40
0.7777777777777778
 40
0.7777777777777778
 40
0.8333333333333334
 40
0.8333333333333334
 40
0.8333333333333334
 40
0.8333333333333334
 40
0.8888888888888888
 40
0.8888888888888888
 40
0.8888888888888888
 40
0.8888888888888888
 40
1.0
 40
1.0
 40
1.0
 40
1.0
 10
4.0677
 20
-10.8233
 30
0.0
 10
4.0677
 20
-10.8233
 30
0.0
 10
4.0503
 20
-10.7123
 30
0.0
 10
4.0503
 20
-10.7123
 30
0.0
 10
4.0503
 20
-10.7123
 30
0.0
 10
4.0503
 20
-10.7123
 30
0.0
 10
3.9998
 20
-10.6123
 30
0.0
 10
3.9998
 20
-10.6123
 30
0.0
 10
3.9998
 20
-10.6123
 30
0.0
 10
3.9998
 20
-10.6123
 30
0.0
 10
3.9212
 20
-10.5329
 30
0.0
 10
3.9212
 20
-10.5329
 30
0.0
 10
3.9212
 20
-10.5329
 30
0.0
 10
3.9212
 20
-10.5329
 30
0.0
 10
3.8221
 20
-10.4819
 30
0.0
 10
3.8221
 20
-10.4819
 30
0.0
 10
3.8221
 20
-10.4819
 30
0.0
 10
3.8221
 20
-10.4819
 30
0.0
 10
3.7123
 20
-10.4643
 30
0.0
 10
3.7123
 20
-10.4643
 30
0.0
 10
3.7123
 20
-10.4643
 30
0.0
 10
3.7123
 20
-10.4643
 30
0.0
 10
3.5146
 20
-10.5279
 30
0.0
 10
3.5146
 20
-10.5279
 30
0.0
 10
3.5146
 20
-10.5279
 30
0.0
 10
3.5146
 20
-10.5279
 30
0.0
 10
3.4142
 20
-10.6219
 30
0.0
 10
3.4142
 20
-10.6219
 30
0.0
 10
3.4142
 20
-10.6219
 30
0.0
 10
3.4142
 20
-10.6219
 30
0.0
 10
3.3808
 20
-10.7289
 30
0.0
 10
3.3808
 20
-10.7289
 30
0.0
 10
3.3808
 20
-10.7289
 30
0.0
 10
3.3808
 20
-10.7289
 30
0.0
 10
3.3742
 20
-10.93
 30
0.0
 10
3.3742
 20
-10.93
 30
0.0
 10
3.3742
 20
-10.93
 30
0.0
 10
3.3742
 20
-10.93
 30
0.0
 10
3.4342
 20
-11.0372
 30
0.0
 10
3.4342
 20
-11.0372
 30
0.0
 10
3.4342
 20
-11.0372
 30
0.0
 10
3.4342
 20
-11.0372
 30
0.0
 10
3.5547
 20
-11.1243
 30
0.0
 10
3.5547
 20
-11.1243
 30
0.0
 10
3.5547
 20
-11.1243
 30
0.0
 10
3.5547
 20
-11.1243
 30
0.0
 10
3.6415
 20
-11.1845
 30
0.0
 10
3.6415
 20
-11.1845
 30
0.0
 10
3.6415
 20
-11.1845
 30
0.0
 10
3.6415
 20
-11.1845
 30
0.0
 10
3.8153
 20
-11.1712
 30
0.0
 10
3.8153
 20
-11.1712
 30
0.0
 10
3.8153
 20
-11.1712
 30
0.0
 10
3.8153
 20
-11.1712
 30
0.0
 10
3.9424
 20
-11.1175
 30
0.0
 10
3.9424
 20
-11.1175
 30
0.0
 10
3.9424
 20
-11.1175
 30
0.0
 10
3.9424
 20
-11.1175
 30
0.0
 10
4.0427
 20
-11.0036
 30
0.0
 10
4.0427
 20
-11.0036
 30
0.0
 10
4.0427
 20
-11.0036
 30
0.0
 10
4.0427
 20
-11.0036
 30
0.0
 10
4.056
 20
-10.9167
 30
0.0
 10
4.056
 20
-10.9167
 30
0.0
 10
4.056
 20
-10.9167
 30
0.0
 10
4.056
 20
-10.9167
 30
0.0
 10
4.0677
 20
-10.8233
 30
0.0
 10
4.0677
 20
-10.8233
 30
0.0
  0
SPLINE
  5
53
330
1F
100
AcDbEntity
  8
DEFAULT_1
 62
   250
100
AcDbSpline
210
0.0
220
0.0
230
1.0
 70
     8
 71
     3
 72
    52
 73
    48
 74
     0
 42
0.0000000001
 43
0.0000000001
 40
0.0
 40
0.0
 40
0.0
 40
0.0
 40
0.0769230769230769
 40
0.0769230769230769
 40
0.0769230769230769
 40
0.0769230769230769
 40
0.1538461538461539
 40
0.1538461538461539
 40
0.1538461538461539
 40
0.1538461538461539
 40
0.2307692307692308
 40
0.2307692307692308
 40
0.2307692307692308
 40
0.2307692307692308
 40
0.3076923076923077
 40
0.3076923076923077
 40
0.3076923076923077
 40
0.3076923076923077
 40
0.3846153846153846
 40
0.3846153846153846
 40
0.3846153846153846
 40
0.3846153846153846
 40
0.4615384615384616
 40
0.4615384615384616
 40
0.4615384615384616
 40
0.4615384615384616
 40
0.5384615384615384
 40
0.5384615384615384
 40
0.5384615384615384
 40
0.5384615384615384
 40
0.6153846153846154
 40
0.6153846153846154
 40
0.6153846153846154
 40
0.6153846153846154
 40
0.6923076923076923
 40
0.6923076923076923
 40
0.6923076923076923
 40
0.6923076923076923
 40
0.7692307692307693
 40
0.7692307692307693
 40
0.7692307692307693
 40
0.7692307692307693
 40
0.8461538461538461
 40
0.8461538461538461
 40
0.8461538461538461
 40
0.8461538461538461
 40
1.0
 40
1.0
 40
1.0
 40
1.0
 10
8.77
 20
-27.7371
 30
0.0
 10
8.77
 20
-27.7371
 30
0.0
 10
8.8005
 20
-28.2879
 30
0.0
 10
8.8005
 20
-28.2879
 30
0.0
 10
8.8005
 20
-28.2879
 30
0.0
 10
8.8005
 20
-28.2879
 30
0.0
 10
0.9516
 20
-28.4102
 30
0.0
 10
0.9516
 20
-28.4102
 30
0.0
 10
0.9516
 20
-28.4102
 30
0.0
 10
0.9516
 20
-28.4102
 30
0.0
 10
0.9516
 20
-27.7371
 30
0.0
 10
0.9516
 20
-27.7371
 30
0.0
 10
0.9516
 20
-27.7371
 30
0.0
 10
0.9516
 20
-27.7371
 30
0.0
 10
12.16
 20
-27.7064
 30
0.0
 10
12.16
 20
-27.7064
 30
0.0
 10
12.16
 20
-27.7064
 30
0.0
 10
12.16
 20
-27.7064
 30
0.0
 10
12.6486
 20
-27.6452
 30
0.0
 10
12.6486
 20
-27.6452
 30
0.0
 10
12.6486
 20
-27.6452
 30
0.0
 10
12.6486
 20
-27.6452
 30
0.0
 10
12.9845
 20
-27.2473
 30
0.0
 10
12.9845
 20
-27.2473
 30
0.0
 10
12.9845
 20
-27.2473
 30
0.0
 10
12.9845
 20
-27.2473
 30
0.0
 10
13.1678
 20
-26.8496
 30
0.0
 10
13.1678
 20
-26.8496
 30
0.0
 10
13.1678
 20
-26.8496
 30
0.0
 10
13.1678
 20
-26.8496
 30
0.0
 10
13.1983
 20
-19.9945
 30
0.0
 10
13.1983
 20
-19.9945
 30
0.0
 10
13.1983
 20
-19.9945
 30
0.0
 10
13.1983
 20
-19.9945
 30
0.0
 10
-3.4766
 20
-19.964
 30
0.0
 10
-3.4766
 20
-19.964
 30
0.0
 10
-3.4766
 20
-19.964
 30
0.0
 10
-3.4766
 20
-19.964
 30
0.0
 10
-3.4745
 20
-26.7678
 30
0.0
 10
-3.4745
 20
-26.7678
 30
0.0
 10
-3.4745
 20
-26.7678
 30
0.0
 10
-3.4745
 20
-27.3211
 30
0.0
 10
-3.0259
 20
-27.7697
 30
0.0
 10
-2.4725
 20
-27.7697
 30
0.0
 10
-2.4725
 20
-27.7697
 30
0.0
 10
-2.4725
 20
-27.7697
 30
0.0
 10
2.0512
 20
-27.7371
 30
0.0
 10
2.0512
 20
-27.7371
 30
0.0
  0
SPLINE
  5
54
330
1F
100
AcDbEntity
  8
DEFAULT_1
  6
NEW_LINE1
 62
   250
100
AcDbSpline
210
0.0
220
0.0
230
1.0
 70
    24
 71
     3
 72
     8
 73
     4
 74
     0
 42
0.0000000001
 43
0.0000000001
 40
0.0
 40
0.0
 40
0.0
 40
0.0
 40
1.0
 40
1.0
 40
1.0
 40
1.0
 10
4.8418
 20
-36.0696
 30
0.0
 10
4.8418
 20
-36.0696
 30
0.0
 10
4.8418
 20
36.442
 30
0.0
 10
4.8418
 20
36.442
 30
0.0
  0
SPLINE
  5
56
330
1F
100
AcDbEntity
  8
DEFAULT_1
 62
   250
100
AcDbSpline
210
0.0
220
0.0
230
1.0
 70
    11
 71
     3
 72
    92
 73
    88
 74
     0
 42
0.0000000001
 43
0.0000000001
 40
0.0
 40
0.0
 40
0.0
 40
0.0
 40
0.0434782608695652
 40
0.0434782608695652
 40
0.0434782608695652
 40
0.0434782608695652
 40
0.0869565217391304
 40
0.0869565217391304
 40
0.0869565217391304
 40
0.0869565217391304
 40
0.1304347826086956
 40
0.1304347826086956
 40
0.1304347826086956
 40
0.1304347826086956
 40
0.1739130434782609
 40
0.1739130434782609
 40
0.1739130434782609
 40
0.1739130434782609
 40
0.2173913043478261
 40
0.2173913043478261
 40
0.2173913043478261
 40
0.2173913043478261
 40
0.2608695652173913
 40
0.2608695652173913
 40
0.2608695652173913
 40
0.2608695652173913
 40
0.3043478260869565
 40
0.3043478260869565
 40
0.3043478260869565
 40
0.3043478260869565
 40
0.3478260869565217
 40
0.3478260869565217
 40
0.3478260869565217
 40
0.3478260869565217
 40
0.391304347826087
 40
0.391304347826087
 40
0.391304347826087
 40
0.391304347826087
 40
0.4347826086956522
 40
0.4347826086956522
 40
0.4347826086956522
 40
0.4347826086956522
 40
0.4782608695652174
 40
0.4782608695652174
 40
0.4782608695652174
 40
0.4782608695652174
 40
0.5217391304347826
 40
0.5217391304347826
 40
0.5217391304347826
 40
0.5217391304347826
 40
0.5652173913043478
 40
0.5652173913043478
 40
0.5652173913043478
 40
0.5652173913043478
 40
0.6086956521739131
 40
0.6086956521739131
 40
0.6086956521739131
 40
0.6086956521739131
 40
0.6521739130434783
 40
0.6521739130434783
 40
0.6521739130434783
 40
0.6521739130434783
 40
0.6956521739130435
 40
0.6956521739130435
 40
0.6956521739130435
 40
0.6956521739130435
 40
0.7391304347826086
 40
0.7391304347826086
 40
0.7391304347826086
 40
0.7391304347826086
 40
0.782608695652174
 40
0.782608695652174
 40
0.782608695652174
 40
0.782608695652174
 40
0.8260869565217391
 40
0.8260869565217391
 40
0.8260869565217391
 40
0.8260869565217391
 40
0.8695652173913043
 40
0.8695652173913043
 40
0.8695652173913043
 40
0.8695652173913043
 40
0.9130434782608695
 40
0.9130434782608695
 40
0.9130434782608695
 40
0.9130434782608695
 40
1.0
 40
1.0
 40
1.0
 40
1.0
 10
-15.7451
 20
2.9236
 30
0.0
 10
-15.7451
 20
2.9236
 30
0.0
 10
-15.5067
 20
2.9236
 30
0.0
 10
-15.5067
 20
2.9236
 30
0.0
 10
-15.5067
 20
2.9236
 30
0.0
 10
-15.5067
 20
2.9236
 30
0.0
 10
-15.5067
 20
1.5882
 30
0.0
 10
-15.5067
 20
1.5882
 30
0.0
 10
-15.5067
 20
1.5882
 30
0.0
 10
-15.5665
 20
1.5863
 30
0.0
 10
-15.6238
 20
1.5957
 30
0.0
 10
-15.6788
 20
1.6169
 30
0.0
 10
-15.6788
 20
1.6169
 30
0.0
 10
-15.7701
 20
1.6508
 30
0.0
 10
-15.8595
 20
1.7053
 30
0.0
 10
-15.9478
 20
1.7802
 30
0.0
 10
-15.9478
 20
1.7802
 30
0.0
 10
-16.0359
 20
1.8554
 30
0.0
 10
-16.1379
 20
1.9636
 30
0.0
 10
-16.2537
 20
2.1046
 30
0.0
 10
-16.2537
 20
2.1046
 30
0.0
 10
-16.4338
 20
2.3243
 30
0.0
 10
-16.5763
 20
2.4729
 30
0.0
 10
-16.6816
 20
2.5501
 30
0.0
 10
-16.6816
 20
2.5501
 30
0.0
 10
-16.7865
 20
2.6273
 30
0.0
 10
-16.8862
 20
2.6658
 30
0.0
 10
-16.9798
 20
2.6658
 30
0.0
 10
-16.9798
 20
2.6658
 30
0.0
 10
-17.0782
 20
2.6658
 30
0.0
 10
-17.1609
 20
2.6305
 30
0.0
 10
-17.2286
 20
2.5604
 30
0.0
 10
-17.2286
 20
2.5604
 30
0.0
 10
-17.2959
 20
2.4899
 30
0.0
 10
-17.3298
 20
2.3982
 30
0.0
 10
-17.3298
 20
2.2853
 30
0.0
 10
-17.3298
 20
2.2853
 30
0.0
 10
-17.3298
 20
2.1657
 30
0.0
 10
-17.2941
 20
2.0704
 30
0.0
 10
-17.2221
 20
1.9988
 30
0.0
 10
-17.2221
 20
1.9988
 30
0.0
 10
-17.1506
 20
1.9269
 30
0.0
 10
-17.0513
 20
1.8906
 30
0.0
 10
-16.9248
 20
1.8897
 30
0.0
 10
-16.9248
 20
1.8897
 30
0.0
 10
-16.9248
 20
1.8897
 30
0.0
 10
-16.9506
 20
1.6348
 30
0.0
 10
-16.9506
 20
1.6348
 30
0.0
 10
-16.9506
 20
1.6348
 30
0.0
 10
-17.1411
 20
1.6522
 30
0.0
 10
-17.2861
 20
1.7181
 30
0.0
 10
-17.3858
 20
1.8318
 30
0.0
 10
-17.3858
 20
1.8318
 30
0.0
 10
-17.4855
 20
1.9456
 30
0.0
 10
-17.5354
 20
2.099
 30
0.0
 10
-17.5354
 20
2.2909
 30
0.0
 10
-17.5354
 20
2.2909
 30
0.0
 10
-17.5354
 20
2.4847
 30
0.0
 10
-17.4812
 20
2.638
 30
0.0
 10
-17.374
 20
2.7509
 30
0.0
 10
-17.374
 20
2.7509
 30
0.0
 10
-17.2662
 20
2.8642
 30
0.0
 10
-17.1332
 20
2.9207
 30
0.0
 10
-16.9741
 20
2.9207
 30
0.0
 10
-16.9741
 20
2.9207
 30
0.0
 10
-16.8933
 20
2.9207
 30
0.0
 10
-16.8138
 20
2.9043
 30
0.0
 10
-16.7357
 20
2.8709
 30
0.0
 10
-16.7357
 20
2.8709
 30
0.0
 10
-16.6577
 20
2.838
 30
0.0
 10
-16.5754
 20
2.783
 30
0.0
 10
-16.4892
 20
2.7062
 30
0.0
 10
-16.4892
 20
2.7062
 30
0.0
 10
-16.4027
 20
2.6296
 30
0.0
 10
-16.2842
 20
2.5021
 30
0.0
 10
-16.1337
 20
2.3239
 30
0.0
 10
-16.1337
 20
2.3239
 30
0.0
 10
-16.0086
 20
2.1752
 30
0.0
 10
-15.9239
 20
2.0797
 30
0.0
 10
-15.8792
 20
2.0373
 30
0.0
 10
-15.8792
 20
2.0373
 30
0.0
 10
-15.8349
 20
1.9951
 30
0.0
 10
-15.7904
 20
1.9603
 30
0.0
 10
-15.7451
 20
1.9325
 30
0.0
 10
-15.7451
 20
1.9325
 30
0.0
 10
-15.7451
 20
1.9325
 30
0.0
 10
-15.7451
 20
2.9236
 30
0.0
 10
-15.7451
 20
2.9236
 30
0.0
  0
SPLINE
  5
57
330
1F
100
AcDbEntity
  8
DEFAULT_1
 62
   250
100
AcDbSpline
210
0.0
220
0.0
230
1.0
 70
    11
 71
     3
 72
    92
 73
    88
 74
     0
 42
0.0000000001
 43
0.0000000001
 40
0.0
 40
0.0
 40
0.0
 40
0.0
 40
0.0434782608695652
 40
0.0434782608695652
 40
0.0434782608695652
 40
0.0434782608695652
 40
0.0869565217391304
 40
0.0869565217391304
 40
0.0869565217391304
 40
0.0869565217391304
 40
0.1304347826086956
 40
0.1304347826086956
 40
0.1304347826086956
 40
0.1304347826086956
 40
0.1739130434782609
 40
0.1739130434782609
 40
0.1739130434782609
 40
0.1739130434782609
 40
0.2173913043478261
 40
0.2173913043478261
 40
0.2173913043478261
 40
0.2173913043478261
 40
0.2608695652173913
 40
0.2608695652173913
 40
0.2608695652173913
 40
0.2608695652173913
 40
0.3043478260869565
 40
0.3043478260869565
 40
0.3043478260869565
 40
0.3043478260869565
 40
0.3478260869565217
 40
0.3478260869565217
 40
0.3478260869565217
 40
0.3478260869565217
 40
0.391304347826087
 40
0.391304347826087
 40
0.391304347826087
 40
0.391304347826087
 40
0.4347826086956522
 40
0.4347826086956522
 40
0.4347826086956522
 40
0.4347826086956522
 40
0.4782608695652174
 40
0.4782608695652174
 40
0.4782608695652174
 40
0.4782608695652174
 40
0.5217391304347826
 40
0.5217391304347826
 40
0.5217391304347826
 40
0.5217391304347826
 40
0.5652173913043478
 40
0.5652173913043478
 40
0.5652173913043478
 40
0.5652173913043478
 40
0.6086956521739131
 40
0.6086956521739131
 40
0.6086956521739131
 40
0.6086956521739131
 40
0.6521739130434783
 40
0.6521739130434783
 40
0.6521739130434783
 40
0.6521739130434783
 40
0.6956521739130435
 40
0.6956521739130435
 40
0.6956521739130435
 40
0.6956521739130435
 40
0.7391304347826086
 40
0.7391304347826086
 40
0.7391304347826086
 40
0.7391304347826086
 40
0.782608695652174
 40
0.782608695652174
 40
0.782608695652174
 40
0.782608695652174
 40
0.8260869565217391
 40
0.8260869565217391
 40
0.8260869565217391
 40
0.8260869565217391
 40
0.8695652173913043
 40
0.8695652173913043
 40
0.8695652173913043
 40
0.8695652173913043
 40
0.9130434782608695
 40
0.9130434782608695
 40
0.9130434782608695
 40
0.9130434782608695
 40
1.0
 40
1.0
 40
1.0
 40
1.0
 10
-15.7451
 20
4.4932
 30
0.0
 10
-15.7451
 20
4.4932
 30
0.0
 10
-15.5067
 20
4.4932
 30
0.0
 10
-15.5067
 20
4.4932
 30
0.0
 10
-15.5067
 20
4.4932
 30
0.0
 10
-15.5067
 20
4.4932
 30
0.0
 10
-15.5067
 20
3.1578
 30
0.0
 10
-15.5067
 20
3.1578
 30
0.0
 10
-15.5067
 20
3.1578
 30
0.0
 10
-15.5665
 20
3.1559
 30
0.0
 10
-15.6238
 20
3.1653
 30
0.0
 10
-15.6788
 20
3.1865
 30
0.0
 10
-15.6788
 20
3.1865
 30
0.0
 10
-15.7701
 20
3.2204
 30
0.0
 10
-15.8595
 20
3.2749
 30
0.0
 10
-15.9478
 20
3.3498
 30
0.0
 10
-15.9478
 20
3.3498
 30
0.0
 10
-16.0359
 20
3.425
 30
0.0
 10
-16.1379
 20
3.5332
 30
0.0
 10
-16.2537
 20
3.6742
 30
0.0
 10
-16.2537
 20
3.6742
 30
0.0
 10
-16.4338
 20
3.8939
 30
0.0
 10
-16.5763
 20
4.0425
 30
0.0
 10
-16.6816
 20
4.1197
 30
0.0
 10
-16.6816
 20
4.1197
 30
0.0
 10
-16.7865
 20
4.1969
 30
0.0
 10
-16.8862
 20
4.2354
 30
0.0
 10
-16.9798
 20
4.2354
 30
0.0
 10
-16.9798
 20
4.2354
 30
0.0
 10
-17.0782
 20
4.2354
 30
0.0
 10
-17.1609
 20
4.2001
 30
0.0
 10
-17.2286
 20
4.13
 30
0.0
 10
-17.2286
 20
4.13
 30
0.0
 10
-17.2959
 20
4.0595
 30
0.0
 10
-17.3298
 20
3.9678
 30
0.0
 10
-17.3298
 20
3.8549
 30
0.0
 10
-17.3298
 20
3.8549
 30
0.0
 10
-17.3298
 20
3.7353
 30
0.0
 10
-17.2941
 20
3.64
 30
0.0
 10
-17.2221
 20
3.5684
 30
0.0
 10
-17.2221
 20
3.5684
 30
0.0
 10
-17.1506
 20
3.4965
 30
0.0
 10
-17.0513
 20
3.4602
 30
0.0
 10
-16.9248
 20
3.4593
 30
0.0
 10
-16.9248
 20
3.4593
 30
0.0
 10
-16.9248
 20
3.4593
 30
0.0
 10
-16.9506
 20
3.2044
 30
0.0
 10
-16.9506
 20
3.2044
 30
0.0
 10
-16.9506
 20
3.2044
 30
0.0
 10
-17.1411
 20
3.2218
 30
0.0
 10
-17.2861
 20
3.2877
 30
0.0
 10
-17.3858
 20
3.4014
 30
0.0
 10
-17.3858
 20
3.4014
 30
0.0
 10
-17.4855
 20
3.5152
 30
0.0
 10
-17.5354
 20
3.6686
 30
0.0
 10
-17.5354
 20
3.8605
 30
0.0
 10
-17.5354
 20
3.8605
 30
0.0
 10
-17.5354
 20
4.0543
 30
0.0
 10
-17.4812
 20
4.2076
 30
0.0
 10
-17.374
 20
4.3205
 30
0.0
 10
-17.374
 20
4.3205
 30
0.0
 10
-17.2662
 20
4.4338
 30
0.0
 10
-17.1332
 20
4.4903
 30
0.0
 10
-16.9741
 20
4.4903
 30
0.0
 10
-16.9741
 20
4.4903
 30
0.0
 10
-16.8933
 20
4.4903
 30
0.0
 10
-16.8138
 20
4.4739
 30
0.0
 10
-16.7357
 20
4.4405
 30
0.0
 10
-16.7357
 20
4.4405
 30
0.0
 10
-16.6577
 20
4.4076
 30
0.0
 10
-16.5754
 20
4.3526
 30
0.0
 10
-16.4892
 20
4.2758
 30
0.0
 10
-16.4892
 20
4.2758
 30
0.0
 10
-16.4027
 20
4.1992
 30
0.0
 10
-16.2842
 20
4.0717
 30
0.0
 10
-16.1337
 20
3.8935
 30
0.0
 10
-16.1337
 20
3.8935
 30
0.0
 10
-16.0086
 20
3.7448
 30
0.0
 10
-15.9239
 20
3.6493
 30
0.0
 10
-15.8792
 20
3.6069
 30
0.0
 10
-15.8792
 20
3.6069
 30
0.0
 10
-15.8349
 20
3.5647
 30
0.0
 10
-15.7904
 20
3.5299
 30
0.0
 10
-15.7451
 20
3.5021
 30
0.0
 10
-15.7451
 20
3.5021
 30
0.0
 10
-15.7451
 20
3.5021
 30
0.0
 10
-15.7451
 20
4.4932
 30
0.0
 10
-15.7451
 20
4.4932
 30
0.0
  0
SPLINE
  5
58
330
1F
100
AcDbEntity
  8
DEFAULT_1
 62
   250
100
AcDbSpline
210
0.0
220
0.0
230
1.0
 70
    11
 71
     3
 72
    68
 73
    64
 74
     0
 42
0.0000000001
 43
0.0000000001
 40
0.0
 40
0.0
 40
0.0
 40
0.0
 40
0.0588235294117647
 40
0.0588235294117647
 40
0.0588235294117647
 40
0.0588235294117647
 40
0.1176470588235294
 40
0.1176470588235294
 40
0.1176470588235294
 40
0.1176470588235294
 40
0.1764705882352941
 40
0.1764705882352941
 40
0.1764705882352941
 40
0.1764705882352941
 40
0.2352941176470588
 40
0.2352941176470588
 40
0.2352941176470588
 40
0.2352941176470588
 40
0.2941176470588235
 40
0.2941176470588235
 40
0.2941176470588235
 40
0.2941176470588235
 40
0.3529411764705883
 40
0.3529411764705883
 40
0.3529411764705883
 40
0.3529411764705883
 40
0.4117647058823529
 40
0.4117647058823529
 40
0.4117647058823529
 40
0.4117647058823529
 40
0.4705882352941176
 40
0.4705882352941176
 40
0.4705882352941176
 40
0.4705882352941176
 40
0.5294117647058824
 40
0.5294117647058824
 40
0.5294117647058824
 40
0.5294117647058824
 40
0.5882352941176471
 40
0.5882352941176471
 40
0.5882352941176471
 40
0.5882352941176471
 40
0.6470588235294118
 40
0.6470588235294118
 40
0.6470588235294118
 40
0.6470588235294118
 40
0.7058823529411765
 40
0.7058823529411765
 40
0.7058823529411765
 40
0.7058823529411765
 40
0.7647058823529411
 40
0.7647058823529411
 40
0.7647058823529411
 40
0.7647058823529411
 40
0.8235294117647058
 40
0.8235294117647058
 40
0.8235294117647058
 40
0.8235294117647058
 40
0.8823529411764706
 40
0.8823529411764706
 40
0.8823529411764706
 40
0.8823529411764706
 40
1.0
 40
1.0
 40
1.0
 40
1.0
 10
-16.6021
 20
5.1408
 30
0.0
 10
-16.6398
 20
5.0378
 30
0.0
 10
-16.6934
 20
4.9616
 30
0.0
 10
-16.7634
 20
4.9118
 30
0.0
 10
-16.7634
 20
4.9118
 30
0.0
 10
-16.8331
 20
4.8624
 30
0.0
 10
-16.9168
 20
4.8374
 30
0.0
 10
-17.0142
 20
4.8374
 30
0.0
 10
-17.0142
 20
4.8374
 30
0.0
 10
-17.1614
 20
4.8374
 30
0.0
 10
-17.2846
 20
4.8902
 30
0.0
 10
-17.3848
 20
4.996
 30
0.0
 10
-17.3848
 20
4.996
 30
0.0
 10
-17.485
 20
5.1018
 30
0.0
 10
-17.5354
 20
5.242
 30
0.0
 10
-17.5354
 20
5.4174
 30
0.0
 10
-17.5354
 20
5.4174
 30
0.0
 10
-17.5354
 20
5.5938
 30
0.0
 10
-17.484
 20
5.7359
 30
0.0
 10
-17.3816
 20
5.8435
 30
0.0
 10
-17.3816
 20
5.8435
 30
0.0
 10
-17.279
 20
5.9508
 30
0.0
 10
-17.1543
 20
6.0044
 30
0.0
 10
-17.0072
 20
6.0044
 30
0.0
 10
-17.0072
 20
6.0044
 30
0.0
 10
-16.9135
 20
6.0044
 30
0.0
 10
-16.8322
 20
5.9799
 30
0.0
 10
-16.7626
 20
5.931
 30
0.0
 10
-16.7626
 20
5.931
 30
0.0
 10
-16.6934
 20
5.8817
 30
0.0
 10
-16.6398
 20
5.8074
 30
0.0
 10
-16.6021
 20
5.7071
 30
0.0
 10
-16.6021
 20
5.7071
 30
0.0
 10
-16.5617
 20
5.8309
 30
0.0
 10
-16.4969
 20
5.9254
 30
0.0
 10
-16.4065
 20
5.9904
 30
0.0
 10
-16.4065
 20
5.9904
 30
0.0
 10
-16.3167
 20
6.0548
 30
0.0
 10
-16.209
 20
6.0872
 30
0.0
 10
-16.0842
 20
6.0872
 30
0.0
 10
-16.0842
 20
6.0872
 30
0.0
 10
-15.9112
 20
6.0872
 30
0.0
 10
-15.7663
 20
6.0261
 30
0.0
 10
-15.6488
 20
5.9042
 30
0.0
 10
-15.6488
 20
5.9042
 30
0.0
 10
-15.5312
 20
5.7819
 30
0.0
 10
-15.4723
 20
5.6211
 30
0.0
 10
-15.4723
 20
5.4216
 30
0.0
 10
-15.4723
 20
5.4216
 30
0.0
 10
-15.4723
 20
5.2222
 30
0.0
 10
-15.5312
 20
5.0619
 30
0.0
 10
-15.6492
 20
4.9395
 30
0.0
 10
-15.6492
 20
4.9395
 30
0.0
 10
-15.7673
 20
4.8172
 30
0.0
 10
-15.9146
 20
4.7561
 30
0.0
 10
-16.0909
 20
4.7561
 30
0.0
 10
-16.0909
 20
4.7561
 30
0.0
 10
-16.2221
 20
4.7561
 30
0.0
 10
-16.3322
 20
4.7895
 30
0.0
 10
-16.421
 20
4.8563
 30
0.0
 10
-16.421
 20
4.8563
 30
0.0
 10
-16.5095
 20
4.9226
 30
0.0
 10
-16.5702
 20
5.0176
 30
0.0
 10
-16.6021
 20
5.1408
 30
0.0
  0
SPLINE
  5
59
330
1F
100
AcDbEntity
  8
DEFAULT_1
 62
   250
100
AcDbSpline
210
0.0
220
0.0
230
1.0
 70
    11
 71
     3
 72
    36
 73
    32
 74
     0
 42
0.0000000001
 43
0.0000000001
 40
0.0
 40
0.0
 40
0.0
 40
0.0
 40
0.1111111111111111
 40
0.1111111111111111
 40
0.1111111111111111
 40
0.1111111111111111
 40
0.2222222222222222
 40
0.2222222222222222
 40
0.2222222222222222
 40
0.2222222222222222
 40
0.3333333333333333
 40
0.3333333333333333
 40
0.3333333333333333
 40
0.3333333333333333
 40
0.4444444444444444
 40
0.4444444444444444
 40
0.4444444444444444
 40
0.4444444444444444
 40
0.5555555555555556
 40
0.5555555555555556
 40
0.5555555555555556
 40
0.5555555555555556
 40
0.6666666666666666
 40
0.6666666666666666
 40
0.6666666666666666
 40
0.6666666666666666
 40
0.7777777777777778
 40
0.7777777777777778
 40
0.7777777777777778
 40
0.7777777777777778
 40
1.0
 40
1.0
 40
1.0
 40
1.0
 10
-17.0226
 20
5.091
 30
0.0
 10
-16.9271
 20
5.091
 30
0.0
 10
-16.8491
 20
5.1221
 30
0.0
 10
-16.7884
 20
5.1832
 30
0.0
 10
-16.7884
 20
5.1832
 30
0.0
 10
-16.7277
 20
5.2448
 30
0.0
 10
-16.6971
 20
5.3248
 30
0.0
 10
-16.6971
 20
5.423
 30
0.0
 10
-16.6971
 20
5.423
 30
0.0
 10
-16.6971
 20
5.5185
 30
0.0
 10
-16.7273
 20
5.597
 30
0.0
 10
-16.7875
 20
5.6582
 30
0.0
 10
-16.7875
 20
5.6582
 30
0.0
 10
-16.8477
 20
5.7193
 30
0.0
 10
-16.9216
 20
5.7495
 30
0.0
 10
-17.0085
 20
5.7495
 30
0.0
 10
-17.0085
 20
5.7495
 30
0.0
 10
-17.0998
 20
5.7495
 30
0.0
 10
-17.176
 20
5.7185
 30
0.0
 10
-17.2381
 20
5.6555
 30
0.0
 10
-17.2381
 20
5.6555
 30
0.0
 10
-17.3002
 20
5.5924
 30
0.0
 10
-17.3312
 20
5.5143
 30
0.0
 10
-17.3312
 20
5.4203
 30
0.0
 10
-17.3312
 20
5.4203
 30
0.0
 10
-17.3312
 20
5.3257
 30
0.0
 10
-17.3006
 20
5.2472
 30
0.0
 10
-17.2404
 20
5.1846
 30
0.0
 10
-17.2404
 20
5.1846
 30
0.0
 10
-17.1797
 20
5.1221
 30
0.0
 10
-17.1069
 20
5.091
 30
0.0
 10
-17.0226
 20
5.091
 30
0.0
  0
SPLINE
  5
5A
330
1F
100
AcDbEntity
  8
DEFAULT_1
 62
   250
100
AcDbSpline
210
0.0
220
0.0
230
1.0
 70
    11
 71
     3
 72
    40
 73
    36
 74
     0
 42
0.0000000001
 43
0.0000000001
 40
0.0
 40
0.0
 40
0.0
 40
0.0
 40
0.1
 40
0.1
 40
0.1
 40
0.1
 40
0.2
 40
0.2
 40
0.2
 40
0.2
 40
0.3
 40
0.3
 40
0.3
 40
0.3
 40
0.4
 40
0.4
 40
0.4
 40
0.4
 40
0.5
 40
0.5
 40
0.5
 40
0.5
 40
0.6
 40
0.6
 40
0.6
 40
0.6
 40
0.7
 40
0.7
 40
0.7
 40
0.7
 40
0.8
 40
0.8
 40
0.8
 40
0.8
 40
1.0
 40
1.0
 40
1.0
 40
1.0
 10
-16.0894
 20
5.0111
 30
0.0
 10
-16.0189
 20
5.0111
 30
0.0
 10
-15.9503
 20
5.0279
 30
0.0
 10
-15.8844
 20
5.0613
 30
0.0
 10
-15.8844
 20
5.0613
 30
0.0
 10
-15.8181
 20
5.0948
 30
0.0
 10
-15.7667
 20
5.1446
 30
0.0
 10
-15.7306
 20
5.2109
 30
0.0
 10
-15.7306
 20
5.2109
 30
0.0
 10
-15.6943
 20
5.2772
 30
0.0
 10
-15.676
 20
5.3483
 30
0.0
 10
-15.676
 20
5.4245
 30
0.0
 10
-15.676
 20
5.4245
 30
0.0
 10
-15.676
 20
5.543
 30
0.0
 10
-15.7142
 20
5.6408
 30
0.0
 10
-15.7908
 20
5.718
 30
0.0
 10
-15.7908
 20
5.718
 30
0.0
 10
-15.867
 20
5.7951
 30
0.0
 10
-15.9639
 20
5.8337
 30
0.0
 10
-16.0815
 20
5.8337
 30
0.0
 10
-16.0815
 20
5.8337
 30
0.0
 10
-16.201
 20
5.8337
 30
0.0
 10
-16.2997
 20
5.7942
 30
0.0
 10
-16.3778
 20
5.7147
 30
0.0
 10
-16.3778
 20
5.7147
 30
0.0
 10
-16.4558
 20
5.6352
 30
0.0
 10
-16.495
 20
5.5355
 30
0.0
 10
-16.495
 20
5.4159
 30
0.0
 10
-16.495
 20
5.4159
 30
0.0
 10
-16.495
 20
5.2994
 30
0.0
 10
-16.4564
 20
5.2029
 30
0.0
 10
-16.3792
 20
5.1263
 30
0.0
 10
-16.3792
 20
5.1263
 30
0.0
 10
-16.3016
 20
5.0497
 30
0.0
 10
-16.2052
 20
5.0111
 30
0.0
 10
-16.0894
 20
5.0111
 30
0.0
  0
SPLINE
  5
5B
330
1F
100
AcDbEntity
  8
DEFAULT_1
 62
   250
100
AcDbSpline
210
0.0
220
0.0
230
1.0
 70
    11
 71
     3
 72
    20
 73
    16
 74
     0
 42
0.0000000001
 43
0.0000000001
 40
0.0
 40
0.0
 40
0.0
 40
0.0
 40
0.2
 40
0.2
 40
0.2
 40
0.2
 40
0.4
 40
0.4
 40
0.4
 40
0.4
 40
0.6
 40
0.6
 40
0.6
 40
0.6
 40
1.0
 40
1.0
 40
1.0
 40
1.0
 10
-16.113
 20
7.0849
 30
0.0
 10
-16.113
 20
7.0849
 30
0.0
 10
-16.3622
 20
7.0849
 30
0.0
 10
-16.3622
 20
7.0849
 30
0.0
 10
-16.3622
 20
7.0849
 30
0.0
 10
-16.3622
 20
7.0849
 30
0.0
 10
-16.3622
 20
7.8473
 30
0.0
 10
-16.3622
 20
7.8473
 30
0.0
 10
-16.3622
 20
7.8473
 30
0.0
 10
-16.3622
 20
7.8473
 30
0.0
 10
-16.113
 20
7.8473
 30
0.0
 10
-16.113
 20
7.8473
 30
0.0
 10
-16.113
 20
7.8473
 30
0.0
 10
-16.113
 20
7.8473
 30
0.0
 10
-16.113
 20
7.0849
 30
0.0
 10
-16.113
 20
7.0849
 30
0.0
  0
SPLINE
  5
5C
330
1F
100
AcDbEntity
  8
DEFAULT_1
 62
   250
100
AcDbSpline
210
0.0
220
0.0
230
1.0
 70
    11
 71
     3
 72
   124
 73
   120
 74
     0
 42
0.0000000001
 43
0.0000000001
 40
0.0
 40
0.0
 40
0.0
 40
0.0
 40
0.032258064516129
 40
0.032258064516129
 40
0.032258064516129
 40
0.032258064516129
 40
0.0645161290322581
 40
0.0645161290322581
 40
0.0645161290322581
 40
0.0645161290322581
 40
0.0967741935483871
 40
0.0967741935483871
 40
0.0967741935483871
 40
0.0967741935483871
 40
0.1290322580645161
 40
0.1290322580645161
 40
0.1290322580645161
 40
0.1290322580645161
 40
0.1612903225806452
 40
0.1612903225806452
 40
0.1612903225806452
 40
0.1612903225806452
 40
0.1935483870967742
 40
0.1935483870967742
 40
0.1935483870967742
 40
0.1935483870967742
 40
0.2258064516129032
 40
0.2258064516129032
 40
0.2258064516129032
 40
0.2258064516129032
 40
0.2580645161290323
 40
0.2580645161290323
 40
0.2580645161290323
 40
0.2580645161290323
 40
0.2903225806451613
 40
0.2903225806451613
 40
0.2903225806451613
 40
0.2903225806451613
 40
0.3225806451612903
 40
0.3225806451612903
 40
0.3225806451612903
 40
0.3225806451612903
 40
0.3548387096774194
 40
0.3548387096774194
 40
0.3548387096774194
 40
0.3548387096774194
 40
0.3870967741935484
 40
0.3870967741935484
 40
0.3870967741935484
 40
0.3870967741935484
 40
0.4193548387096774
 40
0.4193548387096774
 40
0.4193548387096774
 40
0.4193548387096774
 40
0.4516129032258064
 40
0.4516129032258064
 40
0.4516129032258064
 40
0.4516129032258064
 40
0.4838709677419355
 40
0.4838709677419355
 40
0.4838709677419355
 40
0.4838709677419355
 40
0.5161290322580645
 40
0.5161290322580645
 40
0.5161290322580645
 40
0.5161290322580645
 40
0.5483870967741935
 40
0.5483870967741935
 40
0.5483870967741935
 40
0.5483870967741935
 40
0.5806451612903226
 40
0.5806451612903226
 40
0.5806451612903226
 40
0.5806451612903226
 40
0.6129032258064516
 40
0.6129032258064516
 40
0.6129032258064516
 40
0.6129032258064516
 40
0.6451612903225806
 40
0.6451612903225806
 40
0.6451612903225806
 40
0.6451612903225806
 40
0.6774193548387096
 40
0.6774193548387096
 40
0.6774193548387096
 40
0.6774193548387096
 40
0.7096774193548387
 40
0.7096774193548387
 40
0.7096774193548387
 40
0.7096774193548387
 40
0.7419354838709677
 40
0.7419354838709677
 40
0.7419354838709677
 40
0.7419354838709677
 40
0.7741935483870968
 40
0.7741935483870968
 40
0.7741935483870968
 40
0.7741935483870968
 40
0.8064516129032258
 40
0.8064516129032258
 40
0.8064516129032258
 40
0.8064516129032258
 40
0.8387096774193549
 40
0.8387096774193549
 40
0.8387096774193549
 40
0.8387096774193549
 40
0.8709677419354839
 40
0.8709677419354839
 40
0.8709677419354839
 40
0.8709677419354839
 40
0.9032258064516129
 40
0.9032258064516129
 40
0.9032258064516129
 40
0.9032258064516129
 40
0.9354838709677419
 40
0.9354838709677419
 40
0.9354838709677419
 40
0.9354838709677419
 40
1.0
 40
1.0
 40
1.0
 40
1.0
 10
-16.0401
 20
8.8377
 30
0.0
 10
-16.0401
 20
8.8377
 30
0.0
 10
-16.073
 20
9.0857
 30
0.0
 10
-16.073
 20
9.0857
 30
0.0
 10
-16.073
 20
9.0857
 30
0.0
 10
-15.9324
 20
9.1143
 30
0.0
 10
-15.8313
 20
9.1628
 30
0.0
 10
-15.7692
 20
9.231
 30
0.0
 10
-15.7692
 20
9.231
 30
0.0
 10
-15.7071
 20
9.2997
 30
0.0
 10
-15.676
 20
9.3829
 30
0.0
 10
-15.676
 20
9.4812
 30
0.0
 10
-15.676
 20
9.4812
 30
0.0
 10
-15.676
 20
9.5979
 30
0.0
 10
-15.7165
 20
9.6966
 30
0.0
 10
-15.7974
 20
9.7771
 30
0.0
 10
-15.7974
 20
9.7771
 30
0.0
 10
-15.8783
 20
9.8571
 30
0.0
 10
-15.9784
 20
9.8974
 30
0.0
 10
-16.098
 20
9.8974
 30
0.0
 10
-16.098
 20
9.8974
 30
0.0
 10
-16.2118
 20
9.8974
 30
0.0
 10
-16.3058
 20
9.8604
 30
0.0
 10
-16.3796
 20
9.786
 30
0.0
 10
-16.3796
 20
9.786
 30
0.0
 10
-16.4535
 20
9.7112
 30
0.0
 10
-16.4907
 20
9.6166
 30
0.0
 10
-16.4907
 20
9.502
 30
0.0
 10
-16.4907
 20
9.502
 30
0.0
 10
-16.4907
 20
9.4549
 30
0.0
 10
-16.4812
 20
9.3965
 30
0.0
 10
-16.4629
 20
9.327
 30
0.0
 10
-16.4629
 20
9.327
 30
0.0
 10
-16.4629
 20
9.327
 30
0.0
 10
-16.6807
 20
9.3547
 30
0.0
 10
-16.6807
 20
9.3547
 30
0.0
 10
-16.6807
 20
9.3547
 30
0.0
 10
-16.6788
 20
9.3711
 30
0.0
 10
-16.6778
 20
9.3843
 30
0.0
 10
-16.6778
 20
9.3946
 30
0.0
 10
-16.6778
 20
9.3946
 30
0.0
 10
-16.6778
 20
9.5001
 30
0.0
 10
-16.7057
 20
9.595
 30
0.0
 10
-16.7607
 20
9.6797
 30
0.0
 10
-16.7607
 20
9.6797
 30
0.0
 10
-16.8157
 20
9.7644
 30
0.0
 10
-16.9008
 20
9.8067
 30
0.0
 10
-17.0156
 20
9.8067
 30
0.0
 10
-17.0156
 20
9.8067
 30
0.0
 10
-17.1063
 20
9.8067
 30
0.0
 10
-17.1821
 20
9.7757
 30
0.0
 10
-17.2414
 20
9.714
 30
0.0
 10
-17.2414
 20
9.714
 30
0.0
 10
-17.3012
 20
9.6525
 30
0.0
 10
-17.3312
 20
9.573
 30
0.0
 10
-17.3312
 20
9.4756
 30
0.0
 10
-17.3312
 20
9.4756
 30
0.0
 10
-17.3312
 20
9.3791
 30
0.0
 10
-17.3006
 20
9.2987
 30
0.0
 10
-17.2404
 20
9.2347
 30
0.0
 10
-17.2404
 20
9.2347
 30
0.0
 10
-17.1797
 20
9.1703
 30
0.0
 10
-17.0885
 20
9.1289
 30
0.0
 10
-16.9672
 20
9.1105
 30
0.0
 10
-16.9672
 20
9.1105
 30
0.0
 10
-16.9672
 20
9.1105
 30
0.0
 10
-17.0114
 20
8.8627
 30
0.0
 10
-17.0114
 20
8.8627
 30
0.0
 10
-17.0114
 20
8.8627
 30
0.0
 10
-17.1778
 20
8.8928
 30
0.0
 10
-17.3067
 20
8.9619
 30
0.0
 10
-17.398
 20
9.0692
 30
0.0
 10
-17.398
 20
9.0692
 30
0.0
 10
-17.4892
 20
9.177
 30
0.0
 10
-17.5354
 20
9.3105
 30
0.0
 10
-17.5354
 20
9.4704
 30
0.0
 10
-17.5354
 20
9.4704
 30
0.0
 10
-17.5354
 20
9.5805
 30
0.0
 10
-17.5113
 20
9.6821
 30
0.0
 10
-17.4643
 20
9.7748
 30
0.0
 10
-17.4643
 20
9.7748
 30
0.0
 10
-17.4168
 20
9.8674
 30
0.0
 10
-17.3524
 20
9.9385
 30
0.0
 10
-17.2706
 20
9.9878
 30
0.0
 10
-17.2706
 20
9.9878
 30
0.0
 10
-17.1887
 20
10.0367
 30
0.0
 10
-17.1021
 20
10.0617
 30
0.0
 10
-17.01
 20
10.0617
 30
0.0
 10
-17.01
 20
10.0617
 30
0.0
 10
-16.9229
 20
10.0617
 30
0.0
 10
-16.8434
 20
10.0381
 30
0.0
 10
-16.7714
 20
9.9911
 30
0.0
 10
-16.7714
 20
9.9911
 30
0.0
 10
-16.7
 20
9.944
 30
0.0
 10
-16.643
 20
9.8749
 30
0.0
 10
-16.6008
 20
9.7832
 30
0.0
 10
-16.6008
 20
9.7832
 30
0.0
 10
-16.5735
 20
9.9026
 30
0.0
 10
-16.516
 20
9.9953
 30
0.0
 10
-16.4291
 20
10.0617
 30
0.0
 10
-16.4291
 20
10.0617
 30
0.0
 10
-16.3425
 20
10.1275
 30
0.0
 10
-16.2338
 20
10.1605
 30
0.0
 10
-16.1035
 20
10.1605
 30
0.0
 10
-16.1035
 20
10.1605
 30
0.0
 10
-15.9272
 20
10.1605
 30
0.0
 10
-15.7776
 20
10.0965
 30
0.0
 10
-15.6549
 20
9.9676
 30
0.0
 10
-15.6549
 20
9.9676
 30
0.0
 10
-15.5321
 20
9.8392
 30
0.0
 10
-15.471
 20
9.6764
 30
0.0
 10
-15.471
 20
9.4798
 30
0.0
 10
-15.471
 20
9.4798
 30
0.0
 10
-15.471
 20
9.3025
 30
0.0
 10
-15.5237
 20
9.1552
 30
0.0
 10
-15.6295
 20
9.0381
 30
0.0
 10
-15.6295
 20
9.0381
 30
0.0
 10
-15.7348
 20
8.921
 30
0.0
 10
-15.8718
 20
8.8543
 30
0.0
 10
-16.0401
 20
8.8377
 30
0.0
  0
SPLINE
  5
5D
330
1F
100
AcDbEntity
  8
DEFAULT_1
 62
   250
100
AcDbSpline
210
0.0
220
0.0
230
1.0
 70
    11
 71
     3
 72
    52
 73
    48
 74
     0
 42
0.0000000001
 43
0.0000000001
 40
0.0
 40
0.0
 40
0.0
 40
0.0
 40
0.0769230769230769
 40
0.0769230769230769
 40
0.0769230769230769
 40
0.0769230769230769
 40
0.1538461538461539
 40
0.1538461538461539
 40
0.1538461538461539
 40
0.1538461538461539
 40
0.2307692307692308
 40
0.2307692307692308
 40
0.2307692307692308
 40
0.2307692307692308
 40
0.3076923076923077
 40
0.3076923076923077
 40
0.3076923076923077
 40
0.3076923076923077
 40
0.3846153846153846
 40
0.3846153846153846
 40
0.3846153846153846
 40
0.3846153846153846
 40
0.4615384615384616
 40
0.4615384615384616
 40
0.4615384615384616
 40
0.4615384615384616
 40
0.5384615384615384
 40
0.5384615384615384
 40
0.5384615384615384
 40
0.5384615384615384
 40
0.6153846153846154
 40
0.6153846153846154
 40
0.6153846153846154
 40
0.6153846153846154
 40
0.6923076923076923
 40
0.6923076923076923
 40
0.6923076923076923
 40
0.6923076923076923
 40
0.7692307692307693
 40
0.7692307692307693
 40
0.7692307692307693
 40
0.7692307692307693
 40
0.8461538461538461
 40
0.8461538461538461
 40
0.8461538461538461
 40
0.8461538461538461
 40
1.0
 40
1.0
 40
1.0
 40
1.0
 10
-16.503
 20
10.406
 30
0.0
 10
-16.7418
 20
10.406
 30
0.0
 10
-16.9342
 20
10.4304
 30
0.0
 10
-17.0796
 20
10.4799
 30
0.0
 10
-17.0796
 20
10.4799
 30
0.0
 10
-17.2253
 20
10.5288
 30
0.0
 10
-17.3378
 20
10.6022
 30
0.0
 10
-17.4168
 20
10.699
 30
0.0
 10
-17.4168
 20
10.699
 30
0.0
 10
-17.4958
 20
10.7959
 30
0.0
 10
-17.5354
 20
10.9178
 30
0.0
 10
-17.5354
 20
11.0645
 30
0.0
 10
-17.5354
 20
11.0645
 30
0.0
 10
-17.5354
 20
11.1732
 30
0.0
 10
-17.5132
 20
11.2681
 30
0.0
 10
-17.4695
 20
11.3499
 30
0.0
 10
-17.4695
 20
11.3499
 30
0.0
 10
-17.4261
 20
11.4319
 30
0.0
 10
-17.3632
 20
11.4991
 30
0.0
 10
-17.2809
 20
11.5526
 30
0.0
 10
-17.2809
 20
11.5526
 30
0.0
 10
-17.1986
 20
11.6059
 30
0.0
 10
-17.0983
 20
11.6477
 30
0.0
 10
-16.9803
 20
11.6778
 30
0.0
 10
-16.9803
 20
11.6778
 30
0.0
 10
-16.8622
 20
11.7083
 30
0.0
 10
-16.7032
 20
11.7234
 30
0.0
 10
-16.503
 20
11.7234
 30
0.0
 10
-16.503
 20
11.7234
 30
0.0
 10
-16.2659
 20
11.7234
 30
0.0
 10
-16.0749
 20
11.699
 30
0.0
 10
-15.9291
 20
11.6505
 30
0.0
 10
-15.9291
 20
11.6505
 30
0.0
 10
-15.7833
 20
11.6016
 30
0.0
 10
-15.6708
 20
11.5287
 30
0.0
 10
-15.5913
 20
11.4319
 30
0.0
 10
-15.5913
 20
11.4319
 30
0.0
 10
-15.5119
 20
11.3349
 30
0.0
 10
-15.4723
 20
11.2126
 30
0.0
 10
-15.4723
 20
11.0645
 30
0.0
 10
-15.4723
 20
11.0645
 30
0.0
 10
-15.4723
 20
10.8698
 30
0.0
 10
-15.542
 20
10.7168
 30
0.0
 10
-15.6817
 20
10.6058
 30
0.0
 10
-15.6817
 20
10.6058
 30
0.0
 10
-15.8496
 20
10.4728
 30
0.0
 10
-16.1238
 20
10.406
 30
0.0
 10
-16.503
 20
10.406
 30
0.0
  0
SPLINE
  5
5E
330
1F
100
AcDbEntity
  8
DEFAULT_1
 62
   250
100
AcDbSpline
210
0.0
220
0.0
230
1.0
 70
    11
 71
     3
 72
    36
 73
    32
 74
     0
 42
0.0000000001
 43
0.0000000001
 40
0.0
 40
0.0
 40
0.0
 40
0.0
 40
0.1111111111111111
 40
0.1111111111111111
 40
0.1111111111111111
 40
0.1111111111111111
 40
0.2222222222222222
 40
0.2222222222222222
 40
0.2222222222222222
 40
0.2222222222222222
 40
0.3333333333333333
 40
0.3333333333333333
 40
0.3333333333333333
 40
0.3333333333333333
 40
0.4444444444444444
 40
0.4444444444444444
 40
0.4444444444444444
 40
0.4444444444444444
 40
0.5555555555555556
 40
0.5555555555555556
 40
0.5555555555555556
 40
0.5555555555555556
 40
0.6666666666666666
 40
0.6666666666666666
 40
0.6666666666666666
 40
0.6666666666666666
 40
0.7777777777777778
 40
0.7777777777777778
 40
0.7777777777777778
 40
0.7777777777777778
 40
1.0
 40
1.0
 40
1.0
 40
1.0
 10
-16.503
 20
10.6609
 30
0.0
 10
-16.1713
 20
10.6609
 30
0.0
 10
-15.9507
 20
10.7
 30
0.0
 10
-15.8406
 20
10.7776
 30
0.0
 10
-15.8406
 20
10.7776
 30
0.0
 10
-15.731
 20
10.8551
 30
0.0
 10
-15.676
 20
10.9506
 30
0.0
 10
-15.676
 20
11.0645
 30
0.0
 10
-15.676
 20
11.0645
 30
0.0
 10
-15.676
 20
11.1788
 30
0.0
 10
-15.7316
 20
11.2743
 30
0.0
 10
-15.8416
 20
11.3518
 30
0.0
 10
-15.8416
 20
11.3518
 30
0.0
 10
-15.9516
 20
11.4294
 30
0.0
 10
-16.1723
 20
11.4685
 30
0.0
 10
-16.503
 20
11.4685
 30
0.0
 10
-16.503
 20
11.4685
 30
0.0
 10
-16.8354
 20
11.4685
 30
0.0
 10
-17.0565
 20
11.4294
 30
0.0
 10
-17.1656
 20
11.3518
 30
0.0
 10
-17.1656
 20
11.3518
 30
0.0
 10
-17.2752
 20
11.2743
 30
0.0
 10
-17.3298
 20
11.1778
 30
0.0
 10
-17.3298
 20
11.0622
 30
0.0
 10
-17.3298
 20
11.0622
 30
0.0
 10
-17.3298
 20
10.9478
 30
0.0
 10
-17.2813
 20
10.857
 30
0.0
 10
-17.1849
 20
10.7888
 30
0.0
 10
-17.1849
 20
10.7888
 30
0.0
 10
-17.0622
 20
10.7036
 30
0.0
 10
-16.8345
 20
10.6609
 30
0.0
 10
-16.503
 20
10.6609
 30
0.0
  0
SPLINE
  5
5F
330
1F
100
AcDbEntity
  8
DEFAULT_1
 62
   250
100
AcDbSpline
210
0.0
220
0.0
230
1.0
 70
    11
 71
     3
 72
    68
 73
    64
 74
     0
 42
0.0000000001
 43
0.0000000001
 40
0.0
 40
0.0
 40
0.0
 40
0.0
 40
0.0588235294117647
 40
0.0588235294117647
 40
0.0588235294117647
 40
0.0588235294117647
 40
0.1176470588235294
 40
0.1176470588235294
 40
0.1176470588235294
 40
0.1176470588235294
 40
0.1764705882352941
 40
0.1764705882352941
 40
0.1764705882352941
 40
0.1764705882352941
 40
0.2352941176470588
 40
0.2352941176470588
 40
0.2352941176470588
 40
0.2352941176470588
 40
0.2941176470588235
 40
0.2941176470588235
 40
0.2941176470588235
 40
0.2941176470588235
 40
0.3529411764705883
 40
0.3529411764705883
 40
0.3529411764705883
 40
0.3529411764705883
 40
0.4117647058823529
 40
0.4117647058823529
 40
0.4117647058823529
 40
0.4117647058823529
 40
0.4705882352941176
 40
0.4705882352941176
 40
0.4705882352941176
 40
0.4705882352941176
 40
0.5294117647058824
 40
0.5294117647058824
 40
0.5294117647058824
 40
0.5294117647058824
 40
0.5882352941176471
 40
0.5882352941176471
 40
0.5882352941176471
 40
0.5882352941176471
 40
0.6470588235294118
 40
0.6470588235294118
 40
0.6470588235294118
 40
0.6470588235294118
 40
0.7058823529411765
 40
0.7058823529411765
 40
0.7058823529411765
 40
0.7058823529411765
 40
0.7647058823529411
 40
0.7647058823529411
 40
0.7647058823529411
 40
0.7647058823529411
 40
0.8235294117647058
 40
0.8235294117647058
 40
0.8235294117647058
 40
0.8235294117647058
 40
0.8823529411764706
 40
0.8823529411764706
 40
0.8823529411764706
 40
0.8823529411764706
 40
1.0
 40
1.0
 40
1.0
 40
1.0
 10
-16.6021
 20
12.3575
 30
0.0
 10
-16.6398
 20
12.2545
 30
0.0
 10
-16.6934
 20
12.1783
 30
0.0
 10
-16.7634
 20
12.1284
 30
0.0
 10
-16.7634
 20
12.1284
 30
0.0
 10
-16.8331
 20
12.0791
 30
0.0
 10
-16.9168
 20
12.0541
 30
0.0
 10
-17.0142
 20
12.0541
 30
0.0
 10
-17.0142
 20
12.0541
 30
0.0
 10
-17.1614
 20
12.0541
 30
0.0
 10
-17.2846
 20
12.1068
 30
0.0
 10
-17.3848
 20
12.2127
 30
0.0
 10
-17.3848
 20
12.2127
 30
0.0
 10
-17.485
 20
12.3185
 30
0.0
 10
-17.5354
 20
12.4587
 30
0.0
 10
-17.5354
 20
12.6341
 30
0.0
 10
-17.5354
 20
12.6341
 30
0.0
 10
-17.5354
 20
12.8104
 30
0.0
 10
-17.484
 20
12.9526
 30
0.0
 10
-17.3816
 20
13.0602
 30
0.0
 10
-17.3816
 20
13.0602
 30
0.0
 10
-17.279
 20
13.1675
 30
0.0
 10
-17.1543
 20
13.221
 30
0.0
 10
-17.0072
 20
13.221
 30
0.0
 10
-17.0072
 20
13.221
 30
0.0
 10
-16.9135
 20
13.221
 30
0.0
 10
-16.8322
 20
13.1966
 30
0.0
 10
-16.7626
 20
13.1477
 30
0.0
 10
-16.7626
 20
13.1477
 30
0.0
 10
-16.6934
 20
13.0983
 30
0.0
 10
-16.6398
 20
13.024
 30
0.0
 10
-16.6021
 20
12.9238
 30
0.0
 10
-16.6021
 20
12.9238
 30
0.0
 10
-16.5617
 20
13.0475
 30
0.0
 10
-16.4969
 20
13.1421
 30
0.0
 10
-16.4065
 20
13.207
 30
0.0
 10
-16.4065
 20
13.207
 30
0.0
 10
-16.3167
 20
13.2714
 30
0.0
 10
-16.209
 20
13.3039
 30
0.0
 10
-16.0842
 20
13.3039
 30
0.0
 10
-16.0842
 20
13.3039
 30
0.0
 10
-15.9112
 20
13.3039
 30
0.0
 10
-15.7663
 20
13.2428
 30
0.0
 10
-15.6488
 20
13.1209
 30
0.0
 10
-15.6488
 20
13.1209
 30
0.0
 10
-15.5312
 20
12.9986
 30
0.0
 10
-15.4723
 20
12.8378
 30
0.0
 10
-15.4723
 20
12.6383
 30
0.0
 10
-15.4723
 20
12.6383
 30
0.0
 10
-15.4723
 20
12.4389
 30
0.0
 10
-15.5312
 20
12.2785
 30
0.0
 10
-15.6492
 20
12.1561
 30
0.0
 10
-15.6492
 20
12.1561
 30
0.0
 10
-15.7673
 20
12.0339
 30
0.0
 10
-15.9146
 20
11.9727
 30
0.0
 10
-16.0909
 20
11.9727
 30
0.0
 10
-16.0909
 20
11.9727
 30
0.0
 10
-16.2221
 20
11.9727
 30
0.0
 10
-16.3322
 20
12.0061
 30
0.0
 10
-16.421
 20
12.073
 30
0.0
 10
-16.421
 20
12.073
 30
0.0
 10
-16.5095
 20
12.1393
 30
0.0
 10
-16.5702
 20
12.2343
 30
0.0
 10
-16.6021
 20
12.3575
 30
0.0
  0
SPLINE
  5
60
330
1F
100
AcDbEntity
  8
DEFAULT_1
 62
   250
100
AcDbSpline
210
0.0
220
0.0
230
1.0
 70
    11
 71
     3
 72
    36
 73
    32
 74
     0
 42
0.0000000001
 43
0.0000000001
 40
0.0
 40
0.0
 40
0.0
 40
0.0
 40
0.1111111111111111
 40
0.1111111111111111
 40
0.1111111111111111
 40
0.1111111111111111
 40
0.2222222222222222
 40
0.2222222222222222
 40
0.2222222222222222
 40
0.2222222222222222
 40
0.3333333333333333
 40
0.3333333333333333
 40
0.3333333333333333
 40
0.3333333333333333
 40
0.4444444444444444
 40
0.4444444444444444
 40
0.4444444444444444
 40
0.4444444444444444
 40
0.5555555555555556
 40
0.5555555555555556
 40
0.5555555555555556
 40
0.5555555555555556
 40
0.6666666666666666
 40
0.6666666666666666
 40
0.6666666666666666
 40
0.6666666666666666
 40
0.7777777777777778
 40
0.7777777777777778
 40
0.7777777777777778
 40
0.7777777777777778
 40
1.0
 40
1.0
 40
1.0
 40
1.0
 10
-17.0226
 20
12.3076
 30
0.0
 10
-16.9271
 20
12.3076
 30
0.0
 10
-16.8491
 20
12.3387
 30
0.0
 10
-16.7884
 20
12.3999
 30
0.0
 10
-16.7884
 20
12.3999
 30
0.0
 10
-16.7277
 20
12.4614
 30
0.0
 10
-16.6971
 20
12.5414
 30
0.0
 10
-16.6971
 20
12.6397
 30
0.0
 10
-16.6971
 20
12.6397
 30
0.0
 10
-16.6971
 20
12.7352
 30
0.0
 10
-16.7273
 20
12.8137
 30
0.0
 10
-16.7875
 20
12.8748
 30
0.0
 10
-16.7875
 20
12.8748
 30
0.0
 10
-16.8477
 20
12.936
 30
0.0
 10
-16.9216
 20
12.9661
 30
0.0
 10
-17.0085
 20
12.9661
 30
0.0
 10
-17.0085
 20
12.9661
 30
0.0
 10
-17.0998
 20
12.9661
 30
0.0
 10
-17.176
 20
12.9352
 30
0.0
 10
-17.2381
 20
12.8721
 30
0.0
 10
-17.2381
 20
12.8721
 30
0.0
 10
-17.3002
 20
12.8091
 30
0.0
 10
-17.3312
 20
12.731
 30
0.0
 10
-17.3312
 20
12.6369
 30
0.0
 10
-17.3312
 20
12.6369
 30
0.0
 10
-17.3312
 20
12.5424
 30
0.0
 10
-17.3006
 20
12.4639
 30
0.0
 10
-17.2404
 20
12.4012
 30
0.0
 10
-17.2404
 20
12.4012
 30
0.0
 10
-17.1797
 20
12.3387
 30
0.0
 10
-17.1069
 20
12.3076
 30
0.0
 10
-17.0226
 20
12.3076
 30
0.0
  0
SPLINE
  5
61
330
1F
100
AcDbEntity
  8
DEFAULT_1
 62
   250
100
AcDbSpline
210
0.0
220
0.0
230
1.0
 70
    11
 71
     3
 72
    40
 73
    36
 74
     0
 42
0.0000000001
 43
0.0000000001
 40
0.0
 40
0.0
 40
0.0
 40
0.0
 40
0.1
 40
0.1
 40
0.1
 40
0.1
 40
0.2
 40
0.2
 40
0.2
 40
0.2
 40
0.3
 40
0.3
 40
0.3
 40
0.3
 40
0.4
 40
0.4
 40
0.4
 40
0.4
 40
0.5
 40
0.5
 40
0.5
 40
0.5
 40
0.6
 40
0.6
 40
0.6
 40
0.6
 40
0.7
 40
0.7
 40
0.7
 40
0.7
 40
0.8
 40
0.8
 40
0.8
 40
0.8
 40
1.0
 40
1.0
 40
1.0
 40
1.0
 10
-16.0894
 20
12.2277
 30
0.0
 10
-16.0189
 20
12.2277
 30
0.0
 10
-15.9503
 20
12.2446
 30
0.0
 10
-15.8844
 20
12.278
 30
0.0
 10
-15.8844
 20
12.278
 30
0.0
 10
-15.8181
 20
12.3114
 30
0.0
 10
-15.7667
 20
12.3613
 30
0.0
 10
-15.7306
 20
12.4276
 30
0.0
 10
-15.7306
 20
12.4276
 30
0.0
 10
-15.6943
 20
12.4939
 30
0.0
 10
-15.676
 20
12.5649
 30
0.0
 10
-15.676
 20
12.6412
 30
0.0
 10
-15.676
 20
12.6412
 30
0.0
 10
-15.676
 20
12.7596
 30
0.0
 10
-15.7142
 20
12.8575
 30
0.0
 10
-15.7908
 20
12.9346
 30
0.0
 10
-15.7908
 20
12.9346
 30
0.0
 10
-15.867
 20
13.0118
 30
0.0
 10
-15.9639
 20
13.0504
 30
0.0
 10
-16.0815
 20
13.0504
 30
0.0
 10
-16.0815
 20
13.0504
 30
0.0
 10
-16.201
 20
13.0504
 30
0.0
 10
-16.2997
 20
13.0108
 30
0.0
 10
-16.3778
 20
12.9314
 30
0.0
 10
-16.3778
 20
12.9314
 30
0.0
 10
-16.4558
 20
12.8519
 30
0.0
 10
-16.495
 20
12.7522
 30
0.0
 10
-16.495
 20
12.6326
 30
0.0
 10
-16.495
 20
12.6326
 30
0.0
 10
-16.495
 20
12.516
 30
0.0
 10
-16.4564
 20
12.4196
 30
0.0
 10
-16.3792
 20
12.3429
 30
0.0
 10
-16.3792
 20
12.3429
 30
0.0
 10
-16.3016
 20
12.2663
 30
0.0
 10
-16.2052
 20
12.2277
 30
0.0
 10
-16.0894
 20
12.2277
 30
0.0
  0
SPLINE
  5
62
330
1F
100
AcDbEntity
  8
DEFAULT_1
 62
   250
100
AcDbSpline
210
0.0
220
0.0
230
1.0
 70
    11
 71
     3
 72
    84
 73
    80
 74
     0
 42
0.0000000001
 43
0.0000000001
 40
0.0
 40
0.0
 40
0.0
 40
0.0
 40
0.0476190476190476
 40
0.0476190476190476
 40
0.0476190476190476
 40
0.0476190476190476
 40
0.0952380952380952
 40
0.0952380952380952
 40
0.0952380952380952
 40
0.0952380952380952
 40
0.1428571428571428
 40
0.1428571428571428
 40
0.1428571428571428
 40
0.1428571428571428
 40
0.1904761904761905
 40
0.1904761904761905
 40
0.1904761904761905
 40
0.1904761904761905
 40
0.2380952380952381
 40
0.2380952380952381
 40
0.2380952380952381
 40
0.2380952380952381
 40
0.2857142857142857
 40
0.2857142857142857
 40
0.2857142857142857
 40
0.2857142857142857
 40
0.3333333333333333
 40
0.3333333333333333
 40
0.3333333333333333
 40
0.3333333333333333
 40
0.3809523809523809
 40
0.3809523809523809
 40
0.3809523809523809
 40
0.3809523809523809
 40
0.4285714285714285
 40
0.4285714285714285
 40
0.4285714285714285
 40
0.4285714285714285
 40
0.4761904761904762
 40
0.4761904761904762
 40
0.4761904761904762
 40
0.4761904761904762
 40
0.5238095238095238
 40
0.5238095238095238
 40
0.5238095238095238
 40
0.5238095238095238
 40
0.5714285714285714
 40
0.5714285714285714
 40
0.5714285714285714
 40
0.5714285714285714
 40
0.6190476190476191
 40
0.6190476190476191
 40
0.6190476190476191
 40
0.6190476190476191
 40
0.6666666666666666
 40
0.6666666666666666
 40
0.6666666666666666
 40
0.6666666666666666
 40
0.7142857142857143
 40
0.7142857142857143
 40
0.7142857142857143
 40
0.7142857142857143
 40
0.7619047619047619
 40
0.7619047619047619
 40
0.7619047619047619
 40
0.7619047619047619
 40
0.8095238095238095
 40
0.8095238095238095
 40
0.8095238095238095
 40
0.8095238095238095
 40
0.8571428571428571
 40
0.8571428571428571
 40
0.8571428571428571
 40
0.8571428571428571
 40
0.9047619047619048
 40
0.9047619047619048
 40
0.9047619047619048
 40
0.9047619047619048
 40
1.0
 40
1.0
 40
1.0
 40
1.0
 10
4.4556
 20
2.1829
 30
0.0
 10
4.4556
 20
2.1829
 30
0.0
 10
4.687
 20
2.442
 30
0.0
 10
4.687
 20
2.442
 30
0.0
 10
4.687
 20
2.442
 30
0.0
 10
4.687
 20
2.442
 30
0.0
 10
4.8234
 20
2.3264
 30
0.0
 10
4.8234
 20
2.3264
 30
0.0
 10
4.8234
 20
2.3264
 30
0.0
 10
4.8234
 20
2.3264
 30
0.0
 10
4.5812
 20
2.0536
 30
0.0
 10
4.5812
 20
2.0536
 30
0.0
 10
4.5812
 20
2.0536
 30
0.0
 10
4.6603
 20
1.936
 30
0.0
 10
4.7134
 20
1.833
 30
0.0
 10
4.7411
 20
1.7451
 30
0.0
 10
4.7411
 20
1.7451
 30
0.0
 10
4.7778
 20
1.6293
 30
0.0
 10
4.7961
 20
1.4994
 30
0.0
 10
4.7961
 20
1.3565
 30
0.0
 10
4.7961
 20
1.3565
 30
0.0
 10
4.7961
 20
1.1496
 30
0.0
 10
4.7543
 20
0.9652
 30
0.0
 10
4.6706
 20
0.8038
 30
0.0
 10
4.6706
 20
0.8038
 30
0.0
 10
4.5869
 20
0.642
 30
0.0
 10
4.4698
 20
0.5197
 30
0.0
 10
4.3187
 20
0.437
 30
0.0
 10
4.3187
 20
0.437
 30
0.0
 10
4.1674
 20
0.3547
 30
0.0
 10
4.0069
 20
0.3132
 30
0.0
 10
3.8371
 20
0.3132
 30
0.0
 10
3.8371
 20
0.3132
 30
0.0
 10
3.7102
 20
0.3132
 30
0.0
 10
3.5954
 20
0.3312
 30
0.0
 10
3.4924
 20
0.3669
 30
0.0
 10
3.4924
 20
0.3669
 30
0.0
 10
3.4133
 20
0.3946
 30
0.0
 10
3.3212
 20
0.4473
 30
0.0
 10
3.2154
 20
0.5254
 30
0.0
 10
3.2154
 20
0.5254
 30
0.0
 10
3.2154
 20
0.5254
 30
0.0
 10
2.9839
 20
0.2662
 30
0.0
 10
2.9839
 20
0.2662
 30
0.0
 10
2.9839
 20
0.2662
 30
0.0
 10
2.9839
 20
0.2662
 30
0.0
 10
2.8475
 20
0.382
 30
0.0
 10
2.8475
 20
0.382
 30
0.0
 10
2.8475
 20
0.382
 30
0.0
 10
2.8475
 20
0.382
 30
0.0
 10
3.0902
 20
0.6533
 30
0.0
 10
3.0902
 20
0.6533
 30
0.0
 10
3.0902
 20
0.6533
 30
0.0
 10
2.9999
 20
0.7902
 30
0.0
 10
2.9397
 20
0.9073
 30
0.0
 10
2.9095
 20
1.0042
 30
0.0
 10
2.9095
 20
1.0042
 30
0.0
 10
2.8795
 20
1.1011
 30
0.0
 10
2.8639
 20
1.2178
 30
0.0
 10
2.8639
 20
1.3537
 30
0.0
 10
2.8639
 20
1.3537
 30
0.0
 10
2.8639
 20
1.5611
 30
0.0
 10
2.9053
 20
1.746
 30
0.0
 10
2.9881
 20
1.9082
 30
0.0
 10
2.9881
 20
1.9082
 30
0.0
 10
3.071
 20
2.0705
 30
0.0
 10
3.1866
 20
2.1933
 30
0.0
 10
3.3362
 20
2.277
 30
0.0
 10
3.3362
 20
2.277
 30
0.0
 10
3.4853
 20
2.3602
 30
0.0
 10
3.6514
 20
2.4021
 30
0.0
 10
3.8344
 20
2.4021
 30
0.0
 10
3.8344
 20
2.4021
 30
0.0
 10
3.9576
 20
2.4021
 30
0.0
 10
4.0652
 20
2.3861
 30
0.0
 10
4.1574
 20
2.3532
 30
0.0
 10
4.1574
 20
2.3532
 30
0.0
 10
4.2495
 20
2.3207
 30
0.0
 10
4.3493
 20
2.2638
 30
0.0
 10
4.4556
 20
2.1829
 30
0.0
  0
SPLINE
  5
63
330
1F
100
AcDbEntity
  8
DEFAULT_1
 62
   250
100
AcDbSpline
210
0.0
220
0.0
230
1.0
 70
    11
 71
     3
 72
    32
 73
    28
 74
     0
 42
0.0000000001
 43
0.0000000001
 40
0.0
 40
0.0
 40
0.0
 40
0.0
 40
0.125
 40
0.125
 40
0.125
 40
0.125
 40
0.25
 40
0.25
 40
0.25
 40
0.25
 40
0.375
 40
0.375
 40
0.375
 40
0.375
 40
0.5
 40
0.5
 40
0.5
 40
0.5
 40
0.625
 40
0.625
 40
0.625
 40
0.625
 40
0.75
 40
0.75
 40
0.75
 40
0.75
 40
1.0
 40
1.0
 40
1.0
 40
1.0
 10
4.2906
 20
1.9971
 30
0.0
 10
4.204
 20
2.0649
 30
0.0
 10
4.1282
 20
2.1115
 30
0.0
 10
4.0638
 20
2.1363
 30
0.0
 10
4.0638
 20
2.1363
 30
0.0
 10
3.9989
 20
2.1608
 30
0.0
 10
3.9227
 20
2.1734
 30
0.0
 10
3.8357
 20
2.1734
 30
0.0
 10
3.8357
 20
2.1734
 30
0.0
 10
3.6344
 20
2.1734
 30
0.0
 10
3.4683
 20
2.1052
 30
0.0
 10
3.3367
 20
1.969
 30
0.0
 10
3.3367
 20
1.969
 30
0.0
 10
3.2055
 20
1.8326
 30
0.0
 10
3.1396
 20
1.6288
 30
0.0
 10
3.1396
 20
1.3575
 30
0.0
 10
3.1396
 20
1.3575
 30
0.0
 10
3.1396
 20
1.2512
 30
0.0
 10
3.1499
 20
1.1567
 30
0.0
 10
3.1701
 20
1.0738
 30
0.0
 10
3.1701
 20
1.0738
 30
0.0
 10
3.1848
 20
1.0122
 30
0.0
 10
3.2154
 20
0.9364
 30
0.0
 10
3.2624
 20
0.8466
 30
0.0
 10
3.2624
 20
0.8466
 30
0.0
 10
3.2624
 20
0.8466
 30
0.0
 10
4.2906
 20
1.9971
 30
0.0
 10
4.2906
 20
1.9971
 30
0.0
  0
SPLINE
  5
64
330
1F
100
AcDbEntity
  8
DEFAULT_1
 62
   250
100
AcDbSpline
210
0.0
220
0.0
230
1.0
 70
    11
 71
     3
 72
    28
 73
    24
 74
     0
 42
0.0000000001
 43
0.0000000001
 40
0.0
 40
0.0
 40
0.0
 40
0.0
 40
0.1428571428571428
 40
0.1428571428571428
 40
0.1428571428571428
 40
0.1428571428571428
 40
0.2857142857142857
 40
0.2857142857142857
 40
0.2857142857142857
 40
0.2857142857142857
 40
0.4285714285714285
 40
0.4285714285714285
 40
0.4285714285714285
 40
0.4285714285714285
 40
0.5714285714285714
 40
0.5714285714285714
 40
0.5714285714285714
 40
0.5714285714285714
 40
0.7142857142857143
 40
0.7142857142857143
 40
0.7142857142857143
 40
0.7142857142857143
 40
1.0
 40
1.0
 40
1.0
 40
1.0
 10
4.4035
 20
1.8551
 30
0.0
 10
4.4035
 20
1.8551
 30
0.0
 10
3.3795
 20
0.7089
 30
0.0
 10
3.3795
 20
0.7089
 30
0.0
 10
3.3795
 20
0.7089
 30
0.0
 10
3.45
 20
0.651
 30
0.0
 10
3.5154
 20
0.6105
 30
0.0
 10
3.5751
 20
0.5875
 30
0.0
 10
3.5751
 20
0.5875
 30
0.0
 10
3.6533
 20
0.557
 30
0.0
 10
3.7379
 20
0.5419
 30
0.0
 10
3.8286
 20
0.5419
 30
0.0
 10
3.8286
 20
0.5419
 30
0.0
 10
4.029
 20
0.5419
 30
0.0
 10
4.1941
 20
0.6124
 30
0.0
 10
4.3248
 20
0.754
 30
0.0
 10
4.3248
 20
0.754
 30
0.0
 10
4.4551
 20
0.8955
 30
0.0
 10
4.5206
 20
1.094
 30
0.0
 10
4.5206
 20
1.3494
 30
0.0
 10
4.5206
 20
1.3494
 30
0.0
 10
4.5206
 20
1.5405
 30
0.0
 10
4.4815
 20
1.7092
 30
0.0
 10
4.4035
 20
1.8551
 30
0.0
  0
SPLINE
  5
65
330
1F
100
AcDbEntity
  8
DEFAULT_1
 62
   250
100
AcDbSpline
210
0.0
220
0.0
230
1.0
 70
    11
 71
     3
 72
    68
 73
    64
 74
     0
 42
0.0000000001
 43
0.0000000001
 40
0.0
 40
0.0
 40
0.0
 40
0.0
 40
0.0588235294117647
 40
0.0588235294117647
 40
0.0588235294117647
 40
0.0588235294117647
 40
0.1176470588235294
 40
0.1176470588235294
 40
0.1176470588235294
 40
0.1176470588235294
 40
0.1764705882352941
 40
0.1764705882352941
 40
0.1764705882352941
 40
0.1764705882352941
 40
0.2352941176470588
 40
0.2352941176470588
 40
0.2352941176470588
 40
0.2352941176470588
 40
0.2941176470588235
 40
0.2941176470588235
 40
0.2941176470588235
 40
0.2941176470588235
 40
0.3529411764705883
 40
0.3529411764705883
 40
0.3529411764705883
 40
0.3529411764705883
 40
0.4117647058823529
 40
0.4117647058823529
 40
0.4117647058823529
 40
0.4117647058823529
 40
0.4705882352941176
 40
0.4705882352941176
 40
0.4705882352941176
 40
0.4705882352941176
 40
0.5294117647058824
 40
0.5294117647058824
 40
0.5294117647058824
 40
0.5294117647058824
 40
0.5882352941176471
 40
0.5882352941176471
 40
0.5882352941176471
 40
0.5882352941176471
 40
0.6470588235294118
 40
0.6470588235294118
 40
0.6470588235294118
 40
0.6470588235294118
 40
0.7058823529411765
 40
0.7058823529411765
 40
0.7058823529411765
 40
0.7058823529411765
 40
0.7647058823529411
 40
0.7647058823529411
 40
0.7647058823529411
 40
0.7647058823529411
 40
0.8235294117647058
 40
0.8235294117647058
 40
0.8235294117647058
 40
0.8235294117647058
 40
0.8823529411764706
 40
0.8823529411764706
 40
0.8823529411764706
 40
0.8823529411764706
 40
1.0
 40
1.0
 40
1.0
 40
1.0
 10
5.4273
 20
1.443
 30
0.0
 10
5.3243
 20
1.4807
 30
0.0
 10
5.2481
 20
1.5343
 30
0.0
 10
5.1983
 20
1.6043
 30
0.0
 10
5.1983
 20
1.6043
 30
0.0
 10
5.1489
 20
1.674
 30
0.0
 10
5.1239
 20
1.7577
 30
0.0
 10
5.1239
 20
1.8551
 30
0.0
 10
5.1239
 20
1.8551
 30
0.0
 10
5.1239
 20
2.0023
 30
0.0
 10
5.1767
 20
2.1255
 30
0.0
 10
5.2825
 20
2.2257
 30
0.0
 10
5.2825
 20
2.2257
 30
0.0
 10
5.3883
 20
2.3259
 30
0.0
 10
5.5285
 20
2.3763
 30
0.0
 10
5.7039
 20
2.3763
 30
0.0
 10
5.7039
 20
2.3763
 30
0.0
 10
5.8803
 20
2.3763
 30
0.0
 10
6.0224
 20
2.3249
 30
0.0
 10
6.13
 20
2.2225
 30
0.0
 10
6.13
 20
2.2225
 30
0.0
 10
6.2373
 20
2.1199
 30
0.0
 10
6.2909
 20
1.9952
 30
0.0
 10
6.2909
 20
1.848
 30
0.0
 10
6.2909
 20
1.848
 30
0.0
 10
6.2909
 20
1.7544
 30
0.0
 10
6.2664
 20
1.6731
 30
0.0
 10
6.2175
 20
1.6035
 30
0.0
 10
6.2175
 20
1.6035
 30
0.0
 10
6.1682
 20
1.5343
 30
0.0
 10
6.0939
 20
1.4807
 30
0.0
 10
5.9936
 20
1.443
 30
0.0
 10
5.9936
 20
1.443
 30
0.0
 10
6.1174
 20
1.4026
 30
0.0
 10
6.2119
 20
1.3378
 30
0.0
 10
6.2769
 20
1.2474
 30
0.0
 10
6.2769
 20
1.2474
 30
0.0
 10
6.3413
 20
1.1576
 30
0.0
 10
6.3737
 20
1.0499
 30
0.0
 10
6.3737
 20
0.9251
 30
0.0
 10
6.3737
 20
0.9251
 30
0.0
 10
6.3737
 20
0.7521
 30
0.0
 10
6.3126
 20
0.6072
 30
0.0
 10
6.1907
 20
0.4897
 30
0.0
 10
6.1907
 20
0.4897
 30
0.0
 10
6.0685
 20
0.3721
 30
0.0
 10
5.9076
 20
0.3132
 30
0.0
 10
5.7082
 20
0.3132
 30
0.0
 10
5.7082
 20
0.3132
 30
0.0
 10
5.5087
 20
0.3132
 30
0.0
 10
5.3484
 20
0.3721
 30
0.0
 10
5.226
 20
0.4901
 30
0.0
 10
5.226
 20
0.4901
 30
0.0
 10
5.1037
 20
0.6082
 30
0.0
 10
5.0426
 20
0.7555
 30
0.0
 10
5.0426
 20
0.9318
 30
0.0
 10
5.0426
 20
0.9318
 30
0.0
 10
5.0426
 20
1.063
 30
0.0
 10
5.076
 20
1.1731
 30
0.0
 10
5.1428
 20
1.2619
 30
0.0
 10
5.1428
 20
1.2619
 30
0.0
 10
5.2091
 20
1.3504
 30
0.0
 10
5.3041
 20
1.4111
 30
0.0
 10
5.4273
 20
1.443
 30
0.0
  0
SPLINE
  5
66
330
1F
100
AcDbEntity
  8
DEFAULT_1
 62
   250
100
AcDbSpline
210
0.0
220
0.0
230
1.0
 70
    11
 71
     3
 72
    36
 73
    32
 74
     0
 42
0.0000000001
 43
0.0000000001
 40
0.0
 40
0.0
 40
0.0
 40
0.0
 40
0.1111111111111111
 40
0.1111111111111111
 40
0.1111111111111111
 40
0.1111111111111111
 40
0.2222222222222222
 40
0.2222222222222222
 40
0.2222222222222222
 40
0.2222222222222222
 40
0.3333333333333333
 40
0.3333333333333333
 40
0.3333333333333333
 40
0.3333333333333333
 40
0.4444444444444444
 40
0.4444444444444444
 40
0.4444444444444444
 40
0.4444444444444444
 40
0.5555555555555556
 40
0.5555555555555556
 40
0.5555555555555556
 40
0.5555555555555556
 40
0.6666666666666666
 40
0.6666666666666666
 40
0.6666666666666666
 40
0.6666666666666666
 40
0.7777777777777778
 40
0.7777777777777778
 40
0.7777777777777778
 40
0.7777777777777778
 40
1.0
 40
1.0
 40
1.0
 40
1.0
 10
5.3775
 20
1.8635
 30
0.0
 10
5.3775
 20
1.768
 30
0.0
 10
5.4086
 20
1.69
 30
0.0
 10
5.4697
 20
1.6293
 30
0.0
 10
5.4697
 20
1.6293
 30
0.0
 10
5.5313
 20
1.5686
 30
0.0
 10
5.6113
 20
1.538
 30
0.0
 10
5.7095
 20
1.538
 30
0.0
 10
5.7095
 20
1.538
 30
0.0
 10
5.805
 20
1.538
 30
0.0
 10
5.8836
 20
1.5682
 30
0.0
 10
5.9447
 20
1.6284
 30
0.0
 10
5.9447
 20
1.6284
 30
0.0
 10
6.0058
 20
1.6885
 30
0.0
 10
6.036
 20
1.7625
 30
0.0
 10
6.036
 20
1.8494
 30
0.0
 10
6.036
 20
1.8494
 30
0.0
 10
6.036
 20
1.9407
 30
0.0
 10
6.005
 20
2.0169
 30
0.0
 10
5.942
 20
2.079
 30
0.0
 10
5.942
 20
2.079
 30
0.0
 10
5.8789
 20
2.1411
 30
0.0
 10
5.8008
 20
2.1721
 30
0.0
 10
5.7068
 20
2.1721
 30
0.0
 10
5.7068
 20
2.1721
 30
0.0
 10
5.6122
 20
2.1721
 30
0.0
 10
5.5337
 20
2.1415
 30
0.0
 10
5.4711
 20
2.0813
 30
0.0
 10
5.4711
 20
2.0813
 30
0.0
 10
5.4086
 20
2.0206
 30
0.0
 10
5.3775
 20
1.9478
 30
0.0
 10
5.3775
 20
1.8635
 30
0.0
  0
SPLINE
  5
67
330
1F
100
AcDbEntity
  8
DEFAULT_1
 62
   250
100
AcDbSpline
210
0.0
220
0.0
230
1.0
 70
    11
 71
     3
 72
    40
 73
    36
 74
     0
 42
0.0000000001
 43
0.0000000001
 40
0.0
 40
0.0
 40
0.0
 40
0.0
 40
0.1
 40
0.1
 40
0.1
 40
0.1
 40
0.2
 40
0.2
 40
0.2
 40
0.2
 40
0.3
 40
0.3
 40
0.3
 40
0.3
 40
0.4
 40
0.4
 40
0.4
 40
0.4
 40
0.5
 40
0.5
 40
0.5
 40
0.5
 40
0.6
 40
0.6
 40
0.6
 40
0.6
 40
0.7
 40
0.7
 40
0.7
 40
0.7
 40
0.8
 40
0.8
 40
0.8
 40
0.8
 40
1.0
 40
1.0
 40
1.0
 40
1.0
 10
5.2976
 20
0.9303
 30
0.0
 10
5.2976
 20
0.8598
 30
0.0
 10
5.3144
 20
0.7912
 30
0.0
 10
5.3478
 20
0.7253
 30
0.0
 10
5.3478
 20
0.7253
 30
0.0
 10
5.3813
 20
0.659
 30
0.0
 10
5.4311
 20
0.6076
 30
0.0
 10
5.4974
 20
0.5715
 30
0.0
 10
5.4974
 20
0.5715
 30
0.0
 10
5.5637
 20
0.5352
 30
0.0
 10
5.6348
 20
0.5169
 30
0.0
 10
5.711
 20
0.5169
 30
0.0
 10
5.711
 20
0.5169
 30
0.0
 10
5.8295
 20
0.5169
 30
0.0
 10
5.9273
 20
0.5551
 30
0.0
 10
6.0045
 20
0.6317
 30
0.0
 10
6.0045
 20
0.6317
 30
0.0
 10
6.0816
 20
0.7079
 30
0.0
 10
6.1202
 20
0.8048
 30
0.0
 10
6.1202
 20
0.9224
 30
0.0
 10
6.1202
 20
0.9224
 30
0.0
 10
6.1202
 20
1.0418
 30
0.0
 10
6.0807
 20
1.1406
 30
0.0
 10
6.0012
 20
1.2187
 30
0.0
 10
6.0012
 20
1.2187
 30
0.0
 10
5.9217
 20
1.2967
 30
0.0
 10
5.822
 20
1.3359
 30
0.0
 10
5.7024
 20
1.3359
 30
0.0
 10
5.7024
 20
1.3359
 30
0.0
 10
5.5859
 20
1.3359
 30
0.0
 10
5.4894
 20
1.2973
 30
0.0
 10
5.4128
 20
1.2201
 30
0.0
 10
5.4128
 20
1.2201
 30
0.0
 10
5.3362
 20
1.1425
 30
0.0
 10
5.2976
 20
1.0461
 30
0.0
 10
5.2976
 20
0.9303
 30
0.0
  0
SPLINE
  5
68
330
1F
100
AcDbEntity
  8
DEFAULT_1
 62
   250
100
AcDbSpline
210
0.0
220
0.0
230
1.0
 70
    11
 71
     3
 72
    52
 73
    48
 74
     0
 42
0.0000000001
 43
0.0000000001
 40
0.0
 40
0.0
 40
0.0
 40
0.0
 40
0.0769230769230769
 40
0.0769230769230769
 40
0.0769230769230769
 40
0.0769230769230769
 40
0.1538461538461539
 40
0.1538461538461539
 40
0.1538461538461539
 40
0.1538461538461539
 40
0.2307692307692308
 40
0.2307692307692308
 40
0.2307692307692308
 40
0.2307692307692308
 40
0.3076923076923077
 40
0.3076923076923077
 40
0.3076923076923077
 40
0.3076923076923077
 40
0.3846153846153846
 40
0.3846153846153846
 40
0.3846153846153846
 40
0.3846153846153846
 40
0.4615384615384616
 40
0.4615384615384616
 40
0.4615384615384616
 40
0.4615384615384616
 40
0.5384615384615384
 40
0.5384615384615384
 40
0.5384615384615384
 40
0.5384615384615384
 40
0.6153846153846154
 40
0.6153846153846154
 40
0.6153846153846154
 40
0.6153846153846154
 40
0.6923076923076923
 40
0.6923076923076923
 40
0.6923076923076923
 40
0.6923076923076923
 40
0.7692307692307693
 40
0.7692307692307693
 40
0.7692307692307693
 40
0.7692307692307693
 40
0.8461538461538461
 40
0.8461538461538461
 40
0.8461538461538461
 40
0.8461538461538461
 40
1.0
 40
1.0
 40
1.0
 40
1.0
 10
6.615
 20
1.3439
 30
0.0
 10
6.615
 20
1.5827
 30
0.0
 10
6.6395
 20
1.7751
 30
0.0
 10
6.6889
 20
1.9205
 30
0.0
 10
6.6889
 20
1.9205
 30
0.0
 10
6.7378
 20
2.0662
 30
0.0
 10
6.8112
 20
2.1787
 30
0.0
 10
6.9081
 20
2.2577
 30
0.0
 10
6.9081
 20
2.2577
 30
0.0
 10
7.0049
 20
2.3367
 30
0.0
 10
7.1268
 20
2.3763
 30
0.0
 10
7.2735
 20
2.3763
 30
0.0
 10
7.2735
 20
2.3763
 30
0.0
 10
7.3822
 20
2.3763
 30
0.0
 10
7.4772
 20
2.3541
 30
0.0
 10
7.559
 20
2.3104
 30
0.0
 10
7.559
 20
2.3104
 30
0.0
 10
7.6409
 20
2.267
 30
0.0
 10
7.7082
 20
2.2041
 30
0.0
 10
7.7617
 20
2.1218
 30
0.0
 10
7.7617
 20
2.1218
 30
0.0
 10
7.815
 20
2.0395
 30
0.0
 10
7.8568
 20
1.9392
 30
0.0
 10
7.8868
 20
1.8211
 30
0.0
 10
7.8868
 20
1.8211
 30
0.0
 10
7.9174
 20
1.7031
 30
0.0
 10
7.9325
 20
1.5441
 30
0.0
 10
7.9325
 20
1.3439
 30
0.0
 10
7.9325
 20
1.3439
 30
0.0
 10
7.9325
 20
1.1068
 30
0.0
 10
7.908
 20
0.9158
 30
0.0
 10
7.8595
 20
0.77
 30
0.0
 10
7.8595
 20
0.77
 30
0.0
 10
7.8106
 20
0.6242
 30
0.0
 10
7.7378
 20
0.5117
 30
0.0
 10
7.6409
 20
0.4322
 30
0.0
 10
7.6409
 20
0.4322
 30
0.0
 10
7.5439
 20
0.3528
 30
0.0
 10
7.4216
 20
0.3132
 30
0.0
 10
7.2735
 20
0.3132
 30
0.0
 10
7.2735
 20
0.3132
 30
0.0
 10
7.0789
 20
0.3132
 30
0.0
 10
6.9259
 20
0.3829
 30
0.0
 10
6.8149
 20
0.5226
 30
0.0
 10
6.8149
 20
0.5226
 30
0.0
 10
6.6819
 20
0.6905
 30
0.0
 10
6.615
 20
0.9647
 30
0.0
 10
6.615
 20
1.3439
 30
0.0
  0
SPLINE
  5
69
330
1F
100
AcDbEntity
  8
DEFAULT_1
 62
   250
100
AcDbSpline
210
0.0
220
0.0
230
1.0
 70
    11
 71
     3
 72
    36
 73
    32
 74
     0
 42
0.0000000001
 43
0.0000000001
 40
0.0
 40
0.0
 40
0.0
 40
0.0
 40
0.1111111111111111
 40
0.1111111111111111
 40
0.1111111111111111
 40
0.1111111111111111
 40
0.2222222222222222
 40
0.2222222222222222
 40
0.2222222222222222
 40
0.2222222222222222
 40
0.3333333333333333
 40
0.3333333333333333
 40
0.3333333333333333
 40
0.3333333333333333
 40
0.4444444444444444
 40
0.4444444444444444
 40
0.4444444444444444
 40
0.4444444444444444
 40
0.5555555555555556
 40
0.5555555555555556
 40
0.5555555555555556
 40
0.5555555555555556
 40
0.6666666666666666
 40
0.6666666666666666
 40
0.6666666666666666
 40
0.6666666666666666
 40
0.7777777777777778
 40
0.7777777777777778
 40
0.7777777777777778
 40
0.7777777777777778
 40
1.0
 40
1.0
 40
1.0
 40
1.0
 10
6.8699
 20
1.3439
 30
0.0
 10
6.8699
 20
1.0122
 30
0.0
 10
6.909
 20
0.7916
 30
0.0
 10
6.9866
 20
0.6815
 30
0.0
 10
6.9866
 20
0.6815
 30
0.0
 10
7.0642
 20
0.5719
 30
0.0
 10
7.1597
 20
0.5169
 30
0.0
 10
7.2735
 20
0.5169
 30
0.0
 10
7.2735
 20
0.5169
 30
0.0
 10
7.3878
 20
0.5169
 30
0.0
 10
7.4833
 20
0.5724
 30
0.0
 10
7.5609
 20
0.6825
 30
0.0
 10
7.5609
 20
0.6825
 30
0.0
 10
7.6385
 20
0.7925
 30
0.0
 10
7.6776
 20
1.0132
 30
0.0
 10
7.6776
 20
1.3439
 30
0.0
 10
7.6776
 20
1.3439
 30
0.0
 10
7.6776
 20
1.6763
 30
0.0
 10
7.6385
 20
1.8974
 30
0.0
 10
7.5609
 20
2.0065
 30
0.0
 10
7.5609
 20
2.0065
 30
0.0
 10
7.4833
 20
2.1161
 30
0.0
 10
7.3869
 20
2.1707
 30
0.0
 10
7.2712
 20
2.1707
 30
0.0
 10
7.2712
 20
2.1707
 30
0.0
 10
7.1568
 20
2.1707
 30
0.0
 10
7.0661
 20
2.1222
 30
0.0
 10
6.9979
 20
2.0258
 30
0.0
 10
6.9979
 20
2.0258
 30
0.0
 10
6.9127
 20
1.9031
 30
0.0
 10
6.8699
 20
1.6754
 30
0.0
 10
6.8699
 20
1.3439
 30
0.0
  0
SPLINE
  5
6A
330
1F
100
AcDbEntity
  8
DEFAULT_1
 62
   250
100
AcDbSpline
210
0.0
220
0.0
230
1.0
 70
    11
 71
     3
 72
    84
 73
    80
 74
     0
 42
0.0000000001
 43
0.0000000001
 40
0.0
 40
0.0
 40
0.0
 40
0.0
 40
0.0476190476190476
 40
0.0476190476190476
 40
0.0476190476190476
 40
0.0476190476190476
 40
0.0952380952380952
 40
0.0952380952380952
 40
0.0952380952380952
 40
0.0952380952380952
 40
0.1428571428571428
 40
0.1428571428571428
 40
0.1428571428571428
 40
0.1428571428571428
 40
0.1904761904761905
 40
0.1904761904761905
 40
0.1904761904761905
 40
0.1904761904761905
 40
0.2380952380952381
 40
0.2380952380952381
 40
0.2380952380952381
 40
0.2380952380952381
 40
0.2857142857142857
 40
0.2857142857142857
 40
0.2857142857142857
 40
0.2857142857142857
 40
0.3333333333333333
 40
0.3333333333333333
 40
0.3333333333333333
 40
0.3333333333333333
 40
0.3809523809523809
 40
0.3809523809523809
 40
0.3809523809523809
 40
0.3809523809523809
 40
0.4285714285714285
 40
0.4285714285714285
 40
0.4285714285714285
 40
0.4285714285714285
 40
0.4761904761904762
 40
0.4761904761904762
 40
0.4761904761904762
 40
0.4761904761904762
 40
0.5238095238095238
 40
0.5238095238095238
 40
0.5238095238095238
 40
0.5238095238095238
 40
0.5714285714285714
 40
0.5714285714285714
 40
0.5714285714285714
 40
0.5714285714285714
 40
0.6190476190476191
 40
0.6190476190476191
 40
0.6190476190476191
 40
0.6190476190476191
 40
0.6666666666666666
 40
0.6666666666666666
 40
0.6666666666666666
 40
0.6666666666666666
 40
0.7142857142857143
 40
0.7142857142857143
 40
0.7142857142857143
 40
0.7142857142857143
 40
0.7619047619047619
 40
0.7619047619047619
 40
0.7619047619047619
 40
0.7619047619047619
 40
0.8095238095238095
 40
0.8095238095238095
 40
0.8095238095238095
 40
0.8095238095238095
 40
0.8571428571428571
 40
0.8571428571428571
 40
0.8571428571428571
 40
0.8571428571428571
 40
0.9047619047619048
 40
0.9047619047619048
 40
0.9047619047619048
 40
0.9047619047619048
 40
1.0
 40
1.0
 40
1.0
 40
1.0
 10
-5.9683
 20
-29.847
 30
0.0
 10
-5.9683
 20
-29.847
 30
0.0
 10
-5.7369
 20
-29.5879
 30
0.0
 10
-5.7369
 20
-29.5879
 30
0.0
 10
-5.7369
 20
-29.5879
 30
0.0
 10
-5.7369
 20
-29.5879
 30
0.0
 10
-5.6005
 20
-29.7035
 30
0.0
 10
-5.6005
 20
-29.7035
 30
0.0
 10
-5.6005
 20
-29.7035
 30
0.0
 10
-5.6005
 20
-29.7035
 30
0.0
 10
-5.8427
 20
-29.9763
 30
0.0
 10
-5.8427
 20
-29.9763
 30
0.0
 10
-5.8427
 20
-29.9763
 30
0.0
 10
-5.7636
 20
-30.0939
 30
0.0
 10
-5.7105
 20
-30.1969
 30
0.0
 10
-5.6828
 20
-30.2848
 30
0.0
 10
-5.6828
 20
-30.2848
 30
0.0
 10
-5.6461
 20
-30.4006
 30
0.0
 10
-5.6278
 20
-30.5305
 30
0.0
 10
-5.6278
 20
-30.6734
 30
0.0
 10
-5.6278
 20
-30.6734
 30
0.0
 10
-5.6278
 20
-30.8803
 30
0.0
 10
-5.6696
 20
-31.0647
 30
0.0
 10
-5.7533
 20
-31.2261
 30
0.0
 10
-5.7533
 20
-31.2261
 30
0.0
 10
-5.837
 20
-31.3879
 30
0.0
 10
-5.9541
 20
-31.5102
 30
0.0
 10
-6.1052
 20
-31.5929
 30
0.0
 10
-6.1052
 20
-31.5929
 30
0.0
 10
-6.2565
 20
-31.6752
 30
0.0
 10
-6.417
 20
-31.7167
 30
0.0
 10
-6.5868
 20
-31.7167
 30
0.0
 10
-6.5868
 20
-31.7167
 30
0.0
 10
-6.7137
 20
-31.7167
 30
0.0
 10
-6.8285
 20
-31.6987
 30
0.0
 10
-6.9315
 20
-31.663
 30
0.0
 10
-6.9315
 20
-31.663
 30
0.0
 10
-7.0106
 20
-31.6353
 30
0.0
 10
-7.1027
 20
-31.5826
 30
0.0
 10
-7.2085
 20
-31.5045
 30
0.0
 10
-7.2085
 20
-31.5045
 30
0.0
 10
-7.2085
 20
-31.5045
 30
0.0
 10
-7.44
 20
-31.7637
 30
0.0
 10
-7.44
 20
-31.7637
 30
0.0
 10
-7.44
 20
-31.7637
 30
0.0
 10
-7.44
 20
-31.7637
 30
0.0
 10
-7.5764
 20
-31.6479
 30
0.0
 10
-7.5764
 20
-31.6479
 30
0.0
 10
-7.5764
 20
-31.6479
 30
0.0
 10
-7.5764
 20
-31.6479
 30
0.0
 10
-7.3337
 20
-31.3766
 30
0.0
 10
-7.3337
 20
-31.3766
 30
0.0
 10
-7.3337
 20
-31.3766
 30
0.0
 10
-7.424
 20
-31.2397
 30
0.0
 10
-7.4842
 20
-31.1226
 30
0.0
 10
-7.5144
 20
-31.0257
 30
0.0
 10
-7.5144
 20
-31.0257
 30
0.0
 10
-7.5444
 20
-30.9288
 30
0.0
 10
-7.56
 20
-30.8121
 30
0.0
 10
-7.56
 20
-30.6762
 30
0.0
 10
-7.56
 20
-30.6762
 30
0.0
 10
-7.56
 20
-30.4688
 30
0.0
 10
-7.5186
 20
-30.2839
 30
0.0
 10
-7.4358
 20
-30.1217
 30
0.0
 10
-7.4358
 20
-30.1217
 30
0.0
 10
-7.3529
 20
-29.9594
 30
0.0
 10
-7.2373
 20
-29.8366
 30
0.0
 10
-7.0877
 20
-29.7529
 30
0.0
 10
-7.0877
 20
-29.7529
 30
0.0
 10
-6.9386
 20
-29.6697
 30
0.0
 10
-6.7725
 20
-29.6278
 30
0.0
 10
-6.5895
 20
-29.6278
 30
0.0
 10
-6.5895
 20
-29.6278
 30
0.0
 10
-6.4663
 20
-29.6278
 30
0.0
 10
-6.3587
 20
-29.6438
 30
0.0
 10
-6.2665
 20
-29.6767
 30
0.0
 10
-6.2665
 20
-29.6767
 30
0.0
 10
-6.1744
 20
-29.7092
 30
0.0
 10
-6.0746
 20
-29.7661
 30
0.0
 10
-5.9683
 20
-29.847
 30
0.0
  0
SPLINE
  5
6B
330
1F
100
AcDbEntity
  8
DEFAULT_1
 62
   250
100
AcDbSpline
210
0.0
220
0.0
230
1.0
 70
    11
 71
     3
 72
    32
 73
    28
 74
     0
 42
0.0000000001
 43
0.0000000001
 40
0.0
 40
0.0
 40
0.0
 40
0.0
 40
0.125
 40
0.125
 40
0.125
 40
0.125
 40
0.25
 40
0.25
 40
0.25
 40
0.25
 40
0.375
 40
0.375
 40
0.375
 40
0.375
 40
0.5
 40
0.5
 40
0.5
 40
0.5
 40
0.625
 40
0.625
 40
0.625
 40
0.625
 40
0.75
 40
0.75
 40
0.75
 40
0.75
 40
1.0
 40
1.0
 40
1.0
 40
1.0
 10
-6.1333
 20
-30.0328
 30
0.0
 10
-6.2199
 20
-29.965
 30
0.0
 10
-6.2957
 20
-29.9184
 30
0.0
 10
-6.3601
 20
-29.8936
 30
0.0
 10
-6.3601
 20
-29.8936
 30
0.0
 10
-6.425
 20
-29.8691
 30
0.0
 10
-6.5012
 20
-29.8565
 30
0.0
 10
-6.5882
 20
-29.8565
 30
0.0
 10
-6.5882
 20
-29.8565
 30
0.0
 10
-6.7895
 20
-29.8565
 30
0.0
 10
-6.9556
 20
-29.9247
 30
0.0
 10
-7.0872
 20
-30.0609
 30
0.0
 10
-7.0872
 20
-30.0609
 30
0.0
 10
-7.2184
 20
-30.1973
 30
0.0
 10
-7.2843
 20
-30.4011
 30
0.0
 10
-7.2843
 20
-30.6724
 30
0.0
 10
-7.2843
 20
-30.6724
 30
0.0
 10
-7.2843
 20
-30.7787
 30
0.0
 10
-7.274
 20
-30.8732
 30
0.0
 10
-7.2538
 20
-30.9561
 30
0.0
 10
-7.2538
 20
-30.9561
 30
0.0
 10
-7.2391
 20
-31.0177
 30
0.0
 10
-7.2085
 20
-31.0935
 30
0.0
 10
-7.1615
 20
-31.1833
 30
0.0
 10
-7.1615
 20
-31.1833
 30
0.0
 10
-7.1615
 20
-31.1833
 30
0.0
 10
-6.1333
 20
-30.0328
 30
0.0
 10
-6.1333
 20
-30.0328
 30
0.0
  0
SPLINE
  5
6C
330
1F
100
AcDbEntity
  8
DEFAULT_1
 62
   250
100
AcDbSpline
210
0.0
220
0.0
230
1.0
 70
    11
 71
     3
 72
    28
 73
    24
 74
     0
 42
0.0000000001
 43
0.0000000001
 40
0.0
 40
0.0
 40
0.0
 40
0.0
 40
0.1428571428571428
 40
0.1428571428571428
 40
0.1428571428571428
 40
0.1428571428571428
 40
0.2857142857142857
 40
0.2857142857142857
 40
0.2857142857142857
 40
0.2857142857142857
 40
0.4285714285714285
 40
0.4285714285714285
 40
0.4285714285714285
 40
0.4285714285714285
 40
0.5714285714285714
 40
0.5714285714285714
 40
0.5714285714285714
 40
0.5714285714285714
 40
0.7142857142857143
 40
0.7142857142857143
 40
0.7142857142857143
 40
0.7142857142857143
 40
1.0
 40
1.0
 40
1.0
 40
1.0
 10
-6.0204
 20
-30.1748
 30
0.0
 10
-6.0204
 20
-30.1748
 30
0.0
 10
-7.0444
 20
-31.321
 30
0.0
 10
-7.0444
 20
-31.321
 30
0.0
 10
-7.0444
 20
-31.321
 30
0.0
 10
-6.9739
 20
-31.3789
 30
0.0
 10
-6.9085
 20
-31.4194
 30
0.0
 10
-6.8488
 20
-31.4424
 30
0.0
 10
-6.8488
 20
-31.4424
 30
0.0
 10
-6.7706
 20
-31.4729
 30
0.0
 10
-6.686
 20
-31.488
 30
0.0
 10
-6.5953
 20
-31.488
 30
0.0
 10
-6.5953
 20
-31.488
 30
0.0
 10
-6.3949
 20
-31.488
 30
0.0
 10
-6.2298
 20
-31.4175
 30
0.0
 10
-6.0991
 20
-31.2759
 30
0.0
 10
-6.0991
 20
-31.2759
 30
0.0
 10
-5.9688
 20
-31.1344
 30
0.0
 10
-5.9033
 20
-30.9359
 30
0.0
 10
-5.9033
 20
-30.6805
 30
0.0
 10
-5.9033
 20
-30.6805
 30
0.0
 10
-5.9033
 20
-30.4894
 30
0.0
 10
-5.9424
 20
-30.3207
 30
0.0
 10
-6.0204
 20
-30.1748
 30
0.0
  0
SPLINE
  5
6D
330
1F
100
AcDbEntity
  8
DEFAULT_1
 62
   250
100
AcDbSpline
210
0.0
220
0.0
230
1.0
 70
    11
 71
     3
 72
   124
 73
   120
 74
     0
 42
0.0000000001
 43
0.0000000001
 40
0.0
 40
0.0
 40
0.0
 40
0.0
 40
0.032258064516129
 40
0.032258064516129
 40
0.032258064516129
 40
0.032258064516129
 40
0.0645161290322581
 40
0.0645161290322581
 40
0.0645161290322581
 40
0.0645161290322581
 40
0.0967741935483871
 40
0.0967741935483871
 40
0.0967741935483871
 40
0.0967741935483871
 40
0.1290322580645161
 40
0.1290322580645161
 40
0.1290322580645161
 40
0.1290322580645161
 40
0.1612903225806452
 40
0.1612903225806452
 40
0.1612903225806452
 40
0.1612903225806452
 40
0.1935483870967742
 40
0.1935483870967742
 40
0.1935483870967742
 40
0.1935483870967742
 40
0.2258064516129032
 40
0.2258064516129032
 40
0.2258064516129032
 40
0.2258064516129032
 40
0.2580645161290323
 40
0.2580645161290323
 40
0.2580645161290323
 40
0.2580645161290323
 40
0.2903225806451613
 40
0.2903225806451613
 40
0.2903225806451613
 40
0.2903225806451613
 40
0.3225806451612903
 40
0.3225806451612903
 40
0.3225806451612903
 40
0.3225806451612903
 40
0.3548387096774194
 40
0.3548387096774194
 40
0.3548387096774194
 40
0.3548387096774194
 40
0.3870967741935484
 40
0.3870967741935484
 40
0.3870967741935484
 40
0.3870967741935484
 40
0.4193548387096774
 40
0.4193548387096774
 40
0.4193548387096774
 40
0.4193548387096774
 40
0.4516129032258064
 40
0.4516129032258064
 40
0.4516129032258064
 40
0.4516129032258064
 40
0.4838709677419355
 40
0.4838709677419355
 40
0.4838709677419355
 40
0.4838709677419355
 40
0.5161290322580645
 40
0.5161290322580645
 40
0.5161290322580645
 40
0.5161290322580645
 40
0.5483870967741935
 40
0.5483870967741935
 40
0.5483870967741935
 40
0.5483870967741935
 40
0.5806451612903226
 40
0.5806451612903226
 40
0.5806451612903226
 40
0.5806451612903226
 40
0.6129032258064516
 40
0.6129032258064516
 40
0.6129032258064516
 40
0.6129032258064516
 40
0.6451612903225806
 40
0.6451612903225806
 40
0.6451612903225806
 40
0.6451612903225806
 40
0.6774193548387096
 40
0.6774193548387096
 40
0.6774193548387096
 40
0.6774193548387096
 40
0.7096774193548387
 40
0.7096774193548387
 40
0.7096774193548387
 40
0.7096774193548387
 40
0.7419354838709677
 40
0.7419354838709677
 40
0.7419354838709677
 40
0.7419354838709677
 40
0.7741935483870968
 40
0.7741935483870968
 40
0.7741935483870968
 40
0.7741935483870968
 40
0.8064516129032258
 40
0.8064516129032258
 40
0.8064516129032258
 40
0.8064516129032258
 40
0.8387096774193549
 40
0.8387096774193549
 40
0.8387096774193549
 40
0.8387096774193549
 40
0.8709677419354839
 40
0.8709677419354839
 40
0.8709677419354839
 40
0.8709677419354839
 40
0.9032258064516129
 40
0.9032258064516129
 40
0.9032258064516129
 40
0.9032258064516129
 40
0.9354838709677419
 40
0.9354838709677419
 40
0.9354838709677419
 40
0.9354838709677419
 40
1.0
 40
1.0
 40
1.0
 40
1.0
 10
-5.3771
 20
-31.1489
 30
0.0
 10
-5.3771
 20
-31.1489
 30
0.0
 10
-5.1292
 20
-31.116
 30
0.0
 10
-5.1292
 20
-31.116
 30
0.0
 10
-5.1292
 20
-31.116
 30
0.0
 10
-5.1005
 20
-31.2566
 30
0.0
 10
-5.052
 20
-31.3577
 30
0.0
 10
-4.9838
 20
-31.4198
 30
0.0
 10
-4.9838
 20
-31.4198
 30
0.0
 10
-4.9152
 20
-31.4819
 30
0.0
 10
-4.8319
 20
-31.513
 30
0.0
 10
-4.7337
 20
-31.513
 30
0.0
 10
-4.7337
 20
-31.513
 30
0.0
 10
-4.617
 20
-31.513
 30
0.0
 10
-4.5182
 20
-31.4725
 30
0.0
 10
-4.4378
 20
-31.3916
 30
0.0
 10
-4.4378
 20
-31.3916
 30
0.0
 10
-4.3578
 20
-31.3107
 30
0.0
 10
-4.3174
 20
-31.2106
 30
0.0
 10
-4.3174
 20
-31.091
 30
0.0
 10
-4.3174
 20
-31.091
 30
0.0
 10
-4.3174
 20
-30.9772
 30
0.0
 10
-4.3545
 20
-30.8832
 30
0.0
 10
-4.4288
 20
-30.8094
 30
0.0
 10
-4.4288
 20
-30.8094
 30
0.0
 10
-4.5037
 20
-30.7355
 30
0.0
 10
-4.5982
 20
-30.6983
 30
0.0
 10
-4.7129
 20
-30.6983
 30
0.0
 10
-4.7129
 20
-30.6983
 30
0.0
 10
-4.7599
 20
-30.6983
 30
0.0
 10
-4.8183
 20
-30.7078
 30
0.0
 10
-4.8879
 20
-30.7261
 30
0.0
 10
-4.8879
 20
-30.7261
 30
0.0
 10
-4.8879
 20
-30.7261
 30
0.0
 10
-4.8602
 20
-30.5083
 30
0.0
 10
-4.8602
 20
-30.5083
 30
0.0
 10
-4.8602
 20
-30.5083
 30
0.0
 10
-4.8437
 20
-30.5102
 30
0.0
 10
-4.8305
 20
-30.5112
 30
0.0
 10
-4.8202
 20
-30.5112
 30
0.0
 10
-4.8202
 20
-30.5112
 30
0.0
 10
-4.7148
 20
-30.5112
 30
0.0
 10
-4.6198
 20
-30.4833
 30
0.0
 10
-4.5352
 20
-30.4283
 30
0.0
 10
-4.5352
 20
-30.4283
 30
0.0
 10
-4.4504
 20
-30.3733
 30
0.0
 10
-4.4082
 20
-30.2882
 30
0.0
 10
-4.4082
 20
-30.1734
 30
0.0
 10
-4.4082
 20
-30.1734
 30
0.0
 10
-4.4082
 20
-30.0827
 30
0.0
 10
-4.4391
 20
-30.0069
 30
0.0
 10
-4.5008
 20
-29.9476
 30
0.0
 10
-4.5008
 20
-29.9476
 30
0.0
 10
-4.5624
 20
-29.8878
 30
0.0
 10
-4.6418
 20
-29.8578
 30
0.0
 10
-4.7393
 20
-29.8578
 30
0.0
 10
-4.7393
 20
-29.8578
 30
0.0
 10
-4.8357
 20
-29.8578
 30
0.0
 10
-4.9161
 20
-29.8884
 30
0.0
 10
-4.9801
 20
-29.9486
 30
0.0
 10
-4.9801
 20
-29.9486
 30
0.0
 10
-5.0445
 20
-30.0093
 30
0.0
 10
-5.086
 20
-30.1005
 30
0.0
 10
-5.1043
 20
-30.2218
 30
0.0
 10
-5.1043
 20
-30.2218
 30
0.0
 10
-5.1043
 20
-30.2218
 30
0.0
 10
-5.3521
 20
-30.1776
 30
0.0
 10
-5.3521
 20
-30.1776
 30
0.0
 10
-5.3521
 20
-30.1776
 30
0.0
 10
-5.3221
 20
-30.0112
 30
0.0
 10
-5.2529
 20
-29.8823
 30
0.0
 10
-5.1456
 20
-29.791
 30
0.0
 10
-5.1456
 20
-29.791
 30
0.0
 10
-5.0379
 20
-29.6998
 30
0.0
 10
-4.9043
 20
-29.6536
 30
0.0
 10
-4.7444
 20
-29.6536
 30
0.0
 10
-4.7444
 20
-29.6536
 30
0.0
 10
-4.6344
 20
-29.6536
 30
0.0
 10
-4.5327
 20
-29.6777
 30
0.0
 10
-4.4401
 20
-29.7247
 30
0.0
 10
-4.4401
 20
-29.7247
 30
0.0
 10
-4.3474
 20
-29.7722
 30
0.0
 10
-4.2764
 20
-29.8366
 30
0.0
 10
-4.2271
 20
-29.9184
 30
0.0
 10
-4.2271
 20
-29.9184
 30
0.0
 10
-4.1781
 20
-30.0003
 30
0.0
 10
-4.1531
 20
-30.0869
 30
0.0
 10
-4.1531
 20
-30.179
 30
0.0
 10
-4.1531
 20
-30.179
 30
0.0
 10
-4.1531
 20
-30.2661
 30
0.0
 10
-4.1768
 20
-30.3456
 30
0.0
 10
-4.2238
 20
-30.4176
 30
0.0
 10
-4.2238
 20
-30.4176
 30
0.0
 10
-4.2708
 20
-30.489
 30
0.0
 10
-4.34
 20
-30.546
 30
0.0
 10
-4.4317
 20
-30.5882
 30
0.0
 10
-4.4317
 20
-30.5882
 30
0.0
 10
-4.3122
 20
-30.6155
 30
0.0
 10
-4.2196
 20
-30.673
 30
0.0
 10
-4.1531
 20
-30.7599
 30
0.0
 10
-4.1531
 20
-30.7599
 30
0.0
 10
-4.0874
 20
-30.8465
 30
0.0
 10
-4.0544
 20
-30.9552
 30
0.0
 10
-4.0544
 20
-31.0855
 30
0.0
 10
-4.0544
 20
-31.0855
 30
0.0
 10
-4.0544
 20
-31.2618
 30
0.0
 10
-4.1184
 20
-31.4114
 30
0.0
 10
-4.2473
 20
-31.5341
 30
0.0
 10
-4.2473
 20
-31.5341
 30
0.0
 10
-4.3757
 20
-31.6569
 30
0.0
 10
-4.5384
 20
-31.718
 30
0.0
 10
-4.735
 20
-31.718
 30
0.0
 10
-4.735
 20
-31.718
 30
0.0
 10
-4.9123
 20
-31.718
 30
0.0
 10
-5.0596
 20
-31.6653
 30
0.0
 10
-5.1767
 20
-31.5595
 30
0.0
 10
-5.1767
 20
-31.5595
 30
0.0
 10
-5.2938
 20
-31.4542
 30
0.0
 10
-5.3605
 20
-31.3172
 30
0.0
 10
-5.3771
 20
-31.1489
 30
0.0
  0
SPLINE
  5
6E
330
1F
100
AcDbEntity
  8
DEFAULT_1
 62
   250
100
AcDbSpline
210
0.0
220
0.0
230
1.0
 70
    11
 71
     3
 72
    92
 73
    88
 74
     0
 42
0.0000000001
 43
0.0000000001
 40
0.0
 40
0.0
 40
0.0
 40
0.0
 40
0.0434782608695652
 40
0.0434782608695652
 40
0.0434782608695652
 40
0.0434782608695652
 40
0.0869565217391304
 40
0.0869565217391304
 40
0.0869565217391304
 40
0.0869565217391304
 40
0.1304347826086956
 40
0.1304347826086956
 40
0.1304347826086956
 40
0.1304347826086956
 40
0.1739130434782609
 40
0.1739130434782609
 40
0.1739130434782609
 40
0.1739130434782609
 40
0.2173913043478261
 40
0.2173913043478261
 40
0.2173913043478261
 40
0.2173913043478261
 40
0.2608695652173913
 40
0.2608695652173913
 40
0.2608695652173913
 40
0.2608695652173913
 40
0.3043478260869565
 40
0.3043478260869565
 40
0.3043478260869565
 40
0.3043478260869565
 40
0.3478260869565217
 40
0.3478260869565217
 40
0.3478260869565217
 40
0.3478260869565217
 40
0.391304347826087
 40
0.391304347826087
 40
0.391304347826087
 40
0.391304347826087
 40
0.4347826086956522
 40
0.4347826086956522
 40
0.4347826086956522
 40
0.4347826086956522
 40
0.4782608695652174
 40
0.4782608695652174
 40
0.4782608695652174
 40
0.4782608695652174
 40
0.5217391304347826
 40
0.5217391304347826
 40
0.5217391304347826
 40
0.5217391304347826
 40
0.5652173913043478
 40
0.5652173913043478
 40
0.5652173913043478
 40
0.5652173913043478
 40
0.6086956521739131
 40
0.6086956521739131
 40
0.6086956521739131
 40
0.6086956521739131
 40
0.6521739130434783
 40
0.6521739130434783
 40
0.6521739130434783
 40
0.6521739130434783
 40
0.6956521739130435
 40
0.6956521739130435
 40
0.6956521739130435
 40
0.6956521739130435
 40
0.7391304347826086
 40
0.7391304347826086
 40
0.7391304347826086
 40
0.7391304347826086
 40
0.782608695652174
 40
0.782608695652174
 40
0.782608695652174
 40
0.782608695652174
 40
0.8260869565217391
 40
0.8260869565217391
 40
0.8260869565217391
 40
0.8260869565217391
 40
0.8695652173913043
 40
0.8695652173913043
 40
0.8695652173913043
 40
0.8695652173913043
 40
0.9130434782608695
 40
0.9130434782608695
 40
0.9130434782608695
 40
0.9130434782608695
 40
1.0
 40
1.0
 40
1.0
 40
1.0
 10
-2.505
 20
-31.4439
 30
0.0
 10
-2.505
 20
-31.4439
 30
0.0
 10
-2.505
 20
-31.6823
 30
0.0
 10
-2.505
 20
-31.6823
 30
0.0
 10
-2.505
 20
-31.6823
 30
0.0
 10
-2.505
 20
-31.6823
 30
0.0
 10
-3.8404
 20
-31.6823
 30
0.0
 10
-3.8404
 20
-31.6823
 30
0.0
 10
-3.8404
 20
-31.6823
 30
0.0
 10
-3.8423
 20
-31.6225
 30
0.0
 10
-3.8329
 20
-31.5652
 30
0.0
 10
-3.8117
 20
-31.5102
 30
0.0
 10
-3.8117
 20
-31.5102
 30
0.0
 10
-3.7778
 20
-31.4189
 30
0.0
 10
-3.7233
 20
-31.3295
 30
0.0
 10
-3.6484
 20
-31.2412
 30
0.0
 10
-3.6484
 20
-31.2412
 30
0.0
 10
-3.5732
 20
-31.1531
 30
0.0
 10
-3.465
 20
-31.0511
 30
0.0
 10
-3.324
 20
-30.9353
 30
0.0
 10
-3.324
 20
-30.9353
 30
0.0
 10
-3.1043
 20
-30.7552
 30
0.0
 10
-2.9557
 20
-30.6127
 30
0.0
 10
-2.8785
 20
-30.5074
 30
0.0
 10
-2.8785
 20
-30.5074
 30
0.0
 10
-2.8013
 20
-30.4025
 30
0.0
 10
-2.7627
 20
-30.3028
 30
0.0
 10
-2.7627
 20
-30.2092
 30
0.0
 10
-2.7627
 20
-30.2092
 30
0.0
 10
-2.7627
 20
-30.1108
 30
0.0
 10
-2.7981
 20
-30.0281
 30
0.0
 10
-2.8682
 20
-29.9604
 30
0.0
 10
-2.8682
 20
-29.9604
 30
0.0
 10
-2.9387
 20
-29.8931
 30
0.0
 10
-3.0304
 20
-29.8592
 30
0.0
 10
-3.1433
 20
-29.8592
 30
0.0
 10
-3.1433
 20
-29.8592
 30
0.0
 10
-3.2628
 20
-29.8592
 30
0.0
 10
-3.3582
 20
-29.8949
 30
0.0
 10
-3.4298
 20
-29.9669
 30
0.0
 10
-3.4298
 20
-29.9669
 30
0.0
 10
-3.5017
 20
-30.0384
 30
0.0
 10
-3.538
 20
-30.1377
 30
0.0
 10
-3.5389
 20
-30.2642
 30
0.0
 10
-3.5389
 20
-30.2642
 30
0.0
 10
-3.5389
 20
-30.2642
 30
0.0
 10
-3.7938
 20
-30.2384
 30
0.0
 10
-3.7938
 20
-30.2384
 30
0.0
 10
-3.7938
 20
-30.2384
 30
0.0
 10
-3.7764
 20
-30.0479
 30
0.0
 10
-3.7105
 20
-29.9029
 30
0.0
 10
-3.5968
 20
-29.8032
 30
0.0
 10
-3.5968
 20
-29.8032
 30
0.0
 10
-3.4829
 20
-29.7035
 30
0.0
 10
-3.3296
 20
-29.6536
 30
0.0
 10
-3.1377
 20
-29.6536
 30
0.0
 10
-3.1377
 20
-29.6536
 30
0.0
 10
-2.9438
 20
-29.6536
 30
0.0
 10
-2.7906
 20
-29.7078
 30
0.0
 10
-2.6777
 20
-29.815
 30
0.0
 10
-2.6777
 20
-29.815
 30
0.0
 10
-2.5644
 20
-29.9228
 30
0.0
 10
-2.5079
 20
-30.0558
 30
0.0
 10
-2.5079
 20
-30.2149
 30
0.0
 10
-2.5079
 20
-30.2149
 30
0.0
 10
-2.5079
 20
-30.2957
 30
0.0
 10
-2.5243
 20
-30.3752
 30
0.0
 10
-2.5577
 20
-30.4533
 30
0.0
 10
-2.5577
 20
-30.4533
 30
0.0
 10
-2.5906
 20
-30.5313
 30
0.0
 10
-2.6456
 20
-30.6136
 30
0.0
 10
-2.7224
 20
-30.6998
 30
0.0
 10
-2.7224
 20
-30.6998
 30
0.0
 10
-2.799
 20
-30.7863
 30
0.0
 10
-2.9265
 20
-30.9048
 30
0.0
 10
-3.1047
 20
-31.0553
 30
0.0
 10
-3.1047
 20
-31.0553
 30
0.0
 10
-3.2533
 20
-31.1804
 30
0.0
 10
-3.3488
 20
-31.2651
 30
0.0
 10
-3.3912
 20
-31.3098
 30
0.0
 10
-3.3912
 20
-31.3098
 30
0.0
 10
-3.4335
 20
-31.3541
 30
0.0
 10
-3.4683
 20
-31.3986
 30
0.0
 10
-3.4961
 20
-31.4439
 30
0.0
 10
-3.4961
 20
-31.4439
 30
0.0
 10
-3.4961
 20
-31.4439
 30
0.0
 10
-2.505
 20
-31.4439
 30
0.0
 10
-2.505
 20
-31.4439
 30
0.0
  0
SPLINE
  5
6F
330
1F
100
AcDbEntity
  8
DEFAULT_1
 62
   250
100
AcDbSpline
210
0.0
220
0.0
230
1.0
 70
     8
 71
     3
 72
    32
 73
    28
 74
     0
 42
0.0000000001
 43
0.0000000001
 40
0.0
 40
0.0
 40
0.0
 40
0.0
 40
0.125
 40
0.125
 40
0.125
 40
0.125
 40
0.25
 40
0.25
 40
0.25
 40
0.25
 40
0.375
 40
0.375
 40
0.375
 40
0.375
 40
0.5
 40
0.5
 40
0.5
 40
0.5
 40
0.625
 40
0.625
 40
0.625
 40
0.625
 40
0.75
 40
0.75
 40
0.75
 40
0.75
 40
1.0
 40
1.0
 40
1.0
 40
1.0
 10
-3.001
 20
15.1923
 30
0.0
 10
-3.001
 20
15.1923
 30
0.0
 10
-2.9526
 20
9.8852
 30
0.0
 10
-2.9526
 20
9.8852
 30
0.0
 10
-2.9526
 20
9.8852
 30
0.0
 10
-2.9526
 20
9.8852
 30
0.0
 10
-5.9166
 20
9.9096
 30
0.0
 10
-5.9166
 20
9.9096
 30
0.0
 10
-5.9166
 20
9.9096
 30
0.0
 10
-5.9166
 20
9.9096
 30
0.0
 10
-5.8519
 20
15.1916
 30
0.0
 10
-5.8519
 20
15.1916
 30
0.0
 10
-5.8519
 20
15.1916
 30
0.0
 10
-5.8519
 20
15.1916
 30
0.0
 10
15.429
 20
15.1916
 30
0.0
 10
15.429
 20
15.1916
 30
0.0
 10
15.429
 20
15.1916
 30
0.0
 10
15.429
 20
15.1916
 30
0.0
 10
15.4199
 20
9.9834
 30
0.0
 10
15.4199
 20
9.9834
 30
0.0
 10
15.4199
 20
9.9834
 30
0.0
 10
15.4199
 20
9.9834
 30
0.0
 10
12.4806
 20
9.9655
 30
0.0
 10
12.4806
 20
9.9655
 30
0.0
 10
12.4806
 20
9.9655
 30
0.0
 10
12.4806
 20
9.9655
 30
0.0
 10
12.4985
 20
15.1916
 30
0.0
 10
12.4985
 20
15.1916
 30
0.0
  0
SPLINE
  5
70
330
1F
100
AcDbEntity
  8
DEFAULT_1
 62
   250
100
AcDbSpline
210
0.0
220
0.0
230
1.0
 70
     8
 71
     3
 72
    36
 73
    32
 74
     0
 42
0.0000000001
 43
0.0000000001
 40
0.0
 40
0.0
 40
0.0
 40
0.0
 40
0.1111111111111111
 40
0.1111111111111111
 40
0.1111111111111111
 40
0.1111111111111111
 40
0.2222222222222222
 40
0.2222222222222222
 40
0.2222222222222222
 40
0.2222222222222222
 40
0.3333333333333333
 40
0.3333333333333333
 40
0.3333333333333333
 40
0.3333333333333333
 40
0.4444444444444444
 40
0.4444444444444444
 40
0.4444444444444444
 40
0.4444444444444444
 40
0.5555555555555556
 40
0.5555555555555556
 40
0.5555555555555556
 40
0.5555555555555556
 40
0.6666666666666666
 40
0.6666666666666666
 40
0.6666666666666666
 40
0.6666666666666666
 40
0.7777777777777778
 40
0.7777777777777778
 40
0.7777777777777778
 40
0.7777777777777778
 40
1.0
 40
1.0
 40
1.0
 40
1.0
 10
4.0889
 20
-9.4101
 30
0.0
 10
4.0889
 20
-9.4101
 30
0.0
 10
4.1032
 20
-9.8685
 30
0.0
 10
4.1032
 20
-9.8685
 30
0.0
 10
4.1032
 20
-9.8685
 30
0.0
 10
4.1032
 20
-9.8685
 30
0.0
 10
5.6185
 20
-9.8543
 30
0.0
 10
5.6185
 20
-9.8543
 30
0.0
 10
5.6185
 20
-9.8543
 30
0.0
 10
5.6185
 20
-9.8543
 30
0.0
 10
5.6042
 20
-9.3816
 30
0.0
 10
5.6042
 20
-9.3816
 30
0.0
 10
5.6042
 20
-9.3816
 30
0.0
 10
5.6042
 20
-9.3816
 30
0.0
 10
1.0297
 20
-9.3671
 30
0.0
 10
1.0297
 20
-9.3671
 30
0.0
 10
1.0297
 20
-9.3671
 30
0.0
 10
1.0297
 20
-9.3671
 30
0.0
 10
1.0344
 20
-9.8546
 30
0.0
 10
1.0344
 20
-9.8546
 30
0.0
 10
1.0344
 20
-9.8546
 30
0.0
 10
1.0344
 20
-9.8546
 30
0.0
 10
8.6492
 20
-9.8546
 30
0.0
 10
8.6492
 20
-9.8546
 30
0.0
 10
8.6492
 20
-9.8546
 30
0.0
 10
8.6492
 20
-9.8546
 30
0.0
 10
8.6492
 20
-9.3958
 30
0.0
 10
8.6492
 20
-9.3958
 30
0.0
 10
8.6492
 20
-9.3958
 30
0.0
 10
8.6492
 20
-9.3958
 30
0.0
 10
5.4185
 20
-9.3958
 30
0.0
 10
5.4185
 20
-9.3958
 30
0.0
  0
SPLINE
  5
71
330
1F
100
AcDbEntity
  8
DEFAULT_1
 62
   250
100
AcDbSpline
210
0.0
220
0.0
230
1.0
 70
     8
 71
     3
 72
    48
 73
    44
 74
     0
 42
0.0000000001
 43
0.0000000001
 40
0.0
 40
0.0
 40
0.0
 40
0.0
 40
0.0833333333333333
 40
0.0833333333333333
 40
0.0833333333333333
 40
0.0833333333333333
 40
0.1666666666666667
 40
0.1666666666666667
 40
0.1666666666666667
 40
0.1666666666666667
 40
0.25
 40
0.25
 40
0.25
 40
0.25
 40
0.3333333333333333
 40
0.3333333333333333
 40
0.3333333333333333
 40
0.3333333333333333
 40
0.4166666666666667
 40
0.4166666666666667
 40
0.4166666666666667
 40
0.4166666666666667
 40
0.5
 40
0.5
 40
0.5
 40
0.5
 40
0.5833333333333334
 40
0.5833333333333334
 40
0.5833333333333334
 40
0.5833333333333334
 40
0.6666666666666666
 40
0.6666666666666666
 40
0.6666666666666666
 40
0.6666666666666666
 40
0.75
 40
0.75
 40
0.75
 40
0.75
 40
0.8333333333333334
 40
0.8333333333333334
 40
0.8333333333333334
 40
0.8333333333333334
 40
1.0
 40
1.0
 40
1.0
 40
1.0
 10
5.2436
 20
-12.0347
 30
0.0
 10
5.2436
 20
-12.0347
 30
0.0
 10
5.2276
 20
-10.6865
 30
0.0
 10
5.2276
 20
-10.6865
 30
0.0
 10
5.2276
 20
-10.6865
 30
0.0
 10
5.2276
 20
-10.6865
 30
0.0
 10
5.196
 20
-10.5988
 30
0.0
 10
5.196
 20
-10.5988
 30
0.0
 10
5.196
 20
-10.5988
 30
0.0
 10
5.196
 20
-10.5988
 30
0.0
 10
5.1244
 20
-10.4633
 30
0.0
 10
5.1244
 20
-10.4633
 30
0.0
 10
5.1244
 20
-10.4633
 30
0.0
 10
5.1244
 20
-10.4633
 30
0.0
 10
4.8857
 20
-10.3278
 30
0.0
 10
4.8857
 20
-10.3278
 30
0.0
 10
4.8857
 20
-10.3278
 30
0.0
 10
4.8857
 20
-10.3278
 30
0.0
 10
3.5959
 20
-10.3117
 30
0.0
 10
3.5959
 20
-10.3117
 30
0.0
 10
3.5959
 20
-10.3117
 30
0.0
 10
3.5959
 20
-10.3117
 30
0.0
 10
3.4655
 20
-10.3452
 30
0.0
 10
3.4655
 20
-10.3452
 30
0.0
 10
3.4655
 20
-10.3452
 30
0.0
 10
3.3018
 20
-10.3951
 30
0.0
 10
3.1796
 20
-10.5319
 30
0.0
 10
3.1479
 20
-10.6999
 30
0.0
 10
3.1479
 20
-10.6999
 30
0.0
 10
3.1163
 20
-10.8677
 30
0.0
 10
3.1805
 20
-11.0397
 30
0.0
 10
3.3148
 20
-11.1456
 30
0.0
 10
3.3148
 20
-11.1456
 30
0.0
 10
3.449
 20
-11.2515
 30
0.0
 10
3.6309
 20
-11.2741
 30
0.0
 10
3.7869
 20
-11.2043
 30
0.0
 10
3.7869
 20
-11.2043
 30
0.0
 10
3.7869
 20
-11.2043
 30
0.0
 10
4.3361
 20
-11.189
 30
0.0
 10
4.3361
 20
-11.189
 30
0.0
 10
4.3361
 20
-11.189
 30
0.0
 10
4.3361
 20
-11.189
 30
0.0
 10
4.3361
 20
-12.0027
 30
0.0
 10
4.3361
 20
-12.0027
 30
0.0
  0
SPLINE
  5
72
330
1F
100
AcDbEntity
  8
DEFAULT_1
 62
   250
100
AcDbSpline
210
0.0
220
0.0
230
1.0
 70
     8
 71
     3
 72
    40
 73
    36
 74
     0
 42
0.0000000001
 43
0.0000000001
 40
0.0
 40
0.0
 40
0.0
 40
0.0
 40
0.1
 40
0.1
 40
0.1
 40
0.1
 40
0.2
 40
0.2
 40
0.2
 40
0.2
 40
0.3
 40
0.3
 40
0.3
 40
0.3
 40
0.4
 40
0.4
 40
0.4
 40
0.4
 40
0.5
 40
0.5
 40
0.5
 40
0.5
 40
0.6
 40
0.6
 40
0.6
 40
0.6
 40
0.7
 40
0.7
 40
0.7
 40
0.7
 40
0.8
 40
0.8
 40
0.8
 40
0.8
 40
1.0
 40
1.0
 40
1.0
 40
1.0
 10
-3.2842
 20
9.9963
 30
0.0
 10
-3.2842
 20
9.9963
 30
0.0
 10
-3.2842
 20
-8.0337
 30
0.0
 10
-3.2842
 20
-8.0337
 30
0.0
 10
-3.2842
 20
-8.0337
 30
0.0
 10
-3.2842
 20
-8.0337
 30
0.0
 10
-3.7102
 20
-8.2739
 30
0.0
 10
-3.7102
 20
-8.2739
 30
0.0
 10
-3.7102
 20
-8.2739
 30
0.0
 10
-3.7102
 20
-8.2739
 30
0.0
 10
-3.7334
 20
-12.0733
 30
0.0
 10
-3.7334
 20
-12.0733
 30
0.0
 10
-3.7334
 20
-12.0733
 30
0.0
 10
-3.7334
 20
-12.0733
 30
0.0
 10
13.3678
 20
-12.0293
 30
0.0
 10
13.3678
 20
-12.0293
 30
0.0
 10
13.3678
 20
-12.0293
 30
0.0
 10
13.3678
 20
-12.0293
 30
0.0
 10
13.3358
 20
-8.2916
 30
0.0
 10
13.3358
 20
-8.2916
 30
0.0
 10
13.3358
 20
-8.2916
 30
0.0
 10
13.3358
 20
-8.2916
 30
0.0
 10
-3.8161
 20
-8.2639
 30
0.0
 10
-3.8161
 20
-8.2639
 30
0.0
 10
-3.8161
 20
-8.2639
 30
0.0
 10
-3.8161
 20
-8.2639
 30
0.0
 10
13.3848
 20
-8.3003
 30
0.0
 10
13.3848
 20
-8.3003
 30
0.0
 10
13.3848
 20
-8.3003
 30
0.0
 10
13.3848
 20
-8.3003
 30
0.0
 10
12.8382
 20
-7.862
 30
0.0
 10
12.8382
 20
-7.862
 30
0.0
 10
12.8382
 20
-7.862
 30
0.0
 10
12.8382
 20
-7.862
 30
0.0
 10
12.8564
 20
9.7753
 30
0.0
 10
12.8564
 20
9.7753
 30
0.0
  0
SPLINE
  5
73
330
1F
100
AcDbEntity
  8
DEFAULT_1
 62
   250
100
AcDbSpline
210
0.0
220
0.0
230
1.0
 70
    11
 71
     3
 72
    20
 73
    16
 74
     0
 42
0.0000000001
 43
0.0000000001
 40
0.0
 40
0.0
 40
0.0
 40
0.0
 40
0.2
 40
0.2
 40
0.2
 40
0.2
 40
0.4
 40
0.4
 40
0.4
 40
0.4
 40
0.6
 40
0.6
 40
0.6
 40
0.6
 40
1.0
 40
1.0
 40
1.0
 40
1.0
 10
-3.9436
 20
13.793
 30
0.0
 10
-3.9436
 20
14.0136
 30
0.0
 10
-4.1226
 20
14.1925
 30
0.0
 10
-4.3433
 20
14.1925
 30
0.0
 10
-4.3433
 20
14.1925
 30
0.0
 10
-4.5638
 20
14.1925
 30
0.0
 10
-4.7429
 20
14.0136
 30
0.0
 10
-4.7429
 20
13.793
 30
0.0
 10
-4.7429
 20
13.793
 30
0.0
 10
-4.7429
 20
13.5722
 30
0.0
 10
-4.5638
 20
13.3934
 30
0.0
 10
-4.3433
 20
13.3934
 30
0.0
 10
-4.3433
 20
13.3934
 30
0.0
 10
-4.1226
 20
13.3934
 30
0.0
 10
-3.9436
 20
13.5722
 30
0.0
 10
-3.9436
 20
13.793
 30
0.0
  0
SPLINE
  5
74
330
1F
100
AcDbEntity
  8
DEFAULT_1
 62
   250
100
AcDbSpline
210
0.0
220
0.0
230
1.0
 70
    11
 71
     3
 72
    20
 73
    16
 74
     0
 42
0.0000000001
 43
0.0000000001
 40
0.0
 40
0.0
 40
0.0
 40
0.0
 40
0.2
 40
0.2
 40
0.2
 40
0.2
 40
0.4
 40
0.4
 40
0.4
 40
0.4
 40
0.6
 40
0.6
 40
0.6
 40
0.6
 40
1.0
 40
1.0
 40
1.0
 40
1.0
 10
14.3198
 20
13.793
 30
0.0
 10
14.3198
 20
14.0136
 30
0.0
 10
14.141
 20
14.1925
 30
0.0
 10
13.9202
 20
14.1925
 30
0.0
 10
13.9202
 20
14.1925
 30
0.0
 10
13.6994
 20
14.1925
 30
0.0
 10
13.5206
 20
14.0136
 30
0.0
 10
13.5206
 20
13.793
 30
0.0
 10
13.5206
 20
13.793
 30
0.0
 10
13.5206
 20
13.5722
 30
0.0
 10
13.6994
 20
13.3934
 30
0.0
 10
13.9202
 20
13.3934
 30
0.0
 10
13.9202
 20
13.3934
 30
0.0
 10
14.141
 20
13.3934
 30
0.0
 10
14.3198
 20
13.5722
 30
0.0
 10
14.3198
 20
13.793
 30
0.0
  0
SPLINE
  5
75
330
1F
100
AcDbEntity
  8
DEFAULT_1
 62
   250
100
AcDbSpline
210
0.0
220
0.0
230
1.0
 70
    11
 71
     3
 72
    20
 73
    16
 74
     0
 42
0.0000000001
 43
0.0000000001
 40
0.0
 40
0.0
 40
0.0
 40
0.0
 40
0.2
 40
0.2
 40
0.2
 40
0.2
 40
0.4
 40
0.4
 40
0.4
 40
0.4
 40
0.6
 40
0.6
 40
0.6
 40
0.6
 40
1.0
 40
1.0
 40
1.0
 40
1.0
 10
14.3198
 20
11.3952
 30
0.0
 10
14.3198
 20
11.616
 30
0.0
 10
14.141
 20
11.7948
 30
0.0
 10
13.9202
 20
11.7948
 30
0.0
 10
13.9202
 20
11.7948
 30
0.0
 10
13.6994
 20
11.7948
 30
0.0
 10
13.5206
 20
11.616
 30
0.0
 10
13.5206
 20
11.3952
 30
0.0
 10
13.5206
 20
11.3952
 30
0.0
 10
13.5206
 20
11.1744
 30
0.0
 10
13.6994
 20
10.9955
 30
0.0
 10
13.9202
 20
10.9955
 30
0.0
 10
13.9202
 20
10.9955
 30
0.0
 10
14.141
 20
10.9955
 30
0.0
 10
14.3198
 20
11.1744
 30
0.0
 10
14.3198
 20
11.3952
 30
0.0
  0
SPLINE
  5
76
330
1F
100
AcDbEntity
  8
DEFAULT_1
 62
   250
100
AcDbSpline
210
0.0
220
0.0
230
1.0
 70
    11
 71
     3
 72
    20
 73
    16
 74
     0
 42
0.0000000001
 43
0.0000000001
 40
0.0
 40
0.0
 40
0.0
 40
0.0
 40
0.2
 40
0.2
 40
0.2
 40
0.2
 40
0.4
 40
0.4
 40
0.4
 40
0.4
 40
0.6
 40
0.6
 40
0.6
 40
0.6
 40
1.0
 40
1.0
 40
1.0
 40
1.0
 10
-3.9436
 20
11.3952
 30
0.0
 10
-3.9436
 20
11.616
 30
0.0
 10
-4.1226
 20
11.7948
 30
0.0
 10
-4.3433
 20
11.7948
 30
0.0
 10
-4.3433
 20
11.7948
 30
0.0
 10
-4.5638
 20
11.7948
 30
0.0
 10
-4.7429
 20
11.616
 30
0.0
 10
-4.7429
 20
11.3952
 30
0.0
 10
-4.7429
 20
11.3952
 30
0.0
 10
-4.7429
 20
11.1744
 30
0.0
 10
-4.5638
 20
10.9955
 30
0.0
 10
-4.3433
 20
10.9955
 30
0.0
 10
-4.3433
 20
10.9955
 30
0.0
 10
-4.1226
 20
10.9955
 30
0.0
 10
-3.9436
 20
11.1744
 30
0.0
 10
-3.9436
 20
11.3952
 30
0.0
  0
SPLINE
  5
77
330
1F
100
AcDbEntity
  8
DEFAULT_1
 62
   250
100
AcDbSpline
210
0.0
220
0.0
230
1.0
 70
    11
 71
     3
 72
    20
 73
    16
 74
     0
 42
0.0000000001
 43
0.0000000001
 40
0.0
 40
0.0
 40
0.0
 40
0.0
 40
0.2
 40
0.2
 40
0.2
 40
0.2
 40
0.4
 40
0.4
 40
0.4
 40
0.4
 40
0.6
 40
0.6
 40
0.6
 40
0.6
 40
1.0
 40
1.0
 40
1.0
 40
1.0
 10
-14.1819
 20
-14.7445
 30
0.0
 10
-14.1819
 20
-14.7445
 30
0.0
 10
-14.61
 20
-17.7792
 30
0.0
 10
-14.61
 20
-17.7792
 30
0.0
 10
-14.61
 20
-17.7792
 30
0.0
 10
-14.61
 20
-17.7792
 30
0.0
 10
-14.7051
 20
-17.7792
 30
0.0
 10
-14.7051
 20
-17.7792
 30
0.0
 10
-14.7051
 20
-17.7792
 30
0.0
 10
-14.7051
 20
-17.7792
 30
0.0
 10
-15.1619
 20
-14.7445
 30
0.0
 10
-15.1619
 20
-14.7445
 30
0.0
 10
-15.1619
 20
-14.7445
 30
0.0
 10
-15.1619
 20
-14.7445
 30
0.0
 10
-14.1819
 20
-14.7445
 30
0.0
 10
-14.1819
 20
-14.7445
 30
0.0
  0
SPLINE
  5
78
330
1F
100
AcDbEntity
  8
DEFAULT_1
 62
   250
100
AcDbSpline
210
0.0
220
0.0
230
1.0
 70
    11
 71
     3
 72
    20
 73
    16
 74
     0
 42
0.0000000001
 43
0.0000000001
 40
0.0
 40
0.0
 40
0.0
 40
0.0
 40
0.2
 40
0.2
 40
0.2
 40
0.2
 40
0.4
 40
0.4
 40
0.4
 40
0.4
 40
0.6
 40
0.6
 40
0.6
 40
0.6
 40
1.0
 40
1.0
 40
1.0
 40
1.0
 10
-15.1282
 20
31.7897
 30
0.0
 10
-15.1282
 20
31.7897
 30
0.0
 10
-14.7003
 20
34.823
 30
0.0
 10
-14.7003
 20
34.823
 30
0.0
 10
-14.7003
 20
34.823
 30
0.0
 10
-14.7003
 20
34.823
 30
0.0
 10
-14.6051
 20
34.823
 30
0.0
 10
-14.6051
 20
34.823
 30
0.0
 10
-14.6051
 20
34.823
 30
0.0
 10
-14.6051
 20
34.823
 30
0.0
 10
-14.1486
 20
31.7897
 30
0.0
 10
-14.1486
 20
31.7897
 30
0.0
 10
-14.1486
 20
31.7897
 30
0.0
 10
-14.1486
 20
31.7897
 30
0.0
 10
-15.1282
 20
31.7897
 30
0.0
 10
-15.1282
 20
31.7897
 30
0.0
  0
SPLINE
  5
79
330
1F
100
AcDbEntity
  8
DEFAULT_1
 62
   250
100
AcDbSpline
210
0.0
220
0.0
230
1.0
 70
    11
 71
     3
 72
    20
 73
    16
 74
     0
 42
0.0000000001
 43
0.0000000001
 40
0.0
 40
0.0
 40
0.0
 40
0.0
 40
0.2
 40
0.2
 40
0.2
 40
0.2
 40
0.4
 40
0.4
 40
0.4
 40
0.4
 40
0.6
 40
0.6
 40
0.6
 40
0.6
 40
1.0
 40
1.0
 40
1.0
 40
1.0
 10
-6.3345
 20
0.2811
 30
0.0
 10
-6.3345
 20
0.2811
 30
0.0
 10
-3.301
 20
-0.147
 30
0.0
 10
-3.301
 20
-0.147
 30
0.0
 10
-3.301
 20
-0.147
 30
0.0
 10
-3.301
 20
-0.147
 30
0.0
 10
-3.301
 20
-0.2421
 30
0.0
 10
-3.301
 20
-0.2421
 30
0.0
 10
-3.301
 20
-0.2421
 30
0.0
 10
-3.301
 20
-0.2421
 30
0.0
 10
-6.3345
 20
-0.6986
 30
0.0
 10
-6.3345
 20
-0.6986
 30
0.0
 10
-6.3345
 20
-0.6986
 30
0.0
 10
-6.3345
 20
-0.6986
 30
0.0
 10
-6.3345
 20
0.2811
 30
0.0
 10
-6.3345
 20
0.2811
 30
0.0
  0
SPLINE
  5
7A
330
1F
100
AcDbEntity
  8
DEFAULT_1
 62
   250
100
AcDbSpline
210
0.0
220
0.0
230
1.0
 70
    11
 71
     3
 72
    20
 73
    16
 74
     0
 42
0.0000000001
 43
0.0000000001
 40
0.0
 40
0.0
 40
0.0
 40
0.0
 40
0.2
 40
0.2
 40
0.2
 40
0.2
 40
0.4
 40
0.4
 40
0.4
 40
0.4
 40
0.6
 40
0.6
 40
0.6
 40
0.6
 40
1.0
 40
1.0
 40
1.0
 40
1.0
 10
16.0762
 20
-0.6728
 30
0.0
 10
16.0762
 20
-0.6728
 30
0.0
 10
13.0388
 20
-0.2441
 30
0.0
 10
13.0388
 20
-0.2441
 30
0.0
 10
13.0388
 20
-0.2441
 30
0.0
 10
13.0388
 20
-0.2441
 30
0.0
 10
13.0388
 20
-0.149
 30
0.0
 10
13.0388
 20
-0.149
 30
0.0
 10
13.0388
 20
-0.149
 30
0.0
 10
13.0388
 20
-0.149
 30
0.0
 10
16.0762
 20
0.3083
 30
0.0
 10
16.0762
 20
0.3083
 30
0.0
 10
16.0762
 20
0.3083
 30
0.0
 10
16.0762
 20
0.3083
 30
0.0
 10
16.0762
 20
-0.6728
 30
0.0
 10
16.0762
 20
-0.6728
 30
0.0
  0
SPLINE
  5
7B
330
1F
100
AcDbEntity
  8
DEFAULT_1
 62
   250
100
AcDbSpline
210
0.0
220
0.0
230
1.0
 70
    11
 71
     3
 72
    20
 73
    16
 74
     0
 42
0.0000000001
 43
0.0000000001
 40
0.0
 40
0.0
 40
0.0
 40
0.0
 40
0.2
 40
0.2
 40
0.2
 40
0.2
 40
0.4
 40
0.4
 40
0.4
 40
0.4
 40
0.6
 40
0.6
 40
0.6
 40
0.6
 40
1.0
 40
1.0
 40
1.0
 40
1.0
 10
-1.6362
 20
-31.7266
 30
0.0
 10
-1.6362
 20
-31.7266
 30
0.0
 10
1.4003
 20
-32.1551
 30
0.0
 10
1.4003
 20
-32.1551
 30
0.0
 10
1.4003
 20
-32.1551
 30
0.0
 10
1.4003
 20
-32.1551
 30
0.0
 10
1.4003
 20
-32.2502
 30
0.0
 10
1.4003
 20
-32.2502
 30
0.0
 10
1.4003
 20
-32.2502
 30
0.0
 10
1.4003
 20
-32.2502
 30
0.0
 10
-1.6362
 20
-32.7073
 30
0.0
 10
-1.6362
 20
-32.7073
 30
0.0
 10
-1.6362
 20
-32.7073
 30
0.0
 10
-1.6362
 20
-32.7073
 30
0.0
 10
-1.6362
 20
-31.7266
 30
0.0
 10
-1.6362
 20
-31.7266
 30
0.0
  0
SPLINE
  5
7C
330
1F
100
AcDbEntity
  8
DEFAULT_1
 62
   250
100
AcDbSpline
210
0.0
220
0.0
230
1.0
 70
    11
 71
     3
 72
    20
 73
    16
 74
     0
 42
0.0000000001
 43
0.0000000001
 40
0.0
 40
0.0
 40
0.0
 40
0.0
 40
0.2
 40
0.2
 40
0.2
 40
0.2
 40
0.4
 40
0.4
 40
0.4
 40
0.4
 40
0.6
 40
0.6
 40
0.6
 40
0.6
 40
1.0
 40
1.0
 40
1.0
 40
1.0
 10
11.3997
 20
-32.6748
 30
0.0
 10
11.3997
 20
-32.6748
 30
0.0
 10
8.3659
 20
-32.2467
 30
0.0
 10
8.3659
 20
-32.2467
 30
0.0
 10
8.3659
 20
-32.2467
 30
0.0
 10
8.3659
 20
-32.2467
 30
0.0
 10
8.3659
 20
-32.1516
 30
0.0
 10
8.3659
 20
-32.1516
 30
0.0
 10
8.3659
 20
-32.1516
 30
0.0
 10
8.3659
 20
-32.1516
 30
0.0
 10
11.3997
 20
-31.6949
 30
0.0
 10
11.3997
 20
-31.6949
 30
0.0
 10
11.3997
 20
-31.6949
 30
0.0
 10
11.3997
 20
-31.6949
 30
0.0
 10
11.3997
 20
-32.6748
 30
0.0
 10
11.3997
 20
-32.6748
 30
0.0
  0
SPLINE
  5
7D
330
1F
100
AcDbEntity
  8
DEFAULT_1
 62
   250
100
AcDbSpline
210
0.0
220
0.0
230
1.0
 70
    27
 71
     3
 72
    12
 73
     8
 74
     0
 42
0.0000000001
 43
0.0000000001
 40
0.0
 40
0.0
 40
0.0
 40
0.0
 40
0.3333333333333333
 40
0.3333333333333333
 40
0.3333333333333333
 40
0.3333333333333333
 40
1.0
 40
1.0
 40
1.0
 40
1.0
 10
-14.6616
 20
34.121
 30
0.0
 10
-14.6616
 20
34.121
 30
0.0
 10
-14.6616
 20
-17.554
 30
0.0
 10
-14.6616
 20
-17.554
 30
0.0
 10
-14.6616
 20
-17.554
 30
0.0
 10
-14.6616
 20
-17.554
 30
0.0
 10
-14.6616
 20
34.121
 30
0.0
 10
-14.6616
 20
34.121
 30
0.0
  0
SPLINE
  5
7E
330
1F
100
AcDbEntity
  8
DEFAULT_1
 62
   250
100
AcDbSpline
210
0.0
220
0.0
230
1.0
 70
    27
 71
     3
 72
    12
 73
     8
 74
     0
 42
0.0000000001
 43
0.0000000001
 40
0.0
 40
0.0
 40
0.0
 40
0.0
 40
0.3333333333333333
 40
0.3333333333333333
 40
0.3333333333333333
 40
0.3333333333333333
 40
1.0
 40
1.0
 40
1.0
 40
1.0
 10
2.5307
 20
34.8505
 30
0.0
 10
2.5307
 20
34.8505
 30
0.0
 10
-15.9101
 20
34.8505
 30
0.0
 10
-15.9101
 20
34.8505
 30
0.0
 10
-15.9101
 20
34.8505
 30
0.0
 10
-15.9101
 20
34.8505
 30
0.0
 10
2.5307
 20
34.8505
 30
0.0
 10
2.5307
 20
34.8505
 30
0.0
  0
SPLINE
  5
7F
330
1F
100
AcDbEntity
  8
DEFAULT_1
 62
   250
100
AcDbSpline
210
0.0
220
0.0
230
1.0
 70
    27
 71
     3
 72
    12
 73
     8
 74
     0
 42
0.0000000001
 43
0.0000000001
 40
0.0
 40
0.0
 40
0.0
 40
0.0
 40
0.3333333333333333
 40
0.3333333333333333
 40
0.3333333333333333
 40
0.3333333333333333
 40
1.0
 40
1.0
 40
1.0
 40
1.0
 10
-4.0328
 20
-18.0657
 30
0.0
 10
-4.0328
 20
-18.0657
 30
0.0
 10
-15.9101
 20
-18.0657
 30
0.0
 10
-15.9101
 20
-18.0657
 30
0.0
 10
-15.9101
 20
-18.0657
 30
0.0
 10
-15.9101
 20
-18.0657
 30
0.0
 10
-4.0328
 20
-18.0657
 30
0.0
 10
-4.0328
 20
-18.0657
 30
0.0
  0
SPLINE
  5
80
330
1F
100
AcDbEntity
  8
DEFAULT_1
 62
   250
100
AcDbSpline
210
0.0
220
0.0
230
1.0
 70
    27
 71
     3
 72
    12
 73
     8
 74
     0
 42
0.0000000001
 43
0.0000000001
 40
0.0
 40
0.0
 40
0.0
 40
0.0
 40
0.3333333333333333
 40
0.3333333333333333
 40
0.3333333333333333
 40
0.3333333333333333
 40
1.0
 40
1.0
 40
1.0
 40
1.0
 10
-3.1739
 20
-17.9505
 30
0.0
 10
-3.1739
 20
-17.9505
 30
0.0
 10
-3.1739
 20
-19.1529
 30
0.0
 10
-3.1739
 20
-19.1529
 30
0.0
 10
-3.1739
 20
-19.1529
 30
0.0
 10
-3.1739
 20
-19.1529
 30
0.0
 10
-3.1739
 20
-17.9505
 30
0.0
 10
-3.1739
 20
-17.9505
 30
0.0
  0
SPLINE
  5
81
330
1F
100
AcDbEntity
  8
DEFAULT_1
 62
   250
100
AcDbSpline
210
0.0
220
0.0
230
1.0
 70
    27
 71
     3
 72
    12
 73
     8
 74
     0
 42
0.0000000001
 43
0.0000000001
 40
0.0
 40
0.0
 40
0.0
 40
0.0
 40
0.3333333333333333
 40
0.3333333333333333
 40
0.3333333333333333
 40
0.3333333333333333
 40
1.0
 40
1.0
 40
1.0
 40
1.0
 10
12.8575
 20
-17.9505
 30
0.0
 10
12.8575
 20
-17.9505
 30
0.0
 10
12.8575
 20
-19.1529
 30
0.0
 10
12.8575
 20
-19.1529
 30
0.0
 10
12.8575
 20
-19.1529
 30
0.0
 10
12.8575
 20
-19.1529
 30
0.0
 10
12.8575
 20
-17.9505
 30
0.0
 10
12.8575
 20
-17.9505
 30
0.0
  0
SPLINE
  5
82
330
1F
100
AcDbEntity
  8
DEFAULT_1
 62
   250
100
AcDbSpline
210
0.0
220
0.0
230
1.0
 70
     8
 71
     3
 72
    40
 73
    36
 74
     0
 42
0.0000000001
 43
0.0000000001
 40
0.0
 40
0.0
 40
0.0
 40
0.0
 40
0.1
 40
0.1
 40
0.1
 40
0.1
 40
0.2
 40
0.2
 40
0.2
 40
0.2
 40
0.3
 40
0.3
 40
0.3
 40
0.3
 40
0.4
 40
0.4
 40
0.4
 40
0.4
 40
0.5
 40
0.5
 40
0.5
 40
0.5
 40
0.6
 40
0.6
 40
0.6
 40
0.6
 40
0.7
 40
0.7
 40
0.7
 40
0.7
 40
0.8
 40
0.8
 40
0.8
 40
0.8
 40
1.0
 40
1.0
 40
1.0
 40
1.0
 10
-3.3223
 20
-12.068
 30
0.0
 10
-3.3223
 20
-12.068
 30
0.0
 10
-3.3241
 20
-12.6201
 30
0.0
 10
-3.3241
 20
-12.6201
 30
0.0
 10
-3.3241
 20
-12.6201
 30
0.0
 10
-3.3241
 20
-12.6201
 30
0.0
 10
-3.1221
 20
-12.6201
 30
0.0
 10
-3.1221
 20
-12.6201
 30
0.0
 10
-3.1221
 20
-12.6201
 30
0.0
 10
-3.1221
 20
-12.6201
 30
0.0
 10
-2.1205
 20
-12.6201
 30
0.0
 10
-2.1205
 20
-12.6201
 30
0.0
 10
-2.1205
 20
-12.6201
 30
0.0
 10
-2.1205
 20
-12.6201
 30
0.0
 10
2.8612
 20
-12.6201
 30
0.0
 10
2.8612
 20
-12.6201
 30
0.0
 10
2.8612
 20
-12.6201
 30
0.0
 10
2.8612
 20
-12.6201
 30
0.0
 10
4.7388
 20
-12.6201
 30
0.0
 10
4.7388
 20
-12.6201
 30
0.0
 10
4.7388
 20
-12.6201
 30
0.0
 10
4.7388
 20
-12.6201
 30
0.0
 10
11.8041
 20
-12.6201
 30
0.0
 10
11.8041
 20
-12.6201
 30
0.0
 10
11.8041
 20
-12.6201
 30
0.0
 10
11.8041
 20
-12.6201
 30
0.0
 10
12.8057
 20
-12.6201
 30
0.0
 10
12.8057
 20
-12.6201
 30
0.0
 10
12.8057
 20
-12.6201
 30
0.0
 10
12.8057
 20
-12.6201
 30
0.0
 10
13.0077
 20
-12.6201
 30
0.0
 10
13.0077
 20
-12.6201
 30
0.0
 10
13.0077
 20
-12.6201
 30
0.0
 10
13.0077
 20
-12.6201
 30
0.0
 10
13.0037
 20
-12.0013
 30
0.0
 10
13.0037
 20
-12.0013
 30
0.0
  0
SPLINE
  5
83
330
1F
100
AcDbEntity
  8
DEFAULT_1
 62
   250
100
AcDbSpline
210
0.0
220
0.0
230
1.0
 70
    11
 71
     3
 72
   116
 73
   112
 74
     0
 42
0.0000000001
 43
0.0000000001
 40
0.0
 40
0.0
 40
0.0
 40
0.0
 40
0.0344827586206897
 40
0.0344827586206897
 40
0.0344827586206897
 40
0.0344827586206897
 40
0.0689655172413793
 40
0.0689655172413793
 40
0.0689655172413793
 40
0.0689655172413793
 40
0.103448275862069
 40
0.103448275862069
 40
0.103448275862069
 40
0.103448275862069
 40
0.1379310344827586
 40
0.1379310344827586
 40
0.1379310344827586
 40
0.1379310344827586
 40
0.1724137931034483
 40
0.1724137931034483
 40
0.1724137931034483
 40
0.1724137931034483
 40
0.2068965517241379
 40
0.2068965517241379
 40
0.2068965517241379
 40
0.2068965517241379
 40
0.2413793103448276
 40
0.2413793103448276
 40
0.2413793103448276
 40
0.2413793103448276
 40
0.2758620689655172
 40
0.2758620689655172
 40
0.2758620689655172
 40
0.2758620689655172
 40
0.3103448275862069
 40
0.3103448275862069
 40
0.3103448275862069
 40
0.3103448275862069
 40
0.3448275862068966
 40
0.3448275862068966
 40
0.3448275862068966
 40
0.3448275862068966
 40
0.3793103448275862
 40
0.3793103448275862
 40
0.3793103448275862
 40
0.3793103448275862
 40
0.4137931034482759
 40
0.4137931034482759
 40
0.4137931034482759
 40
0.4137931034482759
 40
0.4482758620689655
 40
0.4482758620689655
 40
0.4482758620689655
 40
0.4482758620689655
 40
0.4827586206896552
 40
0.4827586206896552
 40
0.4827586206896552
 40
0.4827586206896552
 40
0.5172413793103449
 40
0.5172413793103449
 40
0.5172413793103449
 40
0.5172413793103449
 40
0.5517241379310345
 40
0.5517241379310345
 40
0.5517241379310345
 40
0.5517241379310345
 40
0.5862068965517241
 40
0.5862068965517241
 40
0.5862068965517241
 40
0.5862068965517241
 40
0.6206896551724138
 40
0.6206896551724138
 40
0.6206896551724138
 40
0.6206896551724138
 40
0.6551724137931034
 40
0.6551724137931034
 40
0.6551724137931034
 40
0.6551724137931034
 40
0.6896551724137931
 40
0.6896551724137931
 40
0.6896551724137931
 40
0.6896551724137931
 40
0.7241379310344828
 40
0.7241379310344828
 40
0.7241379310344828
 40
0.7241379310344828
 40
0.7586206896551724
 40
0.7586206896551724
 40
0.7586206896551724
 40
0.7586206896551724
 40
0.7931034482758621
 40
0.7931034482758621
 40
0.7931034482758621
 40
0.7931034482758621
 40
0.8275862068965517
 40
0.8275862068965517
 40
0.8275862068965517
 40
0.8275862068965517
 40
0.8620689655172413
 40
0.8620689655172413
 40
0.8620689655172413
 40
0.8620689655172413
 40
0.896551724137931
 40
0.896551724137931
 40
0.896551724137931
 40
0.896551724137931
 40
0.9310344827586207
 40
0.9310344827586207
 40
0.9310344827586207
 40
0.9310344827586207
 40
1.0
 40
1.0
 40
1.0
 40
1.0
 10
10.9414
 20
-16.549
 30
0.0
 10
10.9414
 20
-16.549
 30
0.0
 10
11.0515
 20
-17.0298
 30
0.0
 10
11.0515
 20
-17.0298
 30
0.0
 10
11.0515
 20
-17.0298
 30
0.0
 10
11.0515
 20
-17.0298
 30
0.0
 10
11.8041
 20
-17.0298
 30
0.0
 10
11.8041
 20
-17.0298
 30
0.0
 10
11.8041
 20
-17.0298
 30
0.0
 10
11.8041
 20
-17.0298
 30
0.0
 10
11.8041
 20
-12.6201
 30
0.0
 10
11.8041
 20
-12.6201
 30
0.0
 10
11.8041
 20
-12.6201
 30
0.0
 10
11.8041
 20
-12.6201
 30
0.0
 10
11.8041
 20
-17.0298
 30
0.0
 10
11.8041
 20
-17.0298
 30
0.0
 10
11.8041
 20
-17.0298
 30
0.0
 10
11.8041
 20
-17.0298
 30
0.0
 10
12.8057
 20
-17.0298
 30
0.0
 10
12.8057
 20
-17.0298
 30
0.0
 10
12.8057
 20
-17.0298
 30
0.0
 10
12.8057
 20
-17.0298
 30
0.0
 10
12.8057
 20
-12.6201
 30
0.0
 10
12.8057
 20
-12.6201
 30
0.0
 10
12.8057
 20
-12.6201
 30
0.0
 10
12.8057
 20
-12.6201
 30
0.0
 10
12.8057
 20
-17.0298
 30
0.0
 10
12.8057
 20
-17.0298
 30
0.0
 10
12.8057
 20
-17.0298
 30
0.0
 10
12.8057
 20
-17.0298
 30
0.0
 10
13.0365
 20
-17.0298
 30
0.0
 10
13.0365
 20
-17.0298
 30
0.0
 10
13.0365
 20
-17.0298
 30
0.0
 10
13.0365
 20
-17.0298
 30
0.0
 10
13.0365
 20
-17.9353
 30
0.0
 10
13.0365
 20
-17.9353
 30
0.0
 10
13.0365
 20
-17.9353
 30
0.0
 10
13.0365
 20
-17.9353
 30
0.0
 10
-3.3437
 20
-17.9353
 30
0.0
 10
-3.3437
 20
-17.9353
 30
0.0
 10
-3.3437
 20
-17.9353
 30
0.0
 10
-3.3437
 20
-17.9353
 30
0.0
 10
-3.3437
 20
-17.0298
 30
0.0
 10
-3.3437
 20
-17.0298
 30
0.0
 10
-3.3437
 20
-17.0298
 30
0.0
 10
-3.3437
 20
-17.0298
 30
0.0
 10
-3.1221
 20
-17.0298
 30
0.0
 10
-3.1221
 20
-17.0298
 30
0.0
 10
-3.1221
 20
-17.0298
 30
0.0
 10
-3.1221
 20
-17.0298
 30
0.0
 10
-3.1221
 20
-12.6201
 30
0.0
 10
-3.1221
 20
-12.6201
 30
0.0
 10
-3.1221
 20
-12.6201
 30
0.0
 10
-3.1221
 20
-12.6201
 30
0.0
 10
-3.1221
 20
-17.0298
 30
0.0
 10
-3.1221
 20
-17.0298
 30
0.0
 10
-3.1221
 20
-17.0298
 30
0.0
 10
-3.1221
 20
-17.0298
 30
0.0
 10
-2.1205
 20
-17.0298
 30
0.0
 10
-2.1205
 20
-17.0298
 30
0.0
 10
-2.1205
 20
-17.0298
 30
0.0
 10
-2.1205
 20
-17.0298
 30
0.0
 10
-2.1205
 20
-12.6201
 30
0.0
 10
-2.1205
 20
-12.6201
 30
0.0
 10
-2.1205
 20
-12.6201
 30
0.0
 10
-2.1205
 20
-12.6201
 30
0.0
 10
-2.1205
 20
-17.0298
 30
0.0
 10
-2.1205
 20
-17.0298
 30
0.0
 10
-2.1205
 20
-17.0298
 30
0.0
 10
-2.1205
 20
-17.0298
 30
0.0
 10
-1.3676
 20
-17.0298
 30
0.0
 10
-1.3676
 20
-17.0298
 30
0.0
 10
-1.3676
 20
-17.0298
 30
0.0
 10
-1.3676
 20
-17.0298
 30
0.0
 10
-1.2726
 20
-16.6151
 30
0.0
 10
-1.2726
 20
-16.6151
 30
0.0
 10
-1.2726
 20
-16.6151
 30
0.0
 10
-1.2726
 20
-16.6151
 30
0.0
 10
-1.3676
 20
-17.0298
 30
0.0
 10
-1.3676
 20
-17.0298
 30
0.0
 10
-1.3676
 20
-17.0298
 30
0.0
 10
-1.3676
 20
-17.0298
 30
0.0
 10
2.8612
 20
-17.0298
 30
0.0
 10
2.8612
 20
-17.0298
 30
0.0
 10
2.8612
 20
-17.0298
 30
0.0
 10
2.8612
 20
-17.0298
 30
0.0
 10
2.8612
 20
-12.6201
 30
0.0
 10
2.8612
 20
-12.6201
 30
0.0
 10
2.8612
 20
-12.6201
 30
0.0
 10
2.8612
 20
-12.6201
 30
0.0
 10
2.8612
 20
-17.0298
 30
0.0
 10
2.8612
 20
-17.0298
 30
0.0
 10
2.8612
 20
-17.0298
 30
0.0
 10
2.8612
 20
-17.0298
 30
0.0
 10
4.7388
 20
-17.0298
 30
0.0
 10
4.7388
 20
-17.0298
 30
0.0
 10
4.7388
 20
-17.0298
 30
0.0
 10
4.7388
 20
-17.0298
 30
0.0
 10
4.7388
 20
-12.6201
 30
0.0
 10
4.7388
 20
-12.6201
 30
0.0
 10
4.7388
 20
-12.6201
 30
0.0
 10
4.7388
 20
-12.6201
 30
0.0
 10
4.7388
 20
-17.0298
 30
0.0
 10
4.7388
 20
-17.0298
 30
0.0
 10
4.7388
 20
-17.0298
 30
0.0
 10
4.7388
 20
-17.0298
 30
0.0
 10
11.0515
 20
-17.0298
 30
0.0
 10
11.0515
 20
-17.0298
 30
0.0
 10
11.0515
 20
-17.0298
 30
0.0
 10
11.0515
 20
-17.0298
 30
0.0
 10
10.9414
 20
-16.549
 30
0.0
 10
10.9414
 20
-16.549
 30
0.0
  0
SPLINE
  5
84
330
1F
100
AcDbEntity
  8
DEFAULT_1
 62
   250
100
AcDbSpline
210
0.0
220
0.0
230
1.0
 70
     8
 71
     3
 72
    20
 73
    16
 74
     0
 42
0.0000000001
 43
0.0000000001
 40
0.0
 40
0.0
 40
0.0
 40
0.0
 40
0.2
 40
0.2
 40
0.2
 40
0.2
 40
0.4
 40
0.4
 40
0.4
 40
0.4
 40
0.6
 40
0.6
 40
0.6
 40
0.6
 40
1.0
 40
1.0
 40
1.0
 40
1.0
 10
8.0401
 20
-12.6316
 30
0.0
 10
8.0401
 20
-12.6316
 30
0.0
 10
8.0481
 20
-14.2909
 30
0.0
 10
8.0481
 20
-14.2909
 30
0.0
 10
8.0481
 20
-14.2909
 30
0.0
 10
8.0481
 20
-14.7826
 30
0.0
 10
8.3474
 20
-15.2247
 30
0.0
 10
8.8039
 20
-15.4072
 30
0.0
 10
8.8039
 20
-15.4072
 30
0.0
 10
8.8039
 20
-15.4072
 30
0.0
 10
10.0833
 20
-15.9132
 30
0.0
 10
10.0833
 20
-15.9132
 30
0.0
 10
10.0833
 20
-15.9132
 30
0.0
 10
10.0833
 20
-15.9132
 30
0.0
 10
10.0833
 20
-16.1609
 30
0.0
 10
10.0833
 20
-16.1609
 30
0.0
  0
SPLINE
  5
85
330
1F
100
AcDbEntity
  8
DEFAULT_1
 62
   250
100
AcDbSpline
210
0.0
220
0.0
230
1.0
 70
     8
 71
     3
 72
    16
 73
    12
 74
     0
 42
0.0000000001
 43
0.0000000001
 40
0.0
 40
0.0
 40
0.0
 40
0.0
 40
0.25
 40
0.25
 40
0.25
 40
0.25
 40
0.5
 40
0.5
 40
0.5
 40
0.5
 40
1.0
 40
1.0
 40
1.0
 40
1.0
 10
4.7497
 20
-16.2093
 30
0.0
 10
4.7497
 20
-16.2093
 30
0.0
 10
11.3546
 20
-16.2071
 30
0.0
 10
11.3546
 20
-16.2071
 30
0.0
 10
11.3546
 20
-16.2071
 30
0.0
 10
11.3546
 20
-16.2071
 30
0.0
 10
11.3546
 20
-16.6079
 30
0.0
 10
11.3546
 20
-16.6079
 30
0.0
 10
11.3546
 20
-16.6079
 30
0.0
 10
11.3546
 20
-16.6079
 30
0.0
 10
4.707
 20
-16.594
 30
0.0
 10
4.707
 20
-16.594
 30
0.0
  0
SPLINE
  5
86
330
1F
100
AcDbEntity
  8
DEFAULT_1
 62
   250
100
AcDbSpline
210
0.0
220
0.0
230
1.0
 70
     8
 71
     3
 72
    20
 73
    16
 74
     0
 42
0.0000000001
 43
0.0000000001
 40
0.0
 40
0.0
 40
0.0
 40
0.0
 40
0.2
 40
0.2
 40
0.2
 40
0.2
 40
0.4
 40
0.4
 40
0.4
 40
0.4
 40
0.6
 40
0.6
 40
0.6
 40
0.6
 40
1.0
 40
1.0
 40
1.0
 40
1.0
 10
1.6382
 20
-12.631
 30
0.0
 10
1.6382
 20
-12.631
 30
0.0
 10
1.6355
 20
-14.2909
 30
0.0
 10
1.6355
 20
-14.2909
 30
0.0
 10
1.6355
 20
-14.2909
 30
0.0
 10
1.6355
 20
-14.7826
 30
0.0
 10
1.3362
 20
-15.2247
 30
0.0
 10
0.8797
 20
-15.4072
 30
0.0
 10
0.8797
 20
-15.4072
 30
0.0
 10
0.8797
 20
-15.4072
 30
0.0
 10
-0.3653
 20
-15.9117
 30
0.0
 10
-0.3653
 20
-15.9117
 30
0.0
 10
-0.3653
 20
-15.9117
 30
0.0
 10
-0.3653
 20
-15.9117
 30
0.0
 10
-0.3653
 20
-16.2055
 30
0.0
 10
-0.3653
 20
-16.2055
 30
0.0
  0
SPLINE
  5
87
330
1F
100
AcDbEntity
  8
DEFAULT_1
 62
   250
100
AcDbSpline
210
0.0
220
0.0
230
1.0
 70
     8
 71
     3
 72
    16
 73
    12
 74
     0
 42
0.0000000001
 43
0.0000000001
 40
0.0
 40
0.0
 40
0.0
 40
0.0
 40
0.25
 40
0.25
 40
0.25
 40
0.25
 40
0.5
 40
0.5
 40
0.5
 40
0.5
 40
1.0
 40
1.0
 40
1.0
 40
1.0
 10
2.8612
 20
-16.6079
 30
0.0
 10
2.8612
 20
-16.6079
 30
0.0
 10
-1.6709
 20
-16.6079
 30
0.0
 10
-1.6709
 20
-16.6079
 30
0.0
 10
-1.6709
 20
-16.6079
 30
0.0
 10
-1.6709
 20
-16.6079
 30
0.0
 10
-1.6763
 20
-16.2047
 30
0.0
 10
-1.6763
 20
-16.2047
 30
0.0
 10
-1.6763
 20
-16.2047
 30
0.0
 10
-1.6763
 20
-16.2047
 30
0.0
 10
2.8369
 20
-16.19
 30
0.0
 10
2.8369
 20
-16.19
 30
0.0
  0
SPLINE
  5
88
330
1F
100
AcDbEntity
  8
DEFAULT_1
 62
   250
100
AcDbSpline
210
0.0
220
0.0
230
1.0
 70
    24
 71
     3
 72
     8
 73
     4
 74
     0
 42
0.0000000001
 43
0.0000000001
 40
0.0
 40
0.0
 40
0.0
 40
0.0
 40
1.0
 40
1.0
 40
1.0
 40
1.0
 10
-7.9873
 20
-32.1978
 30
0.0
 10
-7.9873
 20
-32.1978
 30
0.0
 10
12.9766
 20
-32.1978
 30
0.0
 10
12.9766
 20
-32.1978
 30
0.0
  0
SPLINE
  5
89
330
1F
100
AcDbEntity
  8
DEFAULT_1
  6
NEW_LINE2
 62
   250
100
AcDbSpline
210
0.0
220
0.0
230
1.0
 70
    24
 71
     3
 72
     8
 73
     4
 74
     0
 42
0.0000000001
 43
0.0000000001
 40
0.0
 40
0.0
 40
0.0
 40
0.0
 40
1.0
 40
1.0
 40
1.0
 40
1.0
 10
1.3946
 20
-28.5571
 30
0.0
 10
1.3946
 20
-28.5571
 30
0.0
 10
1.3946
 20
-35.8458
 30
0.0
 10
1.3946
 20
-35.8458
 30
0.0
  0
SPLINE
  5
8B
330
1F
100
AcDbEntity
  8
DEFAULT_1
  6
NEW_LINE3
 62
   250
100
AcDbSpline
210
0.0
220
0.0
230
1.0
 70
    24
 71
     3
 72
     8
 73
     4
 74
     0
 42
0.0000000001
 43
0.0000000001
 40
0.0
 40
0.0
 40
0.0
 40
0.0
 40
1.0
 40
1.0
 40
1.0
 40
1.0
 10
8.3251
 20
-28.4481
 30
0.0
 10
8.3251
 20
-28.4481
 30
0.0
 10
8.3251
 20
-35.2778
 30
0.0
 10
8.3251
 20
-35.2778
 30
0.0
  0
SPLINE
  5
8D
330
1F
100
AcDbEntity
  8
DEFAULT_1
  6
NEW_LINE4
 62
   250
100
AcDbSpline
210
0.0
220
0.0
230
1.0
 70
    24
 71
     3
 72
     8
 73
     4
 74
     0
 42
0.0000000001
 43
0.0000000001
 40
0.0
 40
0.0
 40
0.0
 40
0.0
 40
1.0
 40
1.0
 40
1.0
 40
1.0
 10
1.334
 20
-35.8134
 30
0.0
 10
1.334
 20
-35.8134
 30
0.0
 10
4.1608
 20
-35.5661
 30
0.0
 10
4.1608
 20
-35.5661
 30
0.0
  0
SPLINE
  5
8F
330
1F
100
AcDbEntity
  8
DEFAULT_1
  6
NEW_LINE5
 62
   250
100
AcDbSpline
210
0.0
220
0.0
230
1.0
 70
     8
 71
     3
 72
    16
 73
    12
 74
     0
 42
0.0000000001
 43
0.0000000001
 40
0.0
 40
0.0
 40
0.0
 40
0.0
 40
0.25
 40
0.25
 40
0.25
 40
0.25
 40
0.5
 40
0.5
 40
0.5
 40
0.5
 40
1.0
 40
1.0
 40
1.0
 40
1.0
 10
4.1272
 20
-35.576
 30
0.0
 10
4.1272
 20
-35.576
 30
0.0
 10
4.5539
 20
-34.665
 30
0.0
 10
4.5539
 20
-34.665
 30
0.0
 10
4.5539
 20
-34.665
 30
0.0
 10
4.5539
 20
-34.665
 30
0.0
 10
5.5308
 20
-36.442
 30
0.0
 10
5.5308
 20
-36.442
 30
0.0
 10
5.5308
 20
-36.442
 30
0.0
 10
5.5308
 20
-36.442
 30
0.0
 10
5.9575
 20
-35.4186
 30
0.0
 10
5.9575
 20
-35.4186
 30
0.0
  0
SPLINE
  5
91
330
1F
100
AcDbEntity
  8
DEFAULT_1
  6
NEW_LINE6
 62
   250
100
AcDbSpline
210
0.0
220
0.0
230
1.0
 70
    24
 71
     3
 72
     8
 73
     4
 74
     0
 42
0.0000000001
 43
0.0000000001
 40
0.0
 40
0.0
 40
0.0
 40
0.0
 40
1.0
 40
1.0
 40
1.0
 40
1.0
 10
5.9463
 20
-35.4099
 30
0.0
 10
5.9463
 20
-35.4099
 30
0.0
 10
8.3747
 20
-35.1974
 30
0.0
 10
8.3747
 20
-35.1974
 30
0.0
  0
ENDSEC
  0
SECTION
  2
OBJECTS
  0
DICTIONARY
  5
C
330
0
100
AcDbDictionary
  3
ACAD_GROUP
350
D
  3
ACAD_LAYOUT
350
1A
  3
ACAD_MATERIAL
350
3B
  3
ACAD_MLEADERSTYLE
350
B5
  3
ACAD_MLINESTYLE
350
17
  3
ACAD_PLOTSETTINGS
350
19
  3
ACAD_VISUALSTYLE
350
2A
  3
ACDBHEADERROUNDTRIPXREC
350
93
  3
ACDBVARIABLEDICTIONARY
350
B3
  0
DICTIONARY
  5
D
102
{ACAD_REACTORS
330
C
102
}
330
C
100
AcDbDictionary
  0
DICTIONARY
  5
1A
102
{ACAD_REACTORS
330
C
102
}
330
C
100
AcDbDictionary
  0
DICTIONARY
  5
3B
102
{ACAD_REACTORS
330
C
102
}
330
C
100
AcDbDictionary
  3
BYBLOCK
350
3D
  3
BYLAYER
350
3C
  3
GLOBAL
350
3E
  0
DICTIONARY
  5
B5
102
{ACAD_REACTORS
330
C
102
}
330
C
100
AcDbDictionary
  0
DICTIONARY
  5
17
102
{ACAD_REACTORS
330
C
102
}
330
C
100
AcDbDictionary
  3
STANDARD
350
18
  0
DICTIONARY
  5
19
102
{ACAD_REACTORS
330
C
102
}
330
C
100
AcDbDictionary
  0
DICTIONARY
  5
2A
102
{ACAD_REACTORS
330
C
102
}
330
C
100
AcDbDictionary
  3
2DWIREFRAME
350
2F
  3
3D_HIDDEN
350
31
  3
3DWIREFRAME
350
30
  3
BASIC
350
32
  3
BRIGHTEN
350
36
  3
COLORCHANGE
350
3A
  3
CONCEPTUAL
350
34
  3
DIM
350
35
  3
FACEPATTERN
350
39
  3
FLAT
350
2B
  3
FLATWITHEDGES
350
2C
  3
GOURAUD
350
2D
  3
GOURAUDWITHEDGES
350
2E
  3
LINEPATTERN
350
38
  3
REALISTIC
350
33
  3
THICKEN
350
37
  0
DICTIONARY
  5
93
102
{ACAD_REACTORS
330
C
102
}
330
C
100
AcDbDictionary
  3
CEPSNTYPE
350
9C
  3
DIMSTYLEDATA
350
B2
  3
FINGERPRINTGUID
350
9D
  3
HYPERLINKBASE
350
96
  3
INSUNITS
350
9B
  3
LAYOUTDICT
350
98
  3
LWETCUNION
350
9A
  3
PLOTSETDICT
350
99
  3
PSVPSCALE
350
9F
  3
PUCSBASE
350
A2
  3
PUCSORGBACK
350
A8
  3
PUCSORGBOTTOM
350
A4
  3
PUCSORGFRONT
350
A7
  3
PUCSORGLEFT
350
A5
  3
PUCSORGRIGHT
350
A6
  3
PUCSORGTOP
350
A3
  3
PUCSORTHOREF
350
A0
  3
PUCSORTHOVIEW
350
A1
  3
STYLESHEET
350
97
  3
TSTACKALIGN
350
94
  3
TSTACKSIZE
350
95
  3
UCSBASE
350
AB
  3
UCSORGBACK
350
B1
  3
UCSORGBOTTOM
350
AD
  3
UCSORGFRONT
350
B0
  3
UCSORGLEFT
350
AE
  3
UCSORGRIGHT
350
AF
  3
UCSORGTOP
350
AC
  3
UCSORTHOREF
350
A9
  3
UCSORTHOVIEW
350
AA
  3
VERSIONGUID
350
9E
  0
DICTIONARY
  5
B3
102
{ACAD_REACTORS
330
C
102
}
330
C
100
AcDbDictionary
  3
DIMASSOC
350
B6
  3
HIDETEXT
350
B7
  0
MATERIAL
  5
3D
102
{ACAD_REACTORS
330
3B
102
}
102
{ACAD_XDICTIONARY
360
BA
102
}
330
3B
100
AcDbMaterial
  1
ByBlock
  0
MATERIAL
  5
3C
102
{ACAD_REACTORS
330
3B
102
}
102
{ACAD_XDICTIONARY
360
B8
102
}
330
3B
100
AcDbMaterial
  1
ByLayer
  0
MATERIAL
  5
3E
102
{ACAD_REACTORS
330
3B
102
}
102
{ACAD_XDICTIONARY
360
BC
102
}
330
3B
100
AcDbMaterial
  1
Global
  0
MLINESTYLE
  5
18
102
{ACAD_REACTORS
330
17
102
}
330
17
100
AcDbMlineStyle
  2
Standard
 70
     0
  3

 62
   256
 51
90.0
 52
90.0
 71
     2
 49
0.5
 62
   256
  6
BYLAYER
 49
-0.5
 62
   256
  6
BYLAYER
  0
ACAD_PROXY_OBJECT
  5
2F
102
{ACAD_REACTORS
330
2A
102
}
330
2A
100
AcDbProxyObject
 90
      499
 91
      501
 93
      436
310
42CC9915DA5C99599C985B595049028333333333333E3BF0000000000000FB0107901411070040501600405405064090741402480A0340
1001
ACAD
1000
AcDbSavedByObjectVersion
1070
     0
  0
ACAD_PROXY_OBJECT
  5
31
102
{ACAD_REACTORS
330
2A
102
}
330
2A
100
AcDbProxyObject
 90
      499
 91
      501
 93
      500
310
424CD108121A5919195B90640502408333333333333E3BF0000000000000FB01079024090700405020000000000001110200405405064090740C02480A0340
1001
ACAD
1000
AcDbSavedByObjectVersion
1070
     0
  0
ACAD_PROXY_OBJECT
  5
30
102
{ACAD_REACTORS
330
2A
102
}
330
2A
100
AcDbProxyObject
 90
      499
 91
      501
 93
      436
310
42CCD915DA5C99599C985B595059028333333333333E3BF0000000000000FB0107901411070040501600405405064090741402480A0340
1001
ACAD
1000
AcDbSavedByObjectVersion
1070
     0
  0
ACAD_PROXY_OBJECT
  5
32
102
{ACAD_REACTORS
330
2A
102
}
330
2A
100
AcDbProxyObject
 90
      499
 91
      501
 93
      388
310
4150985CDA58D07406404333333333333E3BF0000000000000FB0107A41107004050150841D405064090741402480A0350
1001
ACAD
1000
AcDbSavedByObjectVersion
1070
     0
  0
ACAD_PROXY_OBJECT
  5
36
102
{ACAD_REACTORS
330
2A
102
}
330
2A
100
AcDbProxyObject
 90
      499
 91
      501
 93
      428
310
42109C9A59DA1D195B90C409028333333333333E3BF0000000000000FB010790141107004050150841D405064090741402480A029950
1001
ACAD
1000
AcDbSavedByObjectVersion
1070
     0
  0
ACAD_PROXY_OBJECT
  5
3A
102
{ACAD_REACTORS
330
2A
102
}
330
2A
100
AcDbProxyObject
 90
      499
 91
      501
 93
      452
310
42D0DBDB1BDC90DA185B99D95104090240C333333333333E3BF0000000000000FB0108901411070040501508421405064090741402480A0350
1001
ACAD
1000
AcDbSavedByObjectVersion
1070
     0
  0
ACAD_PROXY_OBJECT
  5
34
102
{ACAD_REACTORS
330
2A
102
}
330
2A
100
AcDbProxyObject
 90
      499
 91
      501
 93
      500
310
4290DBDB98D95C1D1D585B10940D028333333333333E3BF0000000000000FB0107902409070040501000000000000111010841D405064090740C02480A0340
1001
ACAD
1000
AcDbSavedByObjectVersion
1070
     0
  0
ACAD_PROXY_OBJECT
  5
35
102
{ACAD_REACTORS
330
2A
102
}
330
2A
100
AcDbProxyObject
 90
      499
 91
      501
 93
      412
310
40D11A5B50B409028333333333333E3BF0000000000000FB010790141107004050150841D405064090741402480A02677FFFFFD0
1001
ACAD
1000
AcDbSavedByObjectVersion
1070
     0
  0
ACAD_PROXY_OBJECT
  5
39
102
{ACAD_REACTORS
330
2A
102
}
330
2A
100
AcDbProxyObject
 90
      499
 91
      501
 93
      444
310
42D19858D95C185D1D195C9B90F409028333333333333E3BF0000000000000FB010790141107004050150841D405064090741402480A0350
1001
ACAD
1000
AcDbSavedByObjectVersion
1070
     0
  0
ACAD_PROXY_OBJECT
  5
2B
102
{ACAD_REACTORS
330
2A
102
}
330
2A
100
AcDbProxyObject
 90
      499
 91
      501
 93
      388
310
41119B185D240901404333333333333E3BF0000000000000F9010740A41107004050150841D405064090741402480A1B50
1001
ACAD
1000
AcDbSavedByObjectVersion
1070
     0
  0
ACAD_PROXY_OBJECT
  5
2C
102
{ACAD_REACTORS
330
2A
102
}
330
2A
100
AcDbProxyObject
 90
      499
 91
      501
 93
      476
310
43519B185D15DA5D1A115919D95CD0140901404333333333333E3BF0000000000000F9010740901411070040501600405405064090741402480A1B50
1001
ACAD
1000
AcDbSavedByObjectVersion
1070
     0
  0
ACAD_PROXY_OBJECT
  5
2D
102
{ACAD_REACTORS
330
2A
102
}
330
2A
100
AcDbProxyObject
 90
      499
 91
      501
 93
      412
310
41D1DBDD5C985D5910240902404333333333333E3BF0000000000000F9010740A411070040501641D405064090741402480A1B50
1001
ACAD
1000
AcDbSavedByObjectVersion
1070
     0
  0
ACAD_PROXY_OBJECT
  5
2E
102
{ACAD_REACTORS
330
2A
102
}
330
2A
100
AcDbProxyObject
 90
      499
 91
      501
 93
      500
310
4411DBDD5C985D5915DA5D1A115919D95CD0340902404333333333333E3BF0000000000000F9010740901411070040501600405405064090741402480A1B50
1001
ACAD
1000
AcDbSavedByObjectVersion
1070
     0
  0
ACAD_PROXY_OBJECT
  5
38
102
{ACAD_REACTORS
330
2A
102
}
330
2A
100
AcDbProxyObject
 90
      499
 91
      501
 93
      444
310
42D31A5B995C185D1D195C9B90E409028333333333333E3BF0000000000000FB010790141107004050750841D405064090741402483A0350
1001
ACAD
1000
AcDbSavedByObjectVersion
1070
     0
  0
ACAD_PROXY_OBJECT
  5
33
102
{ACAD_REACTORS
330
2A
102
}
330
2A
100
AcDbProxyObject
 90
      499
 91
      501
 93
      420
310
425499585B1A5CDD1A58D08409028333333333333E3BF0000000000000FB01079019070040501508421405064090741402480A1B40
1001
ACAD
1000
AcDbSavedByObjectVersion
1070
     0
  0
ACAD_PROXY_OBJECT
  5
37
102
{ACAD_REACTORS
330
2A
102
}
330
2A
100
AcDbProxyObject
 90
      499
 91
      501
 93
      412
310
41D51A1A58DAD95B90D409028333333333333E3BF0000000000000FB010790141107004050150C41D405064090741402480A0350
1001
ACAD
1000
AcDbSavedByObjectVersion
1070
     0
  0
XRECORD
  5
9C
102
{ACAD_REACTORS
330
93
102
}
330
93
100
AcDbXrecord
 90
        0
  0
XRECORD
  5
B2
102
{ACAD_REACTORS
330
93
102
}
330
93
100
AcDbXrecord
1000
DSTYLE
1002
{
1070
   340
340
11
1002
}
  0
XRECORD
  5
9D
102
{ACAD_REACTORS
330
93
102
}
330
93
100
AcDbXrecord
  1
{0FD26D5E-54CD-43CE-A0A6-260D12FBA903}
  0
XRECORD
  5
96
102
{ACAD_REACTORS
330
93
102
}
330
93
100
AcDbXrecord
  1

  0
XRECORD
  5
9B
102
{ACAD_REACTORS
330
93
102
}
330
93
100
AcDbXrecord
 90
        4
  0
XRECORD
  5
98
102
{ACAD_REACTORS
330
93
102
}
330
93
100
AcDbXrecord
340
1A
  0
XRECORD
  5
9A
102
{ACAD_REACTORS
330
93
102
}
330
93
100
AcDbXrecord
 90
    10781
  0
XRECORD
  5
99
102
{ACAD_REACTORS
330
93
102
}
330
93
100
AcDbXrecord
340
19
  0
XRECORD
  5
9F
102
{ACAD_REACTORS
330
93
102
}
330
93
100
AcDbXrecord
 40
0.0
  0
XRECORD
  5
A2
102
{ACAD_REACTORS
330
93
102
}
330
93
100
AcDbXrecord
340
0
  0
XRECORD
  5
A8
102
{ACAD_REACTORS
330
93
102
}
330
93
100
AcDbXrecord
 10
0.0
 20
0.0
 30
0.0
  0
XRECORD
  5
A4
102
{ACAD_REACTORS
330
93
102
}
330
93
100
AcDbXrecord
 10
0.0
 20
0.0
 30
0.0
  0
XRECORD
  5
A7
102
{ACAD_REACTORS
330
93
102
}
330
93
100
AcDbXrecord
 10
0.0
 20
0.0
 30
0.0
  0
XRECORD
  5
A5
102
{ACAD_REACTORS
330
93
102
}
330
93
100
AcDbXrecord
 10
0.0
 20
0.0
 30
0.0
  0
XRECORD
  5
A6
102
{ACAD_REACTORS
330
93
102
}
330
93
100
AcDbXrecord
 10
0.0
 20
0.0
 30
0.0
  0
XRECORD
  5
A3
102
{ACAD_REACTORS
330
93
102
}
330
93
100
AcDbXrecord
 10
0.0
 20
0.0
 30
0.0
  0
XRECORD
  5
A0
102
{ACAD_REACTORS
330
93
102
}
330
93
100
AcDbXrecord
340
0
  0
XRECORD
  5
A1
102
{ACAD_REACTORS
330
93
102
}
330
93
100
AcDbXrecord
 70
     0
  0
XRECORD
  5
97
102
{ACAD_REACTORS
330
93
102
}
330
93
100
AcDbXrecord
  1

  0
XRECORD
  5
94
102
{ACAD_REACTORS
330
93
102
}
330
93
100
AcDbXrecord
 90
        1
  0
XRECORD
  5
95
102
{ACAD_REACTORS
330
93
102
}
330
93
100
AcDbXrecord
 90
       70
  0
XRECORD
  5
AB
102
{ACAD_REACTORS
330
93
102
}
330
93
100
AcDbXrecord
340
0
  0
XRECORD
  5
B1
102
{ACAD_REACTORS
330
93
102
}
330
93
100
AcDbXrecord
 10
0.0
 20
0.0
 30
0.0
  0
XRECORD
  5
AD
102
{ACAD_REACTORS
330
93
102
}
330
93
100
AcDbXrecord
 10
0.0
 20
0.0
 30
0.0
  0
XRECORD
  5
B0
102
{ACAD_REACTORS
330
93
102
}
330
93
100
AcDbXrecord
 10
0.0
 20
0.0
 30
0.0
  0
XRECORD
  5
AE
102
{ACAD_REACTORS
330
93
102
}
330
93
100
AcDbXrecord
 10
0.0
 20
0.0
 30
0.0
  0
XRECORD
  5
AF
102
{ACAD_REACTORS
330
93
102
}
330
93
100
AcDbXrecord
 10
0.0
 20
0.0
 30
0.0
  0
XRECORD
  5
AC
102
{ACAD_REACTORS
330
93
102
}
330
93
100
AcDbXrecord
 10
0.0
 20
0.0
 30
0.0
  0
XRECORD
  5
A9
102
{ACAD_REACTORS
330
93
102
}
330
93
100
AcDbXrecord
340
0
  0
XRECORD
  5
AA
102
{ACAD_REACTORS
330
93
102
}
330
93
100
AcDbXrecord
 70
     0
  0
XRECORD
  5
9E
102
{ACAD_REACTORS
330
93
102
}
330
93
100
AcDbXrecord
  1
{FAEB1C32-E019-11D5-929B-00C0DF256EC4}
  0
DICTIONARYVAR
  5
B6
102
{ACAD_REACTORS
330
B3
102
}
330
B3
100
DictionaryVariables
280
     0
  1
2
  0
DICTIONARYVAR
  5
B7
102
{ACAD_REACTORS
330
B3
102
}
330
B3
100
DictionaryVariables
280
     0
  1
1
  0
DICTIONARY
  5
BA
330
3D
100
AcDbDictionary
280
     1
  3
ACAD_XREC_ROUNDTRIP
360
BB
  0
DICTIONARY
  5
B8
330
3C
100
AcDbDictionary
280
     1
  3
ACAD_XREC_ROUNDTRIP
360
B9
  0
DICTIONARY
  5
BC
330
3E
100
AcDbDictionary
280
     1
  3
ACAD_XREC_ROUNDTRIP
360
BD
  0
XRECORD
  5
BB
102
{ACAD_REACTORS
330
BA
102
}
330
BA
100
AcDbXrecord
102
MATERIAL
148
0.0
149
0.0
149
0.0
 93
        0
 94
      127
282
     0
 72
     1
 77
     1
171
     1
175
     1
179
     1
273
     0
  0
XRECORD
  5
B9
102
{ACAD_REACTORS
330
B8
102
}
330
B8
100
AcDbXrecord
102
MATERIAL
148
0.0
149
0.0
149
0.0
 93
        0
 94
      127
282
     0
 72
     1
 77
     1
171
     1
175
     1
179
     1
273
     0
  0
XRECORD
  5
BD
102
{ACAD_REACTORS
330
BC
102
}
330
BC
100
AcDbXrecord
102
MATERIAL
148
0.0
149
0.0
149
0.0
 93
        0
 94
      127
282
     0
 72
     1
 77
     1
171
     1
175
     1
179
     1
273
     0
  0
ENDSEC
  0
EOF
