  0
SECTION
  2
HEADER
  9
$ACADVER
  1
AC1014
  9
$ACADMAINTVER
 70
     9
  9
$DWGCODEPAGE
  3
ANSI_1250
  9
$INSBASE
 10
0.0
 20
0.0
 30
0.0
  9
$EXTMIN
 10
-16.7926
 20
-34.9579
 30
0.0
  9
$EXTMAX
 10
16.7926
 20
34.9579
 30
0.0
  9
$LIMMIN
 10
0.0
 20
0.0
  9
$LIMMAX
 10
12.0
 20
9.0
  9
$ORTHOMODE
 70
     0
  9
$REGENMODE
 70
     1
  9
$FILLMODE
 70
     1
  9
$QTEXTMODE
 70
     0
  9
$MIRRTEXT
 70
     1
  9
$DRAGMODE
 70
     2
  9
$LTSCALE
 40
1.0
  9
$OSMODE
 70
    37
  9
$ATTMODE
 70
     1
  9
$TEXTSIZE
 40
0.2
  9
$TRACEWID
 40
0.05
  9
$TEXTSTYLE
  7
STANDARD
  9
$CLAYER
  8
0
  9
$CELTYPE
  6
BYLAYER
  9
$CECOLOR
 62
   256
  9
$CELTSCALE
 40
1.0
  9
$DELOBJ
 70
     1
  9
$DISPSILH
 70
     0
  9
$DIMSCALE
 40
1.0
  9
$DIMASZ
 40
0.18
  9
$DIMEXO
 40
0.0625
  9
$DIMDLI
 40
0.38
  9
$DIMRND
 40
0.0
  9
$DIMDLE
 40
0.0
  9
$DIMEXE
 40
0.18
  9
$DIMTP
 40
0.0
  9
$DIMTM
 40
0.0
  9
$DIMTXT
 40
0.18
  9
$DIMCEN
 40
0.09
  9
$DIMTSZ
 40
0.0
  9
$DIMTOL
 70
     0
  9
$DIMLIM
 70
     0
  9
$DIMTIH
 70
     1
  9
$DIMTOH
 70
     1
  9
$DIMSE1
 70
     0
  9
$DIMSE2
 70
     0
  9
$DIMTAD
 70
     0
  9
$DIMZIN
 70
     0
  9
$DIMBLK
  1

  9
$DIMASO
 70
     1
  9
$DIMSHO
 70
     1
  9
$DIMPOST
  1

  9
$DIMAPOST
  1

  9
$DIMALT
 70
     0
  9
$DIMALTD
 70
     2
  9
$DIMALTF
 40
25.4
  9
$DIMLFAC
 40
1.0
  9
$DIMTOFL
 70
     0
  9
$DIMTVP
 40
0.0
  9
$DIMTIX
 70
     0
  9
$DIMSOXD
 70
     0
  9
$DIMSAH
 70
     0
  9
$DIMBLK1
  1

  9
$DIMBLK2
  1

  9
$DIMSTYLE
  2
STANDARD
  9
$DIMCLRD
 70
     0
  9
$DIMCLRE
 70
     0
  9
$DIMCLRT
 70
     0
  9
$DIMTFAC
 40
1.0
  9
$DIMGAP
 40
0.09
  9
$DIMJUST
 70
     0
  9
$DIMSD1
 70
     0
  9
$DIMSD2
 70
     0
  9
$DIMTOLJ
 70
     1
  9
$DIMTZIN
 70
     0
  9
$DIMALTZ
 70
     0
  9
$DIMALTTZ
 70
     0
  9
$DIMFIT
 70
     3
  9
$DIMUPT
 70
     0
  9
$DIMUNIT
 70
     2
  9
$DIMDEC
 70
     4
  9
$DIMTDEC
 70
     4
  9
$DIMALTU
 70
     2
  9
$DIMALTTD
 70
     2
  9
$DIMTXSTY
  7
STANDARD
  9
$DIMAUNIT
 70
     0
  9
$LUNITS
 70
     2
  9
$LUPREC
 70
     4
  9
$SKETCHINC
 40
0.1
  9
$FILLETRAD
 40
0.5
  9
$AUNITS
 70
     0
  9
$AUPREC
 70
     0
  9
$MENU
  1
.
  9
$ELEVATION
 40
0.0
  9
$PELEVATION
 40
0.0
  9
$THICKNESS
 40
0.0
  9
$LIMCHECK
 70
     0
  9
$CHAMFERA
 40
0.5
  9
$CHAMFERB
 40
0.5
  9
$CHAMFERC
 40
1.0
  9
$CHAMFERD
 40
0.0
  9
$SKPOLY
 70
     0
  9
$TDCREATE
 40
2456223.340943924
  9
$TDUPDATE
 40
2456223.340943935
  9
$TDINDWG
 40
0.0000000116
  9
$TDUSRTIMER
 40
0.0000000116
  9
$USRTIMER
 70
     1
  9
$ANGBASE
 50
0.0
  9
$ANGDIR
 70
     0
  9
$PDMODE
 70
     0
  9
$PDSIZE
 40
0.0
  9
$PLINEWID
 40
0.0
  9
$COORDS
 70
     1
  9
$SPLFRAME
 70
     0
  9
$SPLINETYPE
 70
     6
  9
$SPLINESEGS
 70
     8
  9
$ATTDIA
 70
     0
  9
$ATTREQ
 70
     1
  9
$HANDLING
 70
     1
  9
$HANDSEED
  5
BF
  9
$SURFTAB1
 70
     6
  9
$SURFTAB2
 70
     6
  9
$SURFTYPE
 70
     6
  9
$SURFU
 70
     6
  9
$SURFV
 70
     6
  9
$UCSNAME
  2

  9
$UCSORG
 10
0.0
 20
0.0
 30
0.0
  9
$UCSXDIR
 10
1.0
 20
0.0
 30
0.0
  9
$UCSYDIR
 10
0.0
 20
1.0
 30
0.0
  9
$PUCSNAME
  2

  9
$PUCSORG
 10
0.0
 20
0.0
 30
0.0
  9
$PUCSXDIR
 10
1.0
 20
0.0
 30
0.0
  9
$PUCSYDIR
 10
0.0
 20
1.0
 30
0.0
  9
$USERI1
 70
     0
  9
$USERI2
 70
     0
  9
$USERI3
 70
     0
  9
$USERI4
 70
     0
  9
$USERI5
 70
     0
  9
$USERR1
 40
0.0
  9
$USERR2
 40
0.0
  9
$USERR3
 40
0.0
  9
$USERR4
 40
0.0
  9
$USERR5
 40
0.0
  9
$WORLDVIEW
 70
     1
  9
$SHADEDGE
 70
     3
  9
$SHADEDIF
 70
    70
  9
$TILEMODE
 70
     1
  9
$MAXACTVP
 70
    64
  9
$PINSBASE
 10
0.0
 20
0.0
 30
0.0
  9
$PLIMCHECK
 70
     0
  9
$PEXTMIN
 10
1.000000000000000E+20
 20
1.000000000000000E+20
 30
1.000000000000000E+20
  9
$PEXTMAX
 10
-1.000000000000000E+20
 20
-1.000000000000000E+20
 30
-1.000000000000000E+20
  9
$PLIMMIN
 10
0.0
 20
0.0
  9
$PLIMMAX
 10
12.0
 20
9.0
  9
$UNITMODE
 70
     0
  9
$VISRETAIN
 70
     1
  9
$PLINEGEN
 70
     0
  9
$PSLTSCALE
 70
     1
  9
$TREEDEPTH
 70
  3020
  9
$PICKSTYLE
 70
     1
  9
$CMLSTYLE
  2
STANDARD
  9
$CMLJUST
 70
     0
  9
$CMLSCALE
 40
1.0
  9
$PROXYGRAPHICS
 70
     1
  9
$MEASUREMENT
 70
     0
  0
ENDSEC
  0
SECTION
  2
CLASSES
  0
CLASS
  1
ACDBDICTIONARYWDFLT
  2
AcDbDictionaryWithDefault
  3
ObjectDBX Classes
 90
        0
280
     0
281
     0
  0
CLASS
  1
VISUALSTYLE
  2
AcDbVisualStyle
  3
ObjectDBX Classes
 90
     4095
280
     0
281
     0
  0
CLASS
  1
MATERIAL
  2
AcDbMaterial
  3
ObjectDBX Classes
 90
     1153
280
     0
281
     0
  0
CLASS
  1
DICTIONARYVAR
  2
AcDbDictionaryVar
  3
ObjectDBX Classes
 90
        0
280
     0
281
     0
  0
CLASS
  1
XRECORD
  2
AcDbXrecord
  3
AutoCAD 2000
 90
        0
280
     0
281
     0
  0
CLASS
  1
LWPOLYLINE
  2
AcDbPolyline
  3
AutoCAD 2000
 90
        0
280
     0
281
     1
  0
CLASS
  1
HATCH
  2
AcDbHatch
  3
AutoCAD 2000
 90
        0
280
     0
281
     1
  0
CLASS
  1
ACDBPLACEHOLDER
  2
AcDbPlaceHolder
  3
ObjectDBX Classes
 90
        0
280
     0
281
     0
  0
CLASS
  1
LAYOUT
  2
AcDbLayout
  3
ObjectDBX Classes
 90
        0
280
     0
281
     0
  0
ENDSEC
  0
SECTION
  2
TABLES
  0
TABLE
  2
VPORT
  5
8
330
0
100
AcDbSymbolTable
 70
     1
  0
VPORT
  5
29
330
8
100
AcDbSymbolTableRecord
100
AcDbViewportTableRecord
  2
*ACTIVE
 70
     0
 10
0.0
 20
0.0
 11
1.0
 21
1.0
 12
10.42990654205607
 22
4.5
 13
0.0
 23
0.0
 14
0.5
 24
0.5
 15
0.5
 25
0.5
 16
0.0
 26
0.0
 36
1.0
 17
0.0
 27
0.0
 37
0.0
 40
9.0
 41
1.972972972850329
 42
50.0
 43
0.0
 44
0.0
 50
0.0
 51
0.0
 71
     0
 72
   100
 73
     1
 74
     3
 75
     0
 76
     0
 77
     0
 78
     0
  0
ENDTAB
  0
TABLE
  2
LTYPE
  5
5
330
0
100
AcDbSymbolTable
 70
     7
  0
LTYPE
  5
14
330
5
100
AcDbSymbolTableRecord
100
AcDbLinetypeTableRecord
  2
BYBLOCK
 70
     0
  3

 72
    65
 73
     0
 40
0.0
  0
LTYPE
  5
15
330
5
100
AcDbSymbolTableRecord
100
AcDbLinetypeTableRecord
  2
BYLAYER
 70
     0
  3

 72
    65
 73
     0
 40
0.0
  0
LTYPE
  5
16
330
5
100
AcDbSymbolTableRecord
100
AcDbLinetypeTableRecord
  2
CONTINUOUS
 70
     0
  3
Solid line
 72
    65
 73
     0
 40
0.0
  0
LTYPE
  5
42
330
5
100
AcDbSymbolTableRecord
100
AcDbLinetypeTableRecord
  2
NEW_LINE1
 70
     0
  3

 72
    65
 73
     2
 40
0.8
 49
0.5
 74
     4
 75
     0
340
0
 46
1.0
 50
0.0
 44
0.0
 45
0.0
 49
-0.3
 74
     4
 75
     0
340
0
 46
1.0
 50
0.0
 44
0.0
 45
0.0
  0
LTYPE
  5
44
330
5
100
AcDbSymbolTableRecord
100
AcDbLinetypeTableRecord
  2
NEW_LINE2
 70
     0
  3

 72
    65
 73
     2
 40
0.8
 49
0.5
 74
     4
 75
     0
340
0
 46
1.0
 50
0.0
 44
0.0
 45
0.0
 49
-0.3
 74
     4
 75
     0
340
0
 46
1.0
 50
0.0
 44
0.0
 45
0.0
  0
LTYPE
  5
5C
330
5
100
AcDbSymbolTableRecord
100
AcDbLinetypeTableRecord
  2
NEW_LINE3
 70
     0
  3

 72
    65
 73
     4
 40
1.2
 49
0.5
 74
     4
 75
     0
340
0
 46
1.0
 50
0.0
 44
0.0
 45
0.0
 49
-0.3
 74
     4
 75
     0
340
0
 46
1.0
 50
0.0
 44
0.0
 45
0.0
 49
0.1
 74
     4
 75
     0
340
0
 46
1.0
 50
0.0
 44
0.0
 45
0.0
 49
-0.3
 74
     4
 75
     0
340
0
 46
1.0
 50
0.0
 44
0.0
 45
0.0
  0
LTYPE
  5
8F
330
5
100
AcDbSymbolTableRecord
100
AcDbLinetypeTableRecord
  2
NEW_LINE4
 70
     0
  3

 72
    65
 73
     2
 40
0.8
 49
0.5
 74
     4
 75
     0
340
0
 46
1.0
 50
0.0
 44
0.0
 45
0.0
 49
-0.3
 74
     4
 75
     0
340
0
 46
1.0
 50
0.0
 44
0.0
 45
0.0
  0
LTYPE
  5
91
330
5
100
AcDbSymbolTableRecord
100
AcDbLinetypeTableRecord
  2
NEW_LINE5
 70
     0
  3

 72
    65
 73
     2
 40
0.8
 49
0.5
 74
     4
 75
     0
340
0
 46
1.0
 50
0.0
 44
0.0
 45
0.0
 49
-0.3
 74
     4
 75
     0
340
0
 46
1.0
 50
0.0
 44
0.0
 45
0.0
  0
LTYPE
  5
93
330
5
100
AcDbSymbolTableRecord
100
AcDbLinetypeTableRecord
  2
NEW_LINE6
 70
     0
  3

 72
    65
 73
     2
 40
0.8
 49
0.5
 74
     4
 75
     0
340
0
 46
1.0
 50
0.0
 44
0.0
 45
0.0
 49
-0.3
 74
     4
 75
     0
340
0
 46
1.0
 50
0.0
 44
0.0
 45
0.0
  0
ENDTAB
  0
TABLE
  2
LAYER
  5
2
330
0
100
AcDbSymbolTable
 70
     2
  0
LAYER
  5
10
330
2
100
AcDbSymbolTableRecord
100
AcDbLayerTableRecord
  2
0
 70
     0
 62
     7
  6
CONTINUOUS
  0
LAYER
  5
40
330
2
100
AcDbSymbolTableRecord
100
AcDbLayerTableRecord
  2
VRSTVA_1
 70
     0
 62
     7
  6
CONTINUOUS
  0
ENDTAB
  0
TABLE
  2
STYLE
  5
3
330
0
100
AcDbSymbolTable
 70
     1
  0
STYLE
  5
11
330
3
100
AcDbSymbolTableRecord
100
AcDbTextStyleTableRecord
  2
STANDARD
 70
     0
 40
0.0
 41
1.0
 50
0.0
 71
     0
 42
0.2
  3
txt
  4

  0
ENDTAB
  0
TABLE
  2
VIEW
  5
6
330
0
100
AcDbSymbolTable
 70
     0
  0
ENDTAB
  0
TABLE
  2
UCS
  5
7
330
0
100
AcDbSymbolTable
 70
     0
  0
ENDTAB
  0
TABLE
  2
APPID
  5
9
330
0
100
AcDbSymbolTable
 70
     2
  0
APPID
  5
12
330
9
100
AcDbSymbolTableRecord
100
AcDbRegAppTableRecord
  2
ACAD
 70
     0
  0
APPID
  5
3F
330
9
100
AcDbSymbolTableRecord
100
AcDbRegAppTableRecord
  2
ODA
 70
     0
  0
ENDTAB
  0
TABLE
  2
DIMSTYLE
  5
A
330
0
100
AcDbSymbolTable
 70
     1
  0
DIMSTYLE
105
27
330
A
100
AcDbSymbolTableRecord
100
AcDbDimStyleTableRecord
  2
STANDARD
 70
     0
  3

  4

  5

  6

  7

 40
1.0
 41
0.18
 42
0.0625
 43
0.38
 44
0.18
 45
0.0
 46
0.0
 47
0.0
 48
0.0
140
0.18
141
0.09
142
0.0
143
25.4
144
1.0
145
0.0
146
1.0
147
0.09
 71
     0
 72
     0
 73
     1
 74
     1
 75
     0
 76
     0
 77
     0
 78
     0
170
     0
171
     2
172
     0
173
     0
174
     0
175
     0
176
     0
177
     0
178
     0
270
     2
271
     4
272
     4
273
     2
274
     2
340
11
275
     0
280
     0
281
     0
282
     0
283
     1
284
     0
285
     0
286
     0
287
     3
288
     0
  0
ENDTAB
  0
TABLE
  2
BLOCK_RECORD
  5
1
330
0
100
AcDbSymbolTable
 70
     1
  0
BLOCK_RECORD
  5
1F
330
1
100
AcDbSymbolTableRecord
100
AcDbBlockTableRecord
  2
*MODEL_SPACE
  0
BLOCK_RECORD
  5
1B
330
1
100
AcDbSymbolTableRecord
100
AcDbBlockTableRecord
  2
*PAPER_SPACE
  0
ENDTAB
  0
ENDSEC
  0
SECTION
  2
BLOCKS
  0
BLOCK
  5
20
330
1F
100
AcDbEntity
  8
0
100
AcDbBlockBegin
  2
*MODEL_SPACE
 70
     0
 10
0.0
 20
0.0
 30
0.0
  3
*MODEL_SPACE
  1

  0
ENDBLK
  5
21
330
1F
100
AcDbEntity
  8
0
100
AcDbBlockEnd
  0
BLOCK
  5
1C
330
1B
100
AcDbEntity
 67
     1
  8
0
100
AcDbBlockBegin
  2
*PAPER_SPACE
 70
     0
 10
0.0
 20
0.0
 30
0.0
  3
*PAPER_SPACE
  1

  0
ENDBLK
  5
1D
330
1B
100
AcDbEntity
 67
     1
  8
0
100
AcDbBlockEnd
  0
ENDSEC
  0
SECTION
  2
ENTITIES
  0
SPLINE
  5
41
330
1F
100
AcDbEntity
  8
VRSTVA_1
  6
NEW_LINE1
 62
   250
100
AcDbSpline
210
0.0
220
0.0
230
1.0
 70
    24
 71
     3
 72
     8
 73
     4
 74
     0
 42
0.0000000001
 43
0.0000000001
 40
0.0
 40
0.0
 40
0.0
 40
0.0
 40
1.0
 40
1.0
 40
1.0
 40
1.0
 10
0.5401
 20
-27.073
 30
0.0
 10
0.5401
 20
-27.073
 30
0.0
 10
0.5401
 20
-34.3617
 30
0.0
 10
0.5401
 20
-34.3617
 30
0.0
  0
SPLINE
  5
43
330
1F
100
AcDbEntity
  8
VRSTVA_1
  6
NEW_LINE2
 62
   250
100
AcDbSpline
210
0.0
220
0.0
230
1.0
 70
    24
 71
     3
 72
     8
 73
     4
 74
     0
 42
0.0000000001
 43
0.0000000001
 40
0.0
 40
0.0
 40
0.0
 40
0.0
 40
1.0
 40
1.0
 40
1.0
 40
1.0
 10
8.6784
 20
-27.0328
 30
0.0
 10
8.6784
 20
-27.0328
 30
0.0
 10
8.6784
 20
-33.7208
 30
0.0
 10
8.6784
 20
-33.7208
 30
0.0
  0
SPLINE
  5
45
330
1F
100
AcDbEntity
  8
VRSTVA_1
 62
   250
100
AcDbSpline
210
0.0
220
0.0
230
1.0
 70
    24
 71
     3
 72
     8
 73
     4
 74
     0
 42
0.0000000001
 43
0.0000000001
 40
0.0
 40
0.0
 40
0.0
 40
0.0
 40
1.0
 40
1.0
 40
1.0
 40
1.0
 10
12.751
 20
-31.2544
 30
0.0
 10
12.751
 20
-31.2544
 30
0.0
 10
-10.0792
 20
-31.2544
 30
0.0
 10
-10.0792
 20
-31.2544
 30
0.0
  0
SPLINE
  5
46
330
1F
100
AcDbEntity
  8
VRSTVA_1
 62
   250
100
AcDbSpline
210
0.0
220
0.0
230
1.0
 70
    11
 71
     3
 72
    16
 73
    12
 74
     0
 42
0.0000000001
 43
0.0000000001
 40
0.0
 40
0.0
 40
0.0
 40
0.0
 40
0.25
 40
0.25
 40
0.25
 40
0.25
 40
0.5
 40
0.5
 40
0.5
 40
0.5
 40
1.0
 40
1.0
 40
1.0
 40
1.0
 10
0.5621
 20
-31.2233
 30
0.0
 10
0.5621
 20
-31.2233
 30
0.0
 10
-2.4379
 20
-30.6924
 30
0.0
 10
-2.4379
 20
-30.6924
 30
0.0
 10
-2.4379
 20
-30.6924
 30
0.0
 10
-2.4379
 20
-30.6924
 30
0.0
 10
-2.4379
 20
-31.7543
 30
0.0
 10
-2.4379
 20
-31.7543
 30
0.0
 10
-2.4379
 20
-31.7543
 30
0.0
 10
-2.4379
 20
-31.7543
 30
0.0
 10
0.5621
 20
-31.2233
 30
0.0
 10
0.5621
 20
-31.2233
 30
0.0
  0
SPLINE
  5
47
330
1F
100
AcDbEntity
  8
VRSTVA_1
 62
   250
100
AcDbSpline
210
0.0
220
0.0
230
1.0
 70
    11
 71
     3
 72
    16
 73
    12
 74
     0
 42
0.0000000001
 43
0.0000000001
 40
0.0
 40
0.0
 40
0.0
 40
0.0
 40
0.25
 40
0.25
 40
0.25
 40
0.25
 40
0.5
 40
0.5
 40
0.5
 40
0.5
 40
1.0
 40
1.0
 40
1.0
 40
1.0
 10
8.6869
 20
-31.2379
 30
0.0
 10
8.6869
 20
-31.2379
 30
0.0
 10
11.5601
 20
-31.7464
 30
0.0
 10
11.5601
 20
-31.7464
 30
0.0
 10
11.5601
 20
-31.7464
 30
0.0
 10
11.5601
 20
-31.7464
 30
0.0
 10
11.5601
 20
-30.7294
 30
0.0
 10
11.5601
 20
-30.7294
 30
0.0
 10
11.5601
 20
-30.7294
 30
0.0
 10
11.5601
 20
-30.7294
 30
0.0
 10
8.6869
 20
-31.2379
 30
0.0
 10
8.6869
 20
-31.2379
 30
0.0
  0
SPLINE
  5
48
330
1F
100
AcDbEntity
  8
VRSTVA_1
 62
   250
100
AcDbSpline
210
0.0
220
0.0
230
1.0
 70
     8
 71
     3
 72
    40
 73
    36
 74
     0
 42
0.0000000001
 43
0.0000000001
 40
0.0
 40
0.0
 40
0.0
 40
0.0
 40
0.1
 40
0.1
 40
0.1
 40
0.1
 40
0.2
 40
0.2
 40
0.2
 40
0.2
 40
0.3
 40
0.3
 40
0.3
 40
0.3
 40
0.4
 40
0.4
 40
0.4
 40
0.4
 40
0.5
 40
0.5
 40
0.5
 40
0.5
 40
0.6
 40
0.6
 40
0.6
 40
0.6
 40
0.7
 40
0.7
 40
0.7
 40
0.7
 40
0.8
 40
0.8
 40
0.8
 40
0.8
 40
1.0
 40
1.0
 40
1.0
 40
1.0
 10
1.8889
 20
16.4678
 30
0.0
 10
1.8889
 20
16.4678
 30
0.0
 10
1.8653
 20
24.3347
 30
0.0
 10
1.8653
 20
24.3347
 30
0.0
 10
1.8653
 20
24.3347
 30
0.0
 10
1.8653
 20
24.3347
 30
0.0
 10
7.3226
 20
24.3111
 30
0.0
 10
7.3226
 20
24.3111
 30
0.0
 10
7.3226
 20
24.3111
 30
0.0
 10
7.3226
 20
24.3111
 30
0.0
 10
1.8417
 20
24.3347
 30
0.0
 10
1.8417
 20
24.3347
 30
0.0
 10
1.8417
 20
24.3347
 30
0.0
 10
1.8417
 20
24.3347
 30
0.0
 10
1.2747
 20
25.3505
 30
0.0
 10
1.2747
 20
25.3505
 30
0.0
 10
1.2747
 20
25.3505
 30
0.0
 10
1.2747
 20
25.3505
 30
0.0
 10
1.2821
 20
27.3496
 30
0.0
 10
1.2821
 20
27.3496
 30
0.0
 10
1.2821
 20
27.3496
 30
0.0
 10
1.2821
 20
27.3496
 30
0.0
 10
7.7891
 20
27.3496
 30
0.0
 10
7.7891
 20
27.3496
 30
0.0
 10
7.7891
 20
27.3496
 30
0.0
 10
7.7891
 20
27.3496
 30
0.0
 10
7.8187
 20
25.3742
 30
0.0
 10
7.8187
 20
25.3742
 30
0.0
 10
7.8187
 20
25.3742
 30
0.0
 10
7.8187
 20
25.3742
 30
0.0
 10
7.2281
 20
24.2638
 30
0.0
 10
7.2281
 20
24.2638
 30
0.0
 10
7.2281
 20
24.2638
 30
0.0
 10
7.2281
 20
24.2638
 30
0.0
 10
7.1572
 20
16.4206
 30
0.0
 10
7.1572
 20
16.4206
 30
0.0
  0
SPLINE
  5
49
330
1F
100
AcDbEntity
  8
VRSTVA_1
 62
   250
100
AcDbSpline
210
0.0
220
0.0
230
1.0
 70
    11
 71
     3
 72
    36
 73
    32
 74
     0
 42
0.0000000001
 43
0.0000000001
 40
0.0
 40
0.0
 40
0.0
 40
0.0
 40
0.1111111111111111
 40
0.1111111111111111
 40
0.1111111111111111
 40
0.1111111111111111
 40
0.2222222222222222
 40
0.2222222222222222
 40
0.2222222222222222
 40
0.2222222222222222
 40
0.3333333333333333
 40
0.3333333333333333
 40
0.3333333333333333
 40
0.3333333333333333
 40
0.4444444444444444
 40
0.4444444444444444
 40
0.4444444444444444
 40
0.4444444444444444
 40
0.5555555555555556
 40
0.5555555555555556
 40
0.5555555555555556
 40
0.5555555555555556
 40
0.6666666666666666
 40
0.6666666666666666
 40
0.6666666666666666
 40
0.6666666666666666
 40
0.7777777777777778
 40
0.7777777777777778
 40
0.7777777777777778
 40
0.7777777777777778
 40
1.0
 40
1.0
 40
1.0
 40
1.0
 10
7.8481
 20
14.7005
 30
0.0
 10
7.8481
 20
14.7005
 30
0.0
 10
7.8481
 20
16.354
 30
0.0
 10
7.8481
 20
16.354
 30
0.0
 10
7.8481
 20
16.354
 30
0.0
 10
7.8481
 20
16.354
 30
0.0
 10
7.7997
 20
16.435
 30
0.0
 10
7.7997
 20
16.435
 30
0.0
 10
7.7997
 20
16.435
 30
0.0
 10
7.7997
 20
16.435
 30
0.0
 10
7.5894
 20
16.4404
 30
0.0
 10
7.5894
 20
16.4404
 30
0.0
 10
7.5894
 20
16.4404
 30
0.0
 10
7.5894
 20
16.4404
 30
0.0
 10
7.3811
 20
16.4408
 30
0.0
 10
7.3811
 20
16.4408
 30
0.0
 10
7.3811
 20
16.4408
 30
0.0
 10
7.4676
 20
16.5908
 30
0.0
 10
7.6443
 20
16.6639
 30
0.0
 10
7.8117
 20
16.6191
 30
0.0
 10
7.8117
 20
16.6191
 30
0.0
 10
7.979
 20
16.5743
 30
0.0
 10
8.0953
 20
16.4226
 30
0.0
 10
8.0953
 20
16.2494
 30
0.0
 10
8.0953
 20
16.2494
 30
0.0
 10
8.0953
 20
16.2494
 30
0.0
 10
8.1016
 20
14.6897
 30
0.0
 10
8.1016
 20
14.6897
 30
0.0
 10
8.1016
 20
14.6897
 30
0.0
 10
8.1016
 20
14.6897
 30
0.0
 10
7.8481
 20
14.7005
 30
0.0
 10
7.8481
 20
14.7005
 30
0.0
  0
SPLINE
  5
4A
330
1F
100
AcDbEntity
  8
VRSTVA_1
 62
   250
100
AcDbSpline
210
0.0
220
0.0
230
1.0
 70
    11
 71
     3
 72
    28
 73
    24
 74
     0
 42
0.0000000001
 43
0.0000000001
 40
0.0
 40
0.0
 40
0.0
 40
0.0
 40
0.1428571428571428
 40
0.1428571428571428
 40
0.1428571428571428
 40
0.1428571428571428
 40
0.2857142857142857
 40
0.2857142857142857
 40
0.2857142857142857
 40
0.2857142857142857
 40
0.4285714285714285
 40
0.4285714285714285
 40
0.4285714285714285
 40
0.4285714285714285
 40
0.5714285714285714
 40
0.5714285714285714
 40
0.5714285714285714
 40
0.5714285714285714
 40
0.7142857142857143
 40
0.7142857142857143
 40
0.7142857142857143
 40
0.7142857142857143
 40
1.0
 40
1.0
 40
1.0
 40
1.0
 10
2.5486
 20
14.6397
 30
0.0
 10
2.5486
 20
14.6397
 30
0.0
 10
2.5643
 20
16.2494
 30
0.0
 10
2.5643
 20
16.2494
 30
0.0
 10
2.5643
 20
16.2494
 30
0.0
 10
2.5643
 20
16.4226
 30
0.0
 10
2.6807
 20
16.5743
 30
0.0
 10
2.8481
 20
16.6191
 30
0.0
 10
2.8481
 20
16.6191
 30
0.0
 10
3.0154
 20
16.6639
 30
0.0
 10
3.1921
 20
16.5908
 30
0.0
 10
3.2786
 20
16.4408
 30
0.0
 10
3.2786
 20
16.4408
 30
0.0
 10
3.2786
 20
16.4408
 30
0.0
 10
3.1341
 20
16.4079
 30
0.0
 10
3.1341
 20
16.4079
 30
0.0
 10
3.1341
 20
16.4079
 30
0.0
 10
3.1341
 20
16.4079
 30
0.0
 10
3.1661
 20
14.6236
 30
0.0
 10
3.1661
 20
14.6236
 30
0.0
 10
3.1661
 20
14.6236
 30
0.0
 10
3.1661
 20
14.6236
 30
0.0
 10
2.5486
 20
14.6397
 30
0.0
 10
2.5486
 20
14.6397
 30
0.0
  0
SPLINE
  5
4B
330
1F
100
AcDbEntity
  8
VRSTVA_1
 62
   250
100
AcDbSpline
210
0.0
220
0.0
230
1.0
 70
    11
 71
     3
 72
    32
 73
    28
 74
     0
 42
0.0000000001
 43
0.0000000001
 40
0.0
 40
0.0
 40
0.0
 40
0.0
 40
0.125
 40
0.125
 40
0.125
 40
0.125
 40
0.25
 40
0.25
 40
0.25
 40
0.25
 40
0.375
 40
0.375
 40
0.375
 40
0.375
 40
0.5
 40
0.5
 40
0.5
 40
0.5
 40
0.625
 40
0.625
 40
0.625
 40
0.625
 40
0.75
 40
0.75
 40
0.75
 40
0.75
 40
1.0
 40
1.0
 40
1.0
 40
1.0
 10
5.8893
 20
14.7206
 30
0.0
 10
5.8893
 20
14.7206
 30
0.0
 10
5.8821
 20
16.3208
 30
0.0
 10
5.8821
 20
16.3208
 30
0.0
 10
5.8821
 20
16.3208
 30
0.0
 10
5.8821
 20
16.3208
 30
0.0
 10
5.8674
 20
16.4011
 30
0.0
 10
5.8674
 20
16.4011
 30
0.0
 10
5.8674
 20
16.4011
 30
0.0
 10
5.8674
 20
16.4011
 30
0.0
 10
5.7926
 20
16.4408
 30
0.0
 10
5.7926
 20
16.4408
 30
0.0
 10
5.7926
 20
16.4408
 30
0.0
 10
5.8793
 20
16.5908
 30
0.0
 10
6.0558
 20
16.6639
 30
0.0
 10
6.2232
 20
16.6191
 30
0.0
 10
6.2232
 20
16.6191
 30
0.0
 10
6.3906
 20
16.5743
 30
0.0
 10
6.5069
 20
16.4226
 30
0.0
 10
6.5069
 20
16.2494
 30
0.0
 10
6.5069
 20
16.2494
 30
0.0
 10
6.5069
 20
16.2494
 30
0.0
 10
6.4945
 20
14.6694
 30
0.0
 10
6.4945
 20
14.6694
 30
0.0
 10
6.4945
 20
14.6694
 30
0.0
 10
6.4945
 20
14.6694
 30
0.0
 10
5.8893
 20
14.7206
 30
0.0
 10
5.8893
 20
14.7206
 30
0.0
  0
SPLINE
  5
4C
330
1F
100
AcDbEntity
  8
VRSTVA_1
 62
   250
100
AcDbSpline
210
0.0
220
0.0
230
1.0
 70
    11
 71
     3
 72
    48
 73
    44
 74
     0
 42
0.0000000001
 43
0.0000000001
 40
0.0
 40
0.0
 40
0.0
 40
0.0
 40
0.0833333333333333
 40
0.0833333333333333
 40
0.0833333333333333
 40
0.0833333333333333
 40
0.1666666666666667
 40
0.1666666666666667
 40
0.1666666666666667
 40
0.1666666666666667
 40
0.25
 40
0.25
 40
0.25
 40
0.25
 40
0.3333333333333333
 40
0.3333333333333333
 40
0.3333333333333333
 40
0.3333333333333333
 40
0.4166666666666667
 40
0.4166666666666667
 40
0.4166666666666667
 40
0.4166666666666667
 40
0.5
 40
0.5
 40
0.5
 40
0.5
 40
0.5833333333333334
 40
0.5833333333333334
 40
0.5833333333333334
 40
0.5833333333333334
 40
0.6666666666666666
 40
0.6666666666666666
 40
0.6666666666666666
 40
0.6666666666666666
 40
0.75
 40
0.75
 40
0.75
 40
0.75
 40
0.8333333333333334
 40
0.8333333333333334
 40
0.8333333333333334
 40
0.8333333333333334
 40
1.0
 40
1.0
 40
1.0
 40
1.0
 10
1.6901
 20
16.4408
 30
0.0
 10
1.6036
 20
16.5908
 30
0.0
 10
1.4269
 20
16.6639
 30
0.0
 10
1.2596
 20
16.6191
 30
0.0
 10
1.2596
 20
16.6191
 30
0.0
 10
1.0922
 20
16.5743
 30
0.0
 10
0.9759
 20
16.4226
 30
0.0
 10
0.9759
 20
16.2494
 30
0.0
 10
0.9759
 20
16.2494
 30
0.0
 10
0.9759
 20
16.2494
 30
0.0
 10
0.9683
 20
14.6719
 30
0.0
 10
0.9683
 20
14.6719
 30
0.0
 10
0.9683
 20
14.6719
 30
0.0
 10
0.9683
 20
14.6719
 30
0.0
 10
1.193
 20
14.6719
 30
0.0
 10
1.193
 20
14.6719
 30
0.0
 10
1.193
 20
14.6719
 30
0.0
 10
1.193
 20
14.6719
 30
0.0
 10
1.2089
 20
16.2873
 30
0.0
 10
1.2089
 20
16.2873
 30
0.0
 10
1.2089
 20
16.2873
 30
0.0
 10
1.2089
 20
16.2873
 30
0.0
 10
1.2491
 20
16.3918
 30
0.0
 10
1.2491
 20
16.3918
 30
0.0
 10
1.2491
 20
16.3918
 30
0.0
 10
1.2491
 20
16.3918
 30
0.0
 10
1.3212
 20
16.424
 30
0.0
 10
1.3212
 20
16.424
 30
0.0
 10
1.3212
 20
16.424
 30
0.0
 10
1.3212
 20
16.424
 30
0.0
 10
1.4095
 20
16.4401
 30
0.0
 10
1.4095
 20
16.4401
 30
0.0
 10
1.4095
 20
16.4401
 30
0.0
 10
1.4095
 20
16.4401
 30
0.0
 10
1.6901
 20
16.4408
 30
0.0
 10
1.6901
 20
16.4408
 30
0.0
 10
1.6901
 20
16.4408
 30
0.0
 10
1.6901
 20
16.4408
 30
0.0
 10
2.6157
 20
16.4408
 30
0.0
 10
2.6157
 20
16.4408
 30
0.0
 10
2.6157
 20
16.4408
 30
0.0
 10
2.6157
 20
16.4408
 30
0.0
 10
1.6901
 20
16.4408
 30
0.0
 10
1.6901
 20
16.4408
 30
0.0
  0
SPLINE
  5
4D
330
1F
100
AcDbEntity
  8
VRSTVA_1
 62
   250
100
AcDbSpline
210
0.0
220
0.0
230
1.0
 70
    27
 71
     3
 72
    20
 73
    16
 74
     0
 42
0.0000000001
 43
0.0000000001
 40
0.0
 40
0.0
 40
0.0
 40
0.0
 40
0.2
 40
0.2
 40
0.2
 40
0.2
 40
0.4
 40
0.4
 40
0.4
 40
0.4
 40
0.6
 40
0.6
 40
0.6
 40
0.6
 40
1.0
 40
1.0
 40
1.0
 40
1.0
 10
5.8719
 20
16.4408
 30
0.0
 10
5.8719
 20
16.4408
 30
0.0
 10
5.7926
 20
16.4408
 30
0.0
 10
5.7926
 20
16.4408
 30
0.0
 10
5.7926
 20
16.4408
 30
0.0
 10
5.7926
 20
16.4408
 30
0.0
 10
3.1995
 20
16.4408
 30
0.0
 10
3.1995
 20
16.4408
 30
0.0
 10
3.1995
 20
16.4408
 30
0.0
 10
3.1995
 20
16.4408
 30
0.0
 10
5.7926
 20
16.4408
 30
0.0
 10
5.7926
 20
16.4408
 30
0.0
 10
5.7926
 20
16.4408
 30
0.0
 10
5.7926
 20
16.4408
 30
0.0
 10
5.8719
 20
16.4408
 30
0.0
 10
5.8719
 20
16.4408
 30
0.0
  0
SPLINE
  5
4E
330
1F
100
AcDbEntity
  8
VRSTVA_1
 62
   250
100
AcDbSpline
210
0.0
220
0.0
230
1.0
 70
    27
 71
     3
 72
    20
 73
    16
 74
     0
 42
0.0000000001
 43
0.0000000001
 40
0.0
 40
0.0
 40
0.0
 40
0.0
 40
0.2
 40
0.2
 40
0.2
 40
0.2
 40
0.4
 40
0.4
 40
0.4
 40
0.4
 40
0.6
 40
0.6
 40
0.6
 40
0.6
 40
1.0
 40
1.0
 40
1.0
 40
1.0
 10
7.7727
 20
16.4408
 30
0.0
 10
7.7727
 20
16.4408
 30
0.0
 10
7.3811
 20
16.4408
 30
0.0
 10
7.3811
 20
16.4408
 30
0.0
 10
7.3811
 20
16.4408
 30
0.0
 10
7.3811
 20
16.4408
 30
0.0
 10
6.4556
 20
16.4408
 30
0.0
 10
6.4556
 20
16.4408
 30
0.0
 10
6.4556
 20
16.4408
 30
0.0
 10
6.4556
 20
16.4408
 30
0.0
 10
7.3811
 20
16.4408
 30
0.0
 10
7.3811
 20
16.4408
 30
0.0
 10
7.3811
 20
16.4408
 30
0.0
 10
7.3811
 20
16.4408
 30
0.0
 10
7.7727
 20
16.4408
 30
0.0
 10
7.7727
 20
16.4408
 30
0.0
  0
SPLINE
  5
4F
330
1F
100
AcDbEntity
  8
VRSTVA_1
 62
   250
100
AcDbSpline
210
0.0
220
0.0
230
1.0
 70
     8
 71
     3
 72
    32
 73
    28
 74
     0
 42
0.0000000001
 43
0.0000000001
 40
0.0
 40
0.0
 40
0.0
 40
0.0
 40
0.125
 40
0.125
 40
0.125
 40
0.125
 40
0.25
 40
0.25
 40
0.25
 40
0.25
 40
0.375
 40
0.375
 40
0.375
 40
0.375
 40
0.5
 40
0.5
 40
0.5
 40
0.5
 40
0.625
 40
0.625
 40
0.625
 40
0.625
 40
0.75
 40
0.75
 40
0.75
 40
0.75
 40
1.0
 40
1.0
 40
1.0
 40
1.0
 10
7.8481
 20
14.7005
 30
0.0
 10
7.8481
 20
14.7005
 30
0.0
 10
7.8481
 20
16.354
 30
0.0
 10
7.8481
 20
16.354
 30
0.0
 10
7.8481
 20
16.354
 30
0.0
 10
7.8481
 20
16.354
 30
0.0
 10
7.7997
 20
16.435
 30
0.0
 10
7.7997
 20
16.435
 30
0.0
 10
7.7997
 20
16.435
 30
0.0
 10
7.7997
 20
16.435
 30
0.0
 10
7.5894
 20
16.4404
 30
0.0
 10
7.5894
 20
16.4404
 30
0.0
 10
7.5894
 20
16.4404
 30
0.0
 10
7.5894
 20
16.4404
 30
0.0
 10
7.3811
 20
16.4408
 30
0.0
 10
7.3811
 20
16.4408
 30
0.0
 10
7.3811
 20
16.4408
 30
0.0
 10
7.4676
 20
16.5908
 30
0.0
 10
7.6443
 20
16.6639
 30
0.0
 10
7.8117
 20
16.6191
 30
0.0
 10
7.8117
 20
16.6191
 30
0.0
 10
7.979
 20
16.5743
 30
0.0
 10
8.0953
 20
16.4226
 30
0.0
 10
8.0953
 20
16.2494
 30
0.0
 10
8.0953
 20
16.2494
 30
0.0
 10
8.0953
 20
16.2494
 30
0.0
 10
8.1016
 20
14.6897
 30
0.0
 10
8.1016
 20
14.6897
 30
0.0
  0
SPLINE
  5
50
330
1F
100
AcDbEntity
  8
VRSTVA_1
 62
   250
100
AcDbSpline
210
0.0
220
0.0
230
1.0
 70
     8
 71
     3
 72
    24
 73
    20
 74
     0
 42
0.0000000001
 43
0.0000000001
 40
0.0
 40
0.0
 40
0.0
 40
0.0
 40
0.1666666666666667
 40
0.1666666666666667
 40
0.1666666666666667
 40
0.1666666666666667
 40
0.3333333333333333
 40
0.3333333333333333
 40
0.3333333333333333
 40
0.3333333333333333
 40
0.5
 40
0.5
 40
0.5
 40
0.5
 40
0.6666666666666666
 40
0.6666666666666666
 40
0.6666666666666666
 40
0.6666666666666666
 40
1.0
 40
1.0
 40
1.0
 40
1.0
 10
2.5486
 20
14.6397
 30
0.0
 10
2.5486
 20
14.6397
 30
0.0
 10
2.5643
 20
16.2494
 30
0.0
 10
2.5643
 20
16.2494
 30
0.0
 10
2.5643
 20
16.2494
 30
0.0
 10
2.5643
 20
16.4226
 30
0.0
 10
2.6807
 20
16.5743
 30
0.0
 10
2.8481
 20
16.6191
 30
0.0
 10
2.8481
 20
16.6191
 30
0.0
 10
3.0154
 20
16.6639
 30
0.0
 10
3.1921
 20
16.5908
 30
0.0
 10
3.2786
 20
16.4408
 30
0.0
 10
3.2786
 20
16.4408
 30
0.0
 10
3.2786
 20
16.4408
 30
0.0
 10
3.1341
 20
16.4079
 30
0.0
 10
3.1341
 20
16.4079
 30
0.0
 10
3.1341
 20
16.4079
 30
0.0
 10
3.1341
 20
16.4079
 30
0.0
 10
3.1661
 20
14.6236
 30
0.0
 10
3.1661
 20
14.6236
 30
0.0
  0
SPLINE
  5
51
330
1F
100
AcDbEntity
  8
VRSTVA_1
 62
   250
100
AcDbSpline
210
0.0
220
0.0
230
1.0
 70
     8
 71
     3
 72
    28
 73
    24
 74
     0
 42
0.0000000001
 43
0.0000000001
 40
0.0
 40
0.0
 40
0.0
 40
0.0
 40
0.1428571428571428
 40
0.1428571428571428
 40
0.1428571428571428
 40
0.1428571428571428
 40
0.2857142857142857
 40
0.2857142857142857
 40
0.2857142857142857
 40
0.2857142857142857
 40
0.4285714285714285
 40
0.4285714285714285
 40
0.4285714285714285
 40
0.4285714285714285
 40
0.5714285714285714
 40
0.5714285714285714
 40
0.5714285714285714
 40
0.5714285714285714
 40
0.7142857142857143
 40
0.7142857142857143
 40
0.7142857142857143
 40
0.7142857142857143
 40
1.0
 40
1.0
 40
1.0
 40
1.0
 10
5.8893
 20
14.7206
 30
0.0
 10
5.8893
 20
14.7206
 30
0.0
 10
5.8821
 20
16.3208
 30
0.0
 10
5.8821
 20
16.3208
 30
0.0
 10
5.8821
 20
16.3208
 30
0.0
 10
5.8821
 20
16.3208
 30
0.0
 10
5.8674
 20
16.4011
 30
0.0
 10
5.8674
 20
16.4011
 30
0.0
 10
5.8674
 20
16.4011
 30
0.0
 10
5.8674
 20
16.4011
 30
0.0
 10
5.7926
 20
16.4408
 30
0.0
 10
5.7926
 20
16.4408
 30
0.0
 10
5.7926
 20
16.4408
 30
0.0
 10
5.8793
 20
16.5908
 30
0.0
 10
6.0558
 20
16.6639
 30
0.0
 10
6.2232
 20
16.6191
 30
0.0
 10
6.2232
 20
16.6191
 30
0.0
 10
6.3906
 20
16.5743
 30
0.0
 10
6.5069
 20
16.4226
 30
0.0
 10
6.5069
 20
16.2494
 30
0.0
 10
6.5069
 20
16.2494
 30
0.0
 10
6.5069
 20
16.2494
 30
0.0
 10
6.4945
 20
14.6694
 30
0.0
 10
6.4945
 20
14.6694
 30
0.0
  0
SPLINE
  5
52
330
1F
100
AcDbEntity
  8
VRSTVA_1
 62
   250
100
AcDbSpline
210
0.0
220
0.0
230
1.0
 70
    11
 71
     3
 72
    48
 73
    44
 74
     0
 42
0.0000000001
 43
0.0000000001
 40
0.0
 40
0.0
 40
0.0
 40
0.0
 40
0.0833333333333333
 40
0.0833333333333333
 40
0.0833333333333333
 40
0.0833333333333333
 40
0.1666666666666667
 40
0.1666666666666667
 40
0.1666666666666667
 40
0.1666666666666667
 40
0.25
 40
0.25
 40
0.25
 40
0.25
 40
0.3333333333333333
 40
0.3333333333333333
 40
0.3333333333333333
 40
0.3333333333333333
 40
0.4166666666666667
 40
0.4166666666666667
 40
0.4166666666666667
 40
0.4166666666666667
 40
0.5
 40
0.5
 40
0.5
 40
0.5
 40
0.5833333333333334
 40
0.5833333333333334
 40
0.5833333333333334
 40
0.5833333333333334
 40
0.6666666666666666
 40
0.6666666666666666
 40
0.6666666666666666
 40
0.6666666666666666
 40
0.75
 40
0.75
 40
0.75
 40
0.75
 40
0.8333333333333334
 40
0.8333333333333334
 40
0.8333333333333334
 40
0.8333333333333334
 40
1.0
 40
1.0
 40
1.0
 40
1.0
 10
1.6901
 20
16.4408
 30
0.0
 10
1.6036
 20
16.5908
 30
0.0
 10
1.4269
 20
16.6639
 30
0.0
 10
1.2596
 20
16.6191
 30
0.0
 10
1.2596
 20
16.6191
 30
0.0
 10
1.0922
 20
16.5743
 30
0.0
 10
0.9759
 20
16.4226
 30
0.0
 10
0.9759
 20
16.2494
 30
0.0
 10
0.9759
 20
16.2494
 30
0.0
 10
0.9759
 20
16.2494
 30
0.0
 10
0.9683
 20
14.6719
 30
0.0
 10
0.9683
 20
14.6719
 30
0.0
 10
0.9683
 20
14.6719
 30
0.0
 10
0.9683
 20
14.6719
 30
0.0
 10
1.193
 20
14.6719
 30
0.0
 10
1.193
 20
14.6719
 30
0.0
 10
1.193
 20
14.6719
 30
0.0
 10
1.193
 20
14.6719
 30
0.0
 10
1.2089
 20
16.2873
 30
0.0
 10
1.2089
 20
16.2873
 30
0.0
 10
1.2089
 20
16.2873
 30
0.0
 10
1.2089
 20
16.2873
 30
0.0
 10
1.2491
 20
16.3918
 30
0.0
 10
1.2491
 20
16.3918
 30
0.0
 10
1.2491
 20
16.3918
 30
0.0
 10
1.2491
 20
16.3918
 30
0.0
 10
1.3212
 20
16.424
 30
0.0
 10
1.3212
 20
16.424
 30
0.0
 10
1.3212
 20
16.424
 30
0.0
 10
1.3212
 20
16.424
 30
0.0
 10
1.4095
 20
16.4401
 30
0.0
 10
1.4095
 20
16.4401
 30
0.0
 10
1.4095
 20
16.4401
 30
0.0
 10
1.4095
 20
16.4401
 30
0.0
 10
1.6901
 20
16.4408
 30
0.0
 10
1.6901
 20
16.4408
 30
0.0
 10
1.6901
 20
16.4408
 30
0.0
 10
1.6901
 20
16.4408
 30
0.0
 10
2.6157
 20
16.4408
 30
0.0
 10
2.6157
 20
16.4408
 30
0.0
 10
2.6157
 20
16.4408
 30
0.0
 10
2.6157
 20
16.4408
 30
0.0
 10
1.6901
 20
16.4408
 30
0.0
 10
1.6901
 20
16.4408
 30
0.0
  0
SPLINE
  5
53
330
1F
100
AcDbEntity
  8
VRSTVA_1
 62
   250
100
AcDbSpline
210
0.0
220
0.0
230
1.0
 70
    27
 71
     3
 72
    20
 73
    16
 74
     0
 42
0.0000000001
 43
0.0000000001
 40
0.0
 40
0.0
 40
0.0
 40
0.0
 40
0.2
 40
0.2
 40
0.2
 40
0.2
 40
0.4
 40
0.4
 40
0.4
 40
0.4
 40
0.6
 40
0.6
 40
0.6
 40
0.6
 40
1.0
 40
1.0
 40
1.0
 40
1.0
 10
5.8719
 20
16.4408
 30
0.0
 10
5.8719
 20
16.4408
 30
0.0
 10
5.7926
 20
16.4408
 30
0.0
 10
5.7926
 20
16.4408
 30
0.0
 10
5.7926
 20
16.4408
 30
0.0
 10
5.7926
 20
16.4408
 30
0.0
 10
3.1995
 20
16.4408
 30
0.0
 10
3.1995
 20
16.4408
 30
0.0
 10
3.1995
 20
16.4408
 30
0.0
 10
3.1995
 20
16.4408
 30
0.0
 10
5.7926
 20
16.4408
 30
0.0
 10
5.7926
 20
16.4408
 30
0.0
 10
5.7926
 20
16.4408
 30
0.0
 10
5.7926
 20
16.4408
 30
0.0
 10
5.8719
 20
16.4408
 30
0.0
 10
5.8719
 20
16.4408
 30
0.0
  0
SPLINE
  5
54
330
1F
100
AcDbEntity
  8
VRSTVA_1
 62
   250
100
AcDbSpline
210
0.0
220
0.0
230
1.0
 70
    27
 71
     3
 72
    20
 73
    16
 74
     0
 42
0.0000000001
 43
0.0000000001
 40
0.0
 40
0.0
 40
0.0
 40
0.0
 40
0.2
 40
0.2
 40
0.2
 40
0.2
 40
0.4
 40
0.4
 40
0.4
 40
0.4
 40
0.6
 40
0.6
 40
0.6
 40
0.6
 40
1.0
 40
1.0
 40
1.0
 40
1.0
 10
7.7727
 20
16.4408
 30
0.0
 10
7.7727
 20
16.4408
 30
0.0
 10
7.3811
 20
16.4408
 30
0.0
 10
7.3811
 20
16.4408
 30
0.0
 10
7.3811
 20
16.4408
 30
0.0
 10
7.3811
 20
16.4408
 30
0.0
 10
6.4556
 20
16.4408
 30
0.0
 10
6.4556
 20
16.4408
 30
0.0
 10
6.4556
 20
16.4408
 30
0.0
 10
6.4556
 20
16.4408
 30
0.0
 10
7.3811
 20
16.4408
 30
0.0
 10
7.3811
 20
16.4408
 30
0.0
 10
7.3811
 20
16.4408
 30
0.0
 10
7.3811
 20
16.4408
 30
0.0
 10
7.7727
 20
16.4408
 30
0.0
 10
7.7727
 20
16.4408
 30
0.0
  0
SPLINE
  5
55
330
1F
100
AcDbEntity
  8
VRSTVA_1
 62
   250
100
AcDbSpline
210
0.0
220
0.0
230
1.0
 70
     8
 71
     3
 72
   112
 73
   108
 74
     0
 42
0.0000000001
 43
0.0000000001
 40
0.0
 40
0.0
 40
0.0
 40
0.0
 40
0.0357142857142857
 40
0.0357142857142857
 40
0.0357142857142857
 40
0.0357142857142857
 40
0.0714285714285714
 40
0.0714285714285714
 40
0.0714285714285714
 40
0.0714285714285714
 40
0.1071428571428571
 40
0.1071428571428571
 40
0.1071428571428571
 40
0.1071428571428571
 40
0.1428571428571428
 40
0.1428571428571428
 40
0.1428571428571428
 40
0.1428571428571428
 40
0.1785714285714286
 40
0.1785714285714286
 40
0.1785714285714286
 40
0.1785714285714286
 40
0.2142857142857143
 40
0.2142857142857143
 40
0.2142857142857143
 40
0.2142857142857143
 40
0.25
 40
0.25
 40
0.25
 40
0.25
 40
0.2857142857142857
 40
0.2857142857142857
 40
0.2857142857142857
 40
0.2857142857142857
 40
0.3214285714285715
 40
0.3214285714285715
 40
0.3214285714285715
 40
0.3214285714285715
 40
0.3571428571428572
 40
0.3571428571428572
 40
0.3571428571428572
 40
0.3571428571428572
 40
0.3928571428571428
 40
0.3928571428571428
 40
0.3928571428571428
 40
0.3928571428571428
 40
0.4285714285714285
 40
0.4285714285714285
 40
0.4285714285714285
 40
0.4285714285714285
 40
0.4642857142857143
 40
0.4642857142857143
 40
0.4642857142857143
 40
0.4642857142857143
 40
0.5
 40
0.5
 40
0.5
 40
0.5
 40
0.5357142857142857
 40
0.5357142857142857
 40
0.5357142857142857
 40
0.5357142857142857
 40
0.5714285714285714
 40
0.5714285714285714
 40
0.5714285714285714
 40
0.5714285714285714
 40
0.6071428571428571
 40
0.6071428571428571
 40
0.6071428571428571
 40
0.6071428571428571
 40
0.6428571428571429
 40
0.6428571428571429
 40
0.6428571428571429
 40
0.6428571428571429
 40
0.6785714285714286
 40
0.6785714285714286
 40
0.6785714285714286
 40
0.6785714285714286
 40
0.7142857142857143
 40
0.7142857142857143
 40
0.7142857142857143
 40
0.7142857142857143
 40
0.75
 40
0.75
 40
0.75
 40
0.75
 40
0.7857142857142857
 40
0.7857142857142857
 40
0.7857142857142857
 40
0.7857142857142857
 40
0.8214285714285714
 40
0.8214285714285714
 40
0.8214285714285714
 40
0.8214285714285714
 40
0.8571428571428571
 40
0.8571428571428571
 40
0.8571428571428571
 40
0.8571428571428571
 40
0.8928571428571429
 40
0.8928571428571429
 40
0.8928571428571429
 40
0.8928571428571429
 40
0.9285714285714286
 40
0.9285714285714286
 40
0.9285714285714286
 40
0.9285714285714286
 40
1.0
 40
1.0
 40
1.0
 40
1.0
 10
1.4886
 20
25.0195
 30
0.0
 10
1.4886
 20
25.0195
 30
0.0
 10
0.8675
 20
25.0472
 30
0.0
 10
0.8675
 20
25.0472
 30
0.0
 10
0.8675
 20
25.0472
 30
0.0
 10
0.8675
 20
25.0472
 30
0.0
 10
0.7614
 20
25.1179
 30
0.0
 10
0.7614
 20
25.1179
 30
0.0
 10
0.7614
 20
25.1179
 30
0.0
 10
0.7614
 20
25.1179
 30
0.0
 10
0.6906
 20
25.224
 30
0.0
 10
0.6906
 20
25.224
 30
0.0
 10
0.6906
 20
25.224
 30
0.0
 10
0.6906
 20
25.224
 30
0.0
 10
0.708
 20
27.7324
 30
0.0
 10
0.708
 20
27.7324
 30
0.0
 10
0.708
 20
27.7324
 30
0.0
 10
0.708
 20
28.0495
 30
0.0
 10
0.965
 20
28.3065
 30
0.0
 10
1.2821
 20
28.3065
 30
0.0
 10
1.2821
 20
28.3065
 30
0.0
 10
1.2821
 20
28.3065
 30
0.0
 10
2.8478
 20
28.3007
 30
0.0
 10
2.8478
 20
28.3007
 30
0.0
 10
2.8478
 20
28.3007
 30
0.0
 10
2.8478
 20
28.3007
 30
0.0
 10
2.9848
 20
28.395
 30
0.0
 10
2.9848
 20
28.395
 30
0.0
 10
2.9848
 20
28.395
 30
0.0
 10
2.9848
 20
28.395
 30
0.0
 10
3.005
 20
28.5674
 30
0.0
 10
3.005
 20
28.5674
 30
0.0
 10
3.005
 20
28.5674
 30
0.0
 10
3.005
 20
28.5674
 30
0.0
 10
2.9829
 20
33.1238
 30
0.0
 10
2.9829
 20
33.1238
 30
0.0
 10
2.9829
 20
33.1238
 30
0.0
 10
2.9829
 20
33.1238
 30
0.0
 10
3.0884
 20
33.4441
 30
0.0
 10
3.0884
 20
33.4441
 30
0.0
 10
3.0884
 20
33.4441
 30
0.0
 10
3.0884
 20
33.4441
 30
0.0
 10
3.2811
 20
33.5985
 30
0.0
 10
3.2811
 20
33.5985
 30
0.0
 10
3.2811
 20
33.5985
 30
0.0
 10
3.2811
 20
33.5985
 30
0.0
 10
3.5761
 20
33.6756
 30
0.0
 10
3.5761
 20
33.6756
 30
0.0
 10
3.5761
 20
33.6756
 30
0.0
 10
3.5761
 20
33.6756
 30
0.0
 10
5.5141
 20
33.6499
 30
0.0
 10
5.5141
 20
33.6499
 30
0.0
 10
5.5141
 20
33.6499
 30
0.0
 10
5.5141
 20
33.6499
 30
0.0
 10
5.7322
 20
33.6241
 30
0.0
 10
5.7322
 20
33.6241
 30
0.0
 10
5.7322
 20
33.6241
 30
0.0
 10
5.7322
 20
33.6241
 30
0.0
 10
5.9889
 20
33.3798
 30
0.0
 10
5.9889
 20
33.3798
 30
0.0
 10
5.9889
 20
33.3798
 30
0.0
 10
5.9889
 20
33.3798
 30
0.0
 10
6.0916
 20
33.1227
 30
0.0
 10
6.0916
 20
33.1227
 30
0.0
 10
6.0916
 20
33.1227
 30
0.0
 10
6.0916
 20
33.1227
 30
0.0
 10
6.088
 20
28.454
 30
0.0
 10
6.088
 20
28.454
 30
0.0
 10
6.088
 20
28.454
 30
0.0
 10
6.088
 20
28.454
 30
0.0
 10
6.1444
 20
28.3465
 30
0.0
 10
6.1444
 20
28.3465
 30
0.0
 10
6.1444
 20
28.3465
 30
0.0
 10
6.1444
 20
28.3465
 30
0.0
 10
6.2945
 20
28.3055
 30
0.0
 10
6.2945
 20
28.3055
 30
0.0
 10
6.2945
 20
28.3055
 30
0.0
 10
6.2945
 20
28.3055
 30
0.0
 10
7.8646
 20
28.3055
 30
0.0
 10
7.8646
 20
28.3055
 30
0.0
 10
7.8646
 20
28.3055
 30
0.0
 10
7.8646
 20
28.3055
 30
0.0
 10
8.1377
 20
28.1961
 30
0.0
 10
8.1377
 20
28.1961
 30
0.0
 10
8.1377
 20
28.1961
 30
0.0
 10
8.1377
 20
28.1961
 30
0.0
 10
8.3014
 20
27.9908
 30
0.0
 10
8.3014
 20
27.9908
 30
0.0
 10
8.3014
 20
27.9908
 30
0.0
 10
8.3014
 20
27.9908
 30
0.0
 10
8.3697
 20
27.772
 30
0.0
 10
8.3697
 20
27.772
 30
0.0
 10
8.3697
 20
27.772
 30
0.0
 10
8.3697
 20
27.772
 30
0.0
 10
8.3835
 20
25.1726
 30
0.0
 10
8.3835
 20
25.1726
 30
0.0
 10
8.3835
 20
25.1726
 30
0.0
 10
8.3835
 20
25.1726
 30
0.0
 10
8.2059
 20
25.0494
 30
0.0
 10
8.2059
 20
25.0494
 30
0.0
 10
8.2059
 20
25.0494
 30
0.0
 10
8.2059
 20
25.0494
 30
0.0
 10
7.9739
 20
25.0494
 30
0.0
 10
7.9739
 20
25.0494
 30
0.0
 10
7.9739
 20
25.0494
 30
0.0
 10
7.9739
 20
25.0494
 30
0.0
 10
7.7008
 20
25.0768
 30
0.0
 10
7.7008
 20
25.0768
 30
0.0
  0
SPLINE
  5
56
330
1F
100
AcDbEntity
  8
VRSTVA_1
 62
   250
100
AcDbSpline
210
0.0
220
0.0
230
1.0
 70
    11
 71
     3
 72
    36
 73
    32
 74
     0
 42
0.0000000001
 43
0.0000000001
 40
0.0
 40
0.0
 40
0.0
 40
0.0
 40
0.1111111111111111
 40
0.1111111111111111
 40
0.1111111111111111
 40
0.1111111111111111
 40
0.2222222222222222
 40
0.2222222222222222
 40
0.2222222222222222
 40
0.2222222222222222
 40
0.3333333333333333
 40
0.3333333333333333
 40
0.3333333333333333
 40
0.3333333333333333
 40
0.4444444444444444
 40
0.4444444444444444
 40
0.4444444444444444
 40
0.4444444444444444
 40
0.5555555555555556
 40
0.5555555555555556
 40
0.5555555555555556
 40
0.5555555555555556
 40
0.6666666666666666
 40
0.6666666666666666
 40
0.6666666666666666
 40
0.6666666666666666
 40
0.7777777777777778
 40
0.7777777777777778
 40
0.7777777777777778
 40
0.7777777777777778
 40
1.0
 40
1.0
 40
1.0
 40
1.0
 10
3.8444
 20
32.724
 30
0.0
 10
3.8444
 20
32.724
 30
0.0
 10
5.2164
 20
32.724
 30
0.0
 10
5.2164
 20
32.724
 30
0.0
 10
5.2164
 20
32.724
 30
0.0
 10
5.358
 20
32.724
 30
0.0
 10
5.4736
 20
32.6083
 30
0.0
 10
5.4736
 20
32.4667
 30
0.0
 10
5.4736
 20
32.4667
 30
0.0
 10
5.4736
 20
32.4667
 30
0.0
 10
5.4736
 20
29.4834
 30
0.0
 10
5.4736
 20
29.4834
 30
0.0
 10
5.4736
 20
29.4834
 30
0.0
 10
5.4736
 20
29.3418
 30
0.0
 10
5.358
 20
29.2261
 30
0.0
 10
5.2164
 20
29.2261
 30
0.0
 10
5.2164
 20
29.2261
 30
0.0
 10
5.2164
 20
29.2261
 30
0.0
 10
3.8444
 20
29.2261
 30
0.0
 10
3.8444
 20
29.2261
 30
0.0
 10
3.8444
 20
29.2261
 30
0.0
 10
3.7028
 20
29.2261
 30
0.0
 10
3.5872
 20
29.3418
 30
0.0
 10
3.5872
 20
29.4834
 30
0.0
 10
3.5872
 20
29.4834
 30
0.0
 10
3.5872
 20
29.4834
 30
0.0
 10
3.5872
 20
32.4667
 30
0.0
 10
3.5872
 20
32.4667
 30
0.0
 10
3.5872
 20
32.4667
 30
0.0
 10
3.5872
 20
32.6083
 30
0.0
 10
3.7028
 20
32.724
 30
0.0
 10
3.8444
 20
32.724
 30
0.0
  0
SPLINE
  5
57
330
1F
100
AcDbEntity
  8
VRSTVA_1
 62
   250
100
AcDbSpline
210
0.0
220
0.0
230
1.0
 70
    24
 71
     3
 72
     8
 73
     4
 74
     0
 42
0.0000000001
 43
0.0000000001
 40
0.0
 40
0.0
 40
0.0
 40
0.0
 40
1.0
 40
1.0
 40
1.0
 40
1.0
 10
16.7926
 20
-0.0277
 30
0.0
 10
16.7926
 20
-0.0277
 30
0.0
 10
-7.1747
 20
-0.0277
 30
0.0
 10
-7.1747
 20
-0.0277
 30
0.0
  0
SPLINE
  5
58
330
1F
100
AcDbEntity
  8
VRSTVA_1
 62
   250
100
AcDbSpline
210
0.0
220
0.0
230
1.0
 70
     8
 71
     3
 72
    16
 73
    12
 74
     0
 42
0.0000000001
 43
0.0000000001
 40
0.0
 40
0.0
 40
0.0
 40
0.0
 40
0.25
 40
0.25
 40
0.25
 40
0.25
 40
0.5
 40
0.5
 40
0.5
 40
0.5
 40
1.0
 40
1.0
 40
1.0
 40
1.0
 10
-3.1658
 20
-18.9211
 30
0.0
 10
-3.1658
 20
-18.9211
 30
0.0
 10
-3.1289
 20
-18.1377
 30
0.0
 10
-3.1289
 20
-18.1377
 30
0.0
 10
-3.1289
 20
-18.1377
 30
0.0
 10
-3.1289
 20
-18.1377
 30
0.0
 10
12.4688
 20
-18.1377
 30
0.0
 10
12.4688
 20
-18.1377
 30
0.0
 10
12.4688
 20
-18.1377
 30
0.0
 10
12.4688
 20
-18.1377
 30
0.0
 10
12.4567
 20
-18.8716
 30
0.0
 10
12.4567
 20
-18.8716
 30
0.0
  0
SPLINE
  5
59
330
1F
100
AcDbEntity
  8
VRSTVA_1
 62
   250
100
AcDbSpline
210
0.0
220
0.0
230
1.0
 70
    11
 71
     3
 72
    72
 73
    68
 74
     0
 42
0.0000000001
 43
0.0000000001
 40
0.0
 40
0.0
 40
0.0
 40
0.0
 40
0.0555555555555556
 40
0.0555555555555556
 40
0.0555555555555556
 40
0.0555555555555556
 40
0.1111111111111111
 40
0.1111111111111111
 40
0.1111111111111111
 40
0.1111111111111111
 40
0.1666666666666667
 40
0.1666666666666667
 40
0.1666666666666667
 40
0.1666666666666667
 40
0.2222222222222222
 40
0.2222222222222222
 40
0.2222222222222222
 40
0.2222222222222222
 40
0.2777777777777778
 40
0.2777777777777778
 40
0.2777777777777778
 40
0.2777777777777778
 40
0.3333333333333333
 40
0.3333333333333333
 40
0.3333333333333333
 40
0.3333333333333333
 40
0.3888888888888889
 40
0.3888888888888889
 40
0.3888888888888889
 40
0.3888888888888889
 40
0.4444444444444444
 40
0.4444444444444444
 40
0.4444444444444444
 40
0.4444444444444444
 40
0.5
 40
0.5
 40
0.5
 40
0.5
 40
0.5555555555555556
 40
0.5555555555555556
 40
0.5555555555555556
 40
0.5555555555555556
 40
0.6111111111111112
 40
0.6111111111111112
 40
0.6111111111111112
 40
0.6111111111111112
 40
0.6666666666666666
 40
0.6666666666666666
 40
0.6666666666666666
 40
0.6666666666666666
 40
0.7222222222222222
 40
0.7222222222222222
 40
0.7222222222222222
 40
0.7222222222222222
 40
0.7777777777777778
 40
0.7777777777777778
 40
0.7777777777777778
 40
0.7777777777777778
 40
0.8333333333333334
 40
0.8333333333333334
 40
0.8333333333333334
 40
0.8333333333333334
 40
0.8888888888888888
 40
0.8888888888888888
 40
0.8888888888888888
 40
0.8888888888888888
 40
1.0
 40
1.0
 40
1.0
 40
1.0
 10
3.9307
 20
-10.1825
 30
0.0
 10
3.9307
 20
-10.1825
 30
0.0
 10
3.914
 20
-10.0766
 30
0.0
 10
3.914
 20
-10.0766
 30
0.0
 10
3.914
 20
-10.0766
 30
0.0
 10
3.914
 20
-10.0766
 30
0.0
 10
3.8658
 20
-9.981
 30
0.0
 10
3.8658
 20
-9.981
 30
0.0
 10
3.8658
 20
-9.981
 30
0.0
 10
3.8658
 20
-9.981
 30
0.0
 10
3.7907
 20
-9.9052
 30
0.0
 10
3.7907
 20
-9.9052
 30
0.0
 10
3.7907
 20
-9.9052
 30
0.0
 10
3.7907
 20
-9.9052
 30
0.0
 10
3.6961
 20
-9.8565
 30
0.0
 10
3.6961
 20
-9.8565
 30
0.0
 10
3.6961
 20
-9.8565
 30
0.0
 10
3.6961
 20
-9.8565
 30
0.0
 10
3.5912
 20
-9.8397
 30
0.0
 10
3.5912
 20
-9.8397
 30
0.0
 10
3.5912
 20
-9.8397
 30
0.0
 10
3.5912
 20
-9.8397
 30
0.0
 10
3.4024
 20
-9.9005
 30
0.0
 10
3.4024
 20
-9.9005
 30
0.0
 10
3.4024
 20
-9.9005
 30
0.0
 10
3.4024
 20
-9.9005
 30
0.0
 10
3.3066
 20
-9.9902
 30
0.0
 10
3.3066
 20
-9.9902
 30
0.0
 10
3.3066
 20
-9.9902
 30
0.0
 10
3.3066
 20
-9.9902
 30
0.0
 10
3.2747
 20
-10.0925
 30
0.0
 10
3.2747
 20
-10.0925
 30
0.0
 10
3.2747
 20
-10.0925
 30
0.0
 10
3.2747
 20
-10.0925
 30
0.0
 10
3.2683
 20
-10.2844
 30
0.0
 10
3.2683
 20
-10.2844
 30
0.0
 10
3.2683
 20
-10.2844
 30
0.0
 10
3.2683
 20
-10.2844
 30
0.0
 10
3.3257
 20
-10.3868
 30
0.0
 10
3.3257
 20
-10.3868
 30
0.0
 10
3.3257
 20
-10.3868
 30
0.0
 10
3.3257
 20
-10.3868
 30
0.0
 10
3.4407
 20
-10.47
 30
0.0
 10
3.4407
 20
-10.47
 30
0.0
 10
3.4407
 20
-10.47
 30
0.0
 10
3.4407
 20
-10.47
 30
0.0
 10
3.5236
 20
-10.5276
 30
0.0
 10
3.5236
 20
-10.5276
 30
0.0
 10
3.5236
 20
-10.5276
 30
0.0
 10
3.5236
 20
-10.5276
 30
0.0
 10
3.6896
 20
-10.5148
 30
0.0
 10
3.6896
 20
-10.5148
 30
0.0
 10
3.6896
 20
-10.5148
 30
0.0
 10
3.6896
 20
-10.5148
 30
0.0
 10
3.811
 20
-10.4636
 30
0.0
 10
3.811
 20
-10.4636
 30
0.0
 10
3.811
 20
-10.4636
 30
0.0
 10
3.811
 20
-10.4636
 30
0.0
 10
3.9068
 20
-10.3548
 30
0.0
 10
3.9068
 20
-10.3548
 30
0.0
 10
3.9068
 20
-10.3548
 30
0.0
 10
3.9068
 20
-10.3548
 30
0.0
 10
3.9195
 20
-10.2717
 30
0.0
 10
3.9195
 20
-10.2717
 30
0.0
 10
3.9195
 20
-10.2717
 30
0.0
 10
3.9195
 20
-10.2717
 30
0.0
 10
3.9307
 20
-10.1825
 30
0.0
 10
3.9307
 20
-10.1825
 30
0.0
  0
SPLINE
  5
5A
330
1F
100
AcDbEntity
  8
VRSTVA_1
 62
   250
100
AcDbSpline
210
0.0
220
0.0
230
1.0
 70
     8
 71
     3
 72
    52
 73
    48
 74
     0
 42
0.0000000001
 43
0.0000000001
 40
0.0
 40
0.0
 40
0.0
 40
0.0
 40
0.0769230769230769
 40
0.0769230769230769
 40
0.0769230769230769
 40
0.0769230769230769
 40
0.1538461538461539
 40
0.1538461538461539
 40
0.1538461538461539
 40
0.1538461538461539
 40
0.2307692307692308
 40
0.2307692307692308
 40
0.2307692307692308
 40
0.2307692307692308
 40
0.3076923076923077
 40
0.3076923076923077
 40
0.3076923076923077
 40
0.3076923076923077
 40
0.3846153846153846
 40
0.3846153846153846
 40
0.3846153846153846
 40
0.3846153846153846
 40
0.4615384615384616
 40
0.4615384615384616
 40
0.4615384615384616
 40
0.4615384615384616
 40
0.5384615384615384
 40
0.5384615384615384
 40
0.5384615384615384
 40
0.5384615384615384
 40
0.6153846153846154
 40
0.6153846153846154
 40
0.6153846153846154
 40
0.6153846153846154
 40
0.6923076923076923
 40
0.6923076923076923
 40
0.6923076923076923
 40
0.6923076923076923
 40
0.7692307692307693
 40
0.7692307692307693
 40
0.7692307692307693
 40
0.7692307692307693
 40
0.8461538461538461
 40
0.8461538461538461
 40
0.8461538461538461
 40
0.8461538461538461
 40
1.0
 40
1.0
 40
1.0
 40
1.0
 10
9.2647
 20
-26.3007
 30
0.0
 10
9.2647
 20
-26.3007
 30
0.0
 10
9.2823
 20
-26.8738
 30
0.0
 10
9.2823
 20
-26.8738
 30
0.0
 10
9.2823
 20
-26.8738
 30
0.0
 10
9.2823
 20
-26.8738
 30
0.0
 10
-0.0642
 20
-26.9436
 30
0.0
 10
-0.0642
 20
-26.9436
 30
0.0
 10
-0.0642
 20
-26.9436
 30
0.0
 10
-0.0642
 20
-26.9436
 30
0.0
 10
-0.0525
 20
-26.3595
 30
0.0
 10
-0.0525
 20
-26.3595
 30
0.0
 10
-0.0525
 20
-26.3595
 30
0.0
 10
-0.0525
 20
-26.3595
 30
0.0
 10
11.6592
 20
-26.3067
 30
0.0
 10
11.6592
 20
-26.3067
 30
0.0
 10
11.6592
 20
-26.3067
 30
0.0
 10
11.6592
 20
-26.3067
 30
0.0
 10
12.1258
 20
-26.2483
 30
0.0
 10
12.1258
 20
-26.2483
 30
0.0
 10
12.1258
 20
-26.2483
 30
0.0
 10
12.1258
 20
-26.2483
 30
0.0
 10
12.4466
 20
-25.8682
 30
0.0
 10
12.4466
 20
-25.8682
 30
0.0
 10
12.4466
 20
-25.8682
 30
0.0
 10
12.4466
 20
-25.8682
 30
0.0
 10
12.6217
 20
-25.4884
 30
0.0
 10
12.6217
 20
-25.4884
 30
0.0
 10
12.6217
 20
-25.4884
 30
0.0
 10
12.6217
 20
-25.4884
 30
0.0
 10
12.6508
 20
-18.9415
 30
0.0
 10
12.6508
 20
-18.9415
 30
0.0
 10
12.6508
 20
-18.9415
 30
0.0
 10
12.6508
 20
-18.9415
 30
0.0
 10
-3.2745
 20
-18.9124
 30
0.0
 10
-3.2745
 20
-18.9124
 30
0.0
 10
-3.2745
 20
-18.9124
 30
0.0
 10
-3.2745
 20
-18.9124
 30
0.0
 10
-3.2724
 20
-25.4102
 30
0.0
 10
-3.2724
 20
-25.4102
 30
0.0
 10
-3.2724
 20
-25.4102
 30
0.0
 10
-3.2724
 20
-25.9387
 30
0.0
 10
-2.844
 20
-26.3671
 30
0.0
 10
-2.3155
 20
-26.3671
 30
0.0
 10
-2.3155
 20
-26.3671
 30
0.0
 10
-2.3155
 20
-26.3671
 30
0.0
 10
2.0048
 20
-26.336
 30
0.0
 10
2.0048
 20
-26.336
 30
0.0
  0
SPLINE
  5
5B
330
1F
100
AcDbEntity
  8
VRSTVA_1
  6
NEW_LINE3
 62
   250
100
AcDbSpline
210
0.0
220
0.0
230
1.0
 70
    24
 71
     3
 72
     8
 73
     4
 74
     0
 42
0.0000000001
 43
0.0000000001
 40
0.0
 40
0.0
 40
0.0
 40
0.0
 40
1.0
 40
1.0
 40
1.0
 40
1.0
 10
4.5832
 20
-34.9442
 30
0.0
 10
4.5832
 20
-34.9442
 30
0.0
 10
4.5832
 20
34.9579
 30
0.0
 10
4.5832
 20
34.9579
 30
0.0
  0
SPLINE
  5
5D
330
1F
100
AcDbEntity
  8
VRSTVA_1
 62
   250
100
AcDbSpline
210
0.0
220
0.0
230
1.0
 70
    11
 71
     3
 72
    92
 73
    88
 74
     0
 42
0.0000000001
 43
0.0000000001
 40
0.0
 40
0.0
 40
0.0
 40
0.0
 40
0.0434782608695652
 40
0.0434782608695652
 40
0.0434782608695652
 40
0.0434782608695652
 40
0.0869565217391304
 40
0.0869565217391304
 40
0.0869565217391304
 40
0.0869565217391304
 40
0.1304347826086956
 40
0.1304347826086956
 40
0.1304347826086956
 40
0.1304347826086956
 40
0.1739130434782609
 40
0.1739130434782609
 40
0.1739130434782609
 40
0.1739130434782609
 40
0.2173913043478261
 40
0.2173913043478261
 40
0.2173913043478261
 40
0.2173913043478261
 40
0.2608695652173913
 40
0.2608695652173913
 40
0.2608695652173913
 40
0.2608695652173913
 40
0.3043478260869565
 40
0.3043478260869565
 40
0.3043478260869565
 40
0.3043478260869565
 40
0.3478260869565217
 40
0.3478260869565217
 40
0.3478260869565217
 40
0.3478260869565217
 40
0.391304347826087
 40
0.391304347826087
 40
0.391304347826087
 40
0.391304347826087
 40
0.4347826086956522
 40
0.4347826086956522
 40
0.4347826086956522
 40
0.4347826086956522
 40
0.4782608695652174
 40
0.4782608695652174
 40
0.4782608695652174
 40
0.4782608695652174
 40
0.5217391304347826
 40
0.5217391304347826
 40
0.5217391304347826
 40
0.5217391304347826
 40
0.5652173913043478
 40
0.5652173913043478
 40
0.5652173913043478
 40
0.5652173913043478
 40
0.6086956521739131
 40
0.6086956521739131
 40
0.6086956521739131
 40
0.6086956521739131
 40
0.6521739130434783
 40
0.6521739130434783
 40
0.6521739130434783
 40
0.6521739130434783
 40
0.6956521739130435
 40
0.6956521739130435
 40
0.6956521739130435
 40
0.6956521739130435
 40
0.7391304347826086
 40
0.7391304347826086
 40
0.7391304347826086
 40
0.7391304347826086
 40
0.782608695652174
 40
0.782608695652174
 40
0.782608695652174
 40
0.782608695652174
 40
0.8260869565217391
 40
0.8260869565217391
 40
0.8260869565217391
 40
0.8260869565217391
 40
0.8695652173913043
 40
0.8695652173913043
 40
0.8695652173913043
 40
0.8695652173913043
 40
0.9130434782608695
 40
0.9130434782608695
 40
0.9130434782608695
 40
0.9130434782608695
 40
1.0
 40
1.0
 40
1.0
 40
1.0
 10
-15.0023
 20
2.7421
 30
0.0
 10
-15.0023
 20
2.7421
 30
0.0
 10
-14.7638
 20
2.7421
 30
0.0
 10
-14.7638
 20
2.7421
 30
0.0
 10
-14.7638
 20
2.7421
 30
0.0
 10
-14.7638
 20
2.7421
 30
0.0
 10
-14.7638
 20
1.4067
 30
0.0
 10
-14.7638
 20
1.4067
 30
0.0
 10
-14.7638
 20
1.4067
 30
0.0
 10
-14.8235
 20
1.4047
 30
0.0
 10
-14.8809
 20
1.4141
 30
0.0
 10
-14.9359
 20
1.4353
 30
0.0
 10
-14.9359
 20
1.4353
 30
0.0
 10
-15.0272
 20
1.4692
 30
0.0
 10
-15.1165
 20
1.5237
 30
0.0
 10
-15.2051
 20
1.5985
 30
0.0
 10
-15.2051
 20
1.5985
 30
0.0
 10
-15.293
 20
1.6738
 30
0.0
 10
-15.3951
 20
1.782
 30
0.0
 10
-15.5108
 20
1.9231
 30
0.0
 10
-15.5108
 20
1.9231
 30
0.0
 10
-15.6909
 20
2.1427
 30
0.0
 10
-15.8335
 20
2.2915
 30
0.0
 10
-15.9388
 20
2.3685
 30
0.0
 10
-15.9388
 20
2.3685
 30
0.0
 10
-16.0438
 20
2.4457
 30
0.0
 10
-16.1434
 20
2.4843
 30
0.0
 10
-16.2371
 20
2.4843
 30
0.0
 10
-16.2371
 20
2.4843
 30
0.0
 10
-16.3354
 20
2.4843
 30
0.0
 10
-16.4182
 20
2.449
 30
0.0
 10
-16.4859
 20
2.379
 30
0.0
 10
-16.4859
 20
2.379
 30
0.0
 10
-16.5531
 20
2.3083
 30
0.0
 10
-16.5871
 20
2.2167
 30
0.0
 10
-16.5871
 20
2.1037
 30
0.0
 10
-16.5871
 20
2.1037
 30
0.0
 10
-16.5871
 20
1.9843
 30
0.0
 10
-16.5513
 20
1.8887
 30
0.0
 10
-16.4793
 20
1.8173
 30
0.0
 10
-16.4793
 20
1.8173
 30
0.0
 10
-16.4078
 20
1.7453
 30
0.0
 10
-16.3085
 20
1.7092
 30
0.0
 10
-16.1821
 20
1.7081
 30
0.0
 10
-16.1821
 20
1.7081
 30
0.0
 10
-16.1821
 20
1.7081
 30
0.0
 10
-16.208
 20
1.4532
 30
0.0
 10
-16.208
 20
1.4532
 30
0.0
 10
-16.208
 20
1.4532
 30
0.0
 10
-16.3984
 20
1.4706
 30
0.0
 10
-16.5433
 20
1.5365
 30
0.0
 10
-16.643
 20
1.6503
 30
0.0
 10
-16.643
 20
1.6503
 30
0.0
 10
-16.7428
 20
1.7641
 30
0.0
 10
-16.7926
 20
1.9175
 30
0.0
 10
-16.7926
 20
2.1094
 30
0.0
 10
-16.7926
 20
2.1094
 30
0.0
 10
-16.7926
 20
2.3032
 30
0.0
 10
-16.7384
 20
2.4566
 30
0.0
 10
-16.6312
 20
2.5694
 30
0.0
 10
-16.6312
 20
2.5694
 30
0.0
 10
-16.5235
 20
2.6828
 30
0.0
 10
-16.3904
 20
2.7393
 30
0.0
 10
-16.2315
 20
2.7393
 30
0.0
 10
-16.2315
 20
2.7393
 30
0.0
 10
-16.1505
 20
2.7393
 30
0.0
 10
-16.071
 20
2.7227
 30
0.0
 10
-15.993
 20
2.6894
 30
0.0
 10
-15.993
 20
2.6894
 30
0.0
 10
-15.9149
 20
2.6565
 30
0.0
 10
-15.8325
 20
2.6014
 30
0.0
 10
-15.7464
 20
2.5247
 30
0.0
 10
-15.7464
 20
2.5247
 30
0.0
 10
-15.6598
 20
2.4481
 30
0.0
 10
-15.5414
 20
2.3206
 30
0.0
 10
-15.3908
 20
2.1424
 30
0.0
 10
-15.3908
 20
2.1424
 30
0.0
 10
-15.2657
 20
1.9937
 30
0.0
 10
-15.1811
 20
1.8981
 30
0.0
 10
-15.1364
 20
1.8558
 30
0.0
 10
-15.1364
 20
1.8558
 30
0.0
 10
-15.0921
 20
1.8135
 30
0.0
 10
-15.0475
 20
1.7788
 30
0.0
 10
-15.0023
 20
1.7509
 30
0.0
 10
-15.0023
 20
1.7509
 30
0.0
 10
-15.0023
 20
1.7509
 30
0.0
 10
-15.0023
 20
2.7421
 30
0.0
 10
-15.0023
 20
2.7421
 30
0.0
  0
SPLINE
  5
5E
330
1F
100
AcDbEntity
  8
VRSTVA_1
 62
   250
100
AcDbSpline
210
0.0
220
0.0
230
1.0
 70
    11
 71
     3
 72
    92
 73
    88
 74
     0
 42
0.0000000001
 43
0.0000000001
 40
0.0
 40
0.0
 40
0.0
 40
0.0
 40
0.0434782608695652
 40
0.0434782608695652
 40
0.0434782608695652
 40
0.0434782608695652
 40
0.0869565217391304
 40
0.0869565217391304
 40
0.0869565217391304
 40
0.0869565217391304
 40
0.1304347826086956
 40
0.1304347826086956
 40
0.1304347826086956
 40
0.1304347826086956
 40
0.1739130434782609
 40
0.1739130434782609
 40
0.1739130434782609
 40
0.1739130434782609
 40
0.2173913043478261
 40
0.2173913043478261
 40
0.2173913043478261
 40
0.2173913043478261
 40
0.2608695652173913
 40
0.2608695652173913
 40
0.2608695652173913
 40
0.2608695652173913
 40
0.3043478260869565
 40
0.3043478260869565
 40
0.3043478260869565
 40
0.3043478260869565
 40
0.3478260869565217
 40
0.3478260869565217
 40
0.3478260869565217
 40
0.3478260869565217
 40
0.391304347826087
 40
0.391304347826087
 40
0.391304347826087
 40
0.391304347826087
 40
0.4347826086956522
 40
0.4347826086956522
 40
0.4347826086956522
 40
0.4347826086956522
 40
0.4782608695652174
 40
0.4782608695652174
 40
0.4782608695652174
 40
0.4782608695652174
 40
0.5217391304347826
 40
0.5217391304347826
 40
0.5217391304347826
 40
0.5217391304347826
 40
0.5652173913043478
 40
0.5652173913043478
 40
0.5652173913043478
 40
0.5652173913043478
 40
0.6086956521739131
 40
0.6086956521739131
 40
0.6086956521739131
 40
0.6086956521739131
 40
0.6521739130434783
 40
0.6521739130434783
 40
0.6521739130434783
 40
0.6521739130434783
 40
0.6956521739130435
 40
0.6956521739130435
 40
0.6956521739130435
 40
0.6956521739130435
 40
0.7391304347826086
 40
0.7391304347826086
 40
0.7391304347826086
 40
0.7391304347826086
 40
0.782608695652174
 40
0.782608695652174
 40
0.782608695652174
 40
0.782608695652174
 40
0.8260869565217391
 40
0.8260869565217391
 40
0.8260869565217391
 40
0.8260869565217391
 40
0.8695652173913043
 40
0.8695652173913043
 40
0.8695652173913043
 40
0.8695652173913043
 40
0.9130434782608695
 40
0.9130434782608695
 40
0.9130434782608695
 40
0.9130434782608695
 40
1.0
 40
1.0
 40
1.0
 40
1.0
 10
-15.0023
 20
4.3117
 30
0.0
 10
-15.0023
 20
4.3117
 30
0.0
 10
-14.7638
 20
4.3117
 30
0.0
 10
-14.7638
 20
4.3117
 30
0.0
 10
-14.7638
 20
4.3117
 30
0.0
 10
-14.7638
 20
4.3117
 30
0.0
 10
-14.7638
 20
2.9764
 30
0.0
 10
-14.7638
 20
2.9764
 30
0.0
 10
-14.7638
 20
2.9764
 30
0.0
 10
-14.8235
 20
2.9744
 30
0.0
 10
-14.8809
 20
2.9838
 30
0.0
 10
-14.9359
 20
3.005
 30
0.0
 10
-14.9359
 20
3.005
 30
0.0
 10
-15.0272
 20
3.0389
 30
0.0
 10
-15.1165
 20
3.0934
 30
0.0
 10
-15.2051
 20
3.1682
 30
0.0
 10
-15.2051
 20
3.1682
 30
0.0
 10
-15.293
 20
3.2434
 30
0.0
 10
-15.3951
 20
3.3517
 30
0.0
 10
-15.5108
 20
3.4927
 30
0.0
 10
-15.5108
 20
3.4927
 30
0.0
 10
-15.6909
 20
3.7124
 30
0.0
 10
-15.8335
 20
3.8612
 30
0.0
 10
-15.9388
 20
3.9382
 30
0.0
 10
-15.9388
 20
3.9382
 30
0.0
 10
-16.0438
 20
4.0154
 30
0.0
 10
-16.1434
 20
4.0539
 30
0.0
 10
-16.2371
 20
4.0539
 30
0.0
 10
-16.2371
 20
4.0539
 30
0.0
 10
-16.3354
 20
4.0539
 30
0.0
 10
-16.4182
 20
4.0187
 30
0.0
 10
-16.4859
 20
3.9487
 30
0.0
 10
-16.4859
 20
3.9487
 30
0.0
 10
-16.5531
 20
3.878
 30
0.0
 10
-16.5871
 20
3.7863
 30
0.0
 10
-16.5871
 20
3.6734
 30
0.0
 10
-16.5871
 20
3.6734
 30
0.0
 10
-16.5871
 20
3.554
 30
0.0
 10
-16.5513
 20
3.4584
 30
0.0
 10
-16.4793
 20
3.387
 30
0.0
 10
-16.4793
 20
3.387
 30
0.0
 10
-16.4078
 20
3.315
 30
0.0
 10
-16.3085
 20
3.2788
 30
0.0
 10
-16.1821
 20
3.2778
 30
0.0
 10
-16.1821
 20
3.2778
 30
0.0
 10
-16.1821
 20
3.2778
 30
0.0
 10
-16.208
 20
3.0228
 30
0.0
 10
-16.208
 20
3.0228
 30
0.0
 10
-16.208
 20
3.0228
 30
0.0
 10
-16.3984
 20
3.0402
 30
0.0
 10
-16.5433
 20
3.1062
 30
0.0
 10
-16.643
 20
3.2199
 30
0.0
 10
-16.643
 20
3.2199
 30
0.0
 10
-16.7428
 20
3.3338
 30
0.0
 10
-16.7926
 20
3.4871
 30
0.0
 10
-16.7926
 20
3.6791
 30
0.0
 10
-16.7926
 20
3.6791
 30
0.0
 10
-16.7926
 20
3.8729
 30
0.0
 10
-16.7384
 20
4.0262
 30
0.0
 10
-16.6312
 20
4.1391
 30
0.0
 10
-16.6312
 20
4.1391
 30
0.0
 10
-16.5235
 20
4.2524
 30
0.0
 10
-16.3904
 20
4.309
 30
0.0
 10
-16.2315
 20
4.309
 30
0.0
 10
-16.2315
 20
4.309
 30
0.0
 10
-16.1505
 20
4.309
 30
0.0
 10
-16.071
 20
4.2924
 30
0.0
 10
-15.993
 20
4.2591
 30
0.0
 10
-15.993
 20
4.2591
 30
0.0
 10
-15.9149
 20
4.2262
 30
0.0
 10
-15.8325
 20
4.1711
 30
0.0
 10
-15.7464
 20
4.0944
 30
0.0
 10
-15.7464
 20
4.0944
 30
0.0
 10
-15.6598
 20
4.0177
 30
0.0
 10
-15.5414
 20
3.8903
 30
0.0
 10
-15.3908
 20
3.712
 30
0.0
 10
-15.3908
 20
3.712
 30
0.0
 10
-15.2657
 20
3.5634
 30
0.0
 10
-15.1811
 20
3.4678
 30
0.0
 10
-15.1364
 20
3.4255
 30
0.0
 10
-15.1364
 20
3.4255
 30
0.0
 10
-15.0921
 20
3.3832
 30
0.0
 10
-15.0475
 20
3.3484
 30
0.0
 10
-15.0023
 20
3.3206
 30
0.0
 10
-15.0023
 20
3.3206
 30
0.0
 10
-15.0023
 20
3.3206
 30
0.0
 10
-15.0023
 20
4.3117
 30
0.0
 10
-15.0023
 20
4.3117
 30
0.0
  0
SPLINE
  5
5F
330
1F
100
AcDbEntity
  8
VRSTVA_1
 62
   250
100
AcDbSpline
210
0.0
220
0.0
230
1.0
 70
    11
 71
     3
 72
    68
 73
    64
 74
     0
 42
0.0000000001
 43
0.0000000001
 40
0.0
 40
0.0
 40
0.0
 40
0.0
 40
0.0588235294117647
 40
0.0588235294117647
 40
0.0588235294117647
 40
0.0588235294117647
 40
0.1176470588235294
 40
0.1176470588235294
 40
0.1176470588235294
 40
0.1176470588235294
 40
0.1764705882352941
 40
0.1764705882352941
 40
0.1764705882352941
 40
0.1764705882352941
 40
0.2352941176470588
 40
0.2352941176470588
 40
0.2352941176470588
 40
0.2352941176470588
 40
0.2941176470588235
 40
0.2941176470588235
 40
0.2941176470588235
 40
0.2941176470588235
 40
0.3529411764705883
 40
0.3529411764705883
 40
0.3529411764705883
 40
0.3529411764705883
 40
0.4117647058823529
 40
0.4117647058823529
 40
0.4117647058823529
 40
0.4117647058823529
 40
0.4705882352941176
 40
0.4705882352941176
 40
0.4705882352941176
 40
0.4705882352941176
 40
0.5294117647058824
 40
0.5294117647058824
 40
0.5294117647058824
 40
0.5294117647058824
 40
0.5882352941176471
 40
0.5882352941176471
 40
0.5882352941176471
 40
0.5882352941176471
 40
0.6470588235294118
 40
0.6470588235294118
 40
0.6470588235294118
 40
0.6470588235294118
 40
0.7058823529411765
 40
0.7058823529411765
 40
0.7058823529411765
 40
0.7058823529411765
 40
0.7647058823529411
 40
0.7647058823529411
 40
0.7647058823529411
 40
0.7647058823529411
 40
0.8235294117647058
 40
0.8235294117647058
 40
0.8235294117647058
 40
0.8235294117647058
 40
0.8823529411764706
 40
0.8823529411764706
 40
0.8823529411764706
 40
0.8823529411764706
 40
1.0
 40
1.0
 40
1.0
 40
1.0
 10
-15.8594
 20
4.9595
 30
0.0
 10
-15.897
 20
4.8564
 30
0.0
 10
-15.9505
 20
4.7802
 30
0.0
 10
-16.0207
 20
4.7303
 30
0.0
 10
-16.0207
 20
4.7303
 30
0.0
 10
-16.0903
 20
4.6809
 30
0.0
 10
-16.174
 20
4.656
 30
0.0
 10
-16.2714
 20
4.656
 30
0.0
 10
-16.2714
 20
4.656
 30
0.0
 10
-16.4186
 20
4.656
 30
0.0
 10
-16.5419
 20
4.7087
 30
0.0
 10
-16.6421
 20
4.8145
 30
0.0
 10
-16.6421
 20
4.8145
 30
0.0
 10
-16.7422
 20
4.9204
 30
0.0
 10
-16.7926
 20
5.0606
 30
0.0
 10
-16.7926
 20
5.236
 30
0.0
 10
-16.7926
 20
5.236
 30
0.0
 10
-16.7926
 20
5.4124
 30
0.0
 10
-16.7413
 20
5.5545
 30
0.0
 10
-16.6388
 20
5.6622
 30
0.0
 10
-16.6388
 20
5.6622
 30
0.0
 10
-16.5363
 20
5.7695
 30
0.0
 10
-16.4116
 20
5.8231
 30
0.0
 10
-16.2644
 20
5.8231
 30
0.0
 10
-16.2644
 20
5.8231
 30
0.0
 10
-16.1707
 20
5.8231
 30
0.0
 10
-16.0894
 20
5.7986
 30
0.0
 10
-16.0198
 20
5.7497
 30
0.0
 10
-16.0198
 20
5.7497
 30
0.0
 10
-15.9505
 20
5.7002
 30
0.0
 10
-15.897
 20
5.6259
 30
0.0
 10
-15.8594
 20
5.5258
 30
0.0
 10
-15.8594
 20
5.5258
 30
0.0
 10
-15.8189
 20
5.6494
 30
0.0
 10
-15.754
 20
5.744
 30
0.0
 10
-15.6636
 20
5.8089
 30
0.0
 10
-15.6636
 20
5.8089
 30
0.0
 10
-15.5738
 20
5.8734
 30
0.0
 10
-15.4662
 20
5.9058
 30
0.0
 10
-15.3414
 20
5.9058
 30
0.0
 10
-15.3414
 20
5.9058
 30
0.0
 10
-15.1684
 20
5.9058
 30
0.0
 10
-15.0234
 20
5.8447
 30
0.0
 10
-14.9059
 20
5.7228
 30
0.0
 10
-14.9059
 20
5.7228
 30
0.0
 10
-14.7882
 20
5.6006
 30
0.0
 10
-14.7295
 20
5.4397
 30
0.0
 10
-14.7295
 20
5.2403
 30
0.0
 10
-14.7295
 20
5.2403
 30
0.0
 10
-14.7295
 20
5.0408
 30
0.0
 10
-14.7882
 20
4.8803
 30
0.0
 10
-14.9063
 20
4.7581
 30
0.0
 10
-14.9063
 20
4.7581
 30
0.0
 10
-15.0243
 20
4.6357
 30
0.0
 10
-15.1717
 20
4.5746
 30
0.0
 10
-15.348
 20
4.5746
 30
0.0
 10
-15.348
 20
4.5746
 30
0.0
 10
-15.4792
 20
4.5746
 30
0.0
 10
-15.5893
 20
4.608
 30
0.0
 10
-15.6782
 20
4.6748
 30
0.0
 10
-15.6782
 20
4.6748
 30
0.0
 10
-15.7667
 20
4.7411
 30
0.0
 10
-15.8274
 20
4.8362
 30
0.0
 10
-15.8594
 20
4.9595
 30
0.0
  0
SPLINE
  5
60
330
1F
100
AcDbEntity
  8
VRSTVA_1
 62
   250
100
AcDbSpline
210
0.0
220
0.0
230
1.0
 70
    11
 71
     3
 72
    36
 73
    32
 74
     0
 42
0.0000000001
 43
0.0000000001
 40
0.0
 40
0.0
 40
0.0
 40
0.0
 40
0.1111111111111111
 40
0.1111111111111111
 40
0.1111111111111111
 40
0.1111111111111111
 40
0.2222222222222222
 40
0.2222222222222222
 40
0.2222222222222222
 40
0.2222222222222222
 40
0.3333333333333333
 40
0.3333333333333333
 40
0.3333333333333333
 40
0.3333333333333333
 40
0.4444444444444444
 40
0.4444444444444444
 40
0.4444444444444444
 40
0.4444444444444444
 40
0.5555555555555556
 40
0.5555555555555556
 40
0.5555555555555556
 40
0.5555555555555556
 40
0.6666666666666666
 40
0.6666666666666666
 40
0.6666666666666666
 40
0.6666666666666666
 40
0.7777777777777778
 40
0.7777777777777778
 40
0.7777777777777778
 40
0.7777777777777778
 40
1.0
 40
1.0
 40
1.0
 40
1.0
 10
-16.2799
 20
4.9096
 30
0.0
 10
-16.1844
 20
4.9096
 30
0.0
 10
-16.1064
 20
4.9405
 30
0.0
 10
-16.0456
 20
5.0018
 30
0.0
 10
-16.0456
 20
5.0018
 30
0.0
 10
-15.9849
 20
5.0634
 30
0.0
 10
-15.9543
 20
5.1434
 30
0.0
 10
-15.9543
 20
5.2417
 30
0.0
 10
-15.9543
 20
5.2417
 30
0.0
 10
-15.9543
 20
5.3372
 30
0.0
 10
-15.9845
 20
5.4157
 30
0.0
 10
-16.0447
 20
5.4769
 30
0.0
 10
-16.0447
 20
5.4769
 30
0.0
 10
-16.1049
 20
5.538
 30
0.0
 10
-16.1787
 20
5.5681
 30
0.0
 10
-16.2658
 20
5.5681
 30
0.0
 10
-16.2658
 20
5.5681
 30
0.0
 10
-16.357
 20
5.5681
 30
0.0
 10
-16.4332
 20
5.5371
 30
0.0
 10
-16.4953
 20
5.474
 30
0.0
 10
-16.4953
 20
5.474
 30
0.0
 10
-16.5574
 20
5.411
 30
0.0
 10
-16.5885
 20
5.3329
 30
0.0
 10
-16.5885
 20
5.2388
 30
0.0
 10
-16.5885
 20
5.2388
 30
0.0
 10
-16.5885
 20
5.1443
 30
0.0
 10
-16.5578
 20
5.0658
 30
0.0
 10
-16.4976
 20
5.0032
 30
0.0
 10
-16.4976
 20
5.0032
 30
0.0
 10
-16.437
 20
4.9405
 30
0.0
 10
-16.364
 20
4.9096
 30
0.0
 10
-16.2799
 20
4.9096
 30
0.0
  0
SPLINE
  5
61
330
1F
100
AcDbEntity
  8
VRSTVA_1
 62
   250
100
AcDbSpline
210
0.0
220
0.0
230
1.0
 70
    11
 71
     3
 72
    40
 73
    36
 74
     0
 42
0.0000000001
 43
0.0000000001
 40
0.0
 40
0.0
 40
0.0
 40
0.0
 40
0.1
 40
0.1
 40
0.1
 40
0.1
 40
0.2
 40
0.2
 40
0.2
 40
0.2
 40
0.3
 40
0.3
 40
0.3
 40
0.3
 40
0.4
 40
0.4
 40
0.4
 40
0.4
 40
0.5
 40
0.5
 40
0.5
 40
0.5
 40
0.6
 40
0.6
 40
0.6
 40
0.6
 40
0.7
 40
0.7
 40
0.7
 40
0.7
 40
0.8
 40
0.8
 40
0.8
 40
0.8
 40
1.0
 40
1.0
 40
1.0
 40
1.0
 10
-15.3467
 20
4.8295
 30
0.0
 10
-15.276
 20
4.8295
 30
0.0
 10
-15.2074
 20
4.8465
 30
0.0
 10
-15.1415
 20
4.8799
 30
0.0
 10
-15.1415
 20
4.8799
 30
0.0
 10
-15.0751
 20
4.9134
 30
0.0
 10
-15.024
 20
4.9631
 30
0.0
 10
-14.9876
 20
5.0295
 30
0.0
 10
-14.9876
 20
5.0295
 30
0.0
 10
-14.9515
 20
5.0958
 30
0.0
 10
-14.9332
 20
5.1669
 30
0.0
 10
-14.9332
 20
5.243
 30
0.0
 10
-14.9332
 20
5.243
 30
0.0
 10
-14.9332
 20
5.3616
 30
0.0
 10
-14.9712
 20
5.4594
 30
0.0
 10
-15.048
 20
5.5366
 30
0.0
 10
-15.048
 20
5.5366
 30
0.0
 10
-15.1241
 20
5.6138
 30
0.0
 10
-15.221
 20
5.6523
 30
0.0
 10
-15.3386
 20
5.6523
 30
0.0
 10
-15.3386
 20
5.6523
 30
0.0
 10
-15.4581
 20
5.6523
 30
0.0
 10
-15.5569
 20
5.6127
 30
0.0
 10
-15.635
 20
5.5333
 30
0.0
 10
-15.635
 20
5.5333
 30
0.0
 10
-15.713
 20
5.4538
 30
0.0
 10
-15.752
 20
5.354
 30
0.0
 10
-15.752
 20
5.2347
 30
0.0
 10
-15.752
 20
5.2347
 30
0.0
 10
-15.752
 20
5.1179
 30
0.0
 10
-15.7135
 20
5.0215
 30
0.0
 10
-15.6363
 20
4.9449
 30
0.0
 10
-15.6363
 20
4.9449
 30
0.0
 10
-15.5588
 20
4.8682
 30
0.0
 10
-15.4624
 20
4.8295
 30
0.0
 10
-15.3467
 20
4.8295
 30
0.0
  0
SPLINE
  5
62
330
1F
100
AcDbEntity
  8
VRSTVA_1
 62
   250
100
AcDbSpline
210
0.0
220
0.0
230
1.0
 70
    11
 71
     3
 72
    20
 73
    16
 74
     0
 42
0.0000000001
 43
0.0000000001
 40
0.0
 40
0.0
 40
0.0
 40
0.0
 40
0.2
 40
0.2
 40
0.2
 40
0.2
 40
0.4
 40
0.4
 40
0.4
 40
0.4
 40
0.6
 40
0.6
 40
0.6
 40
0.6
 40
1.0
 40
1.0
 40
1.0
 40
1.0
 10
-15.3702
 20
6.9034
 30
0.0
 10
-15.3702
 20
6.9034
 30
0.0
 10
-15.6195
 20
6.9034
 30
0.0
 10
-15.6195
 20
6.9034
 30
0.0
 10
-15.6195
 20
6.9034
 30
0.0
 10
-15.6195
 20
6.9034
 30
0.0
 10
-15.6195
 20
7.666
 30
0.0
 10
-15.6195
 20
7.666
 30
0.0
 10
-15.6195
 20
7.666
 30
0.0
 10
-15.6195
 20
7.666
 30
0.0
 10
-15.3702
 20
7.666
 30
0.0
 10
-15.3702
 20
7.666
 30
0.0
 10
-15.3702
 20
7.666
 30
0.0
 10
-15.3702
 20
7.666
 30
0.0
 10
-15.3702
 20
6.9034
 30
0.0
 10
-15.3702
 20
6.9034
 30
0.0
  0
SPLINE
  5
63
330
1F
100
AcDbEntity
  8
VRSTVA_1
 62
   250
100
AcDbSpline
210
0.0
220
0.0
230
1.0
 70
    11
 71
     3
 72
   124
 73
   120
 74
     0
 42
0.0000000001
 43
0.0000000001
 40
0.0
 40
0.0
 40
0.0
 40
0.0
 40
0.032258064516129
 40
0.032258064516129
 40
0.032258064516129
 40
0.032258064516129
 40
0.0645161290322581
 40
0.0645161290322581
 40
0.0645161290322581
 40
0.0645161290322581
 40
0.0967741935483871
 40
0.0967741935483871
 40
0.0967741935483871
 40
0.0967741935483871
 40
0.1290322580645161
 40
0.1290322580645161
 40
0.1290322580645161
 40
0.1290322580645161
 40
0.1612903225806452
 40
0.1612903225806452
 40
0.1612903225806452
 40
0.1612903225806452
 40
0.1935483870967742
 40
0.1935483870967742
 40
0.1935483870967742
 40
0.1935483870967742
 40
0.2258064516129032
 40
0.2258064516129032
 40
0.2258064516129032
 40
0.2258064516129032
 40
0.2580645161290323
 40
0.2580645161290323
 40
0.2580645161290323
 40
0.2580645161290323
 40
0.2903225806451613
 40
0.2903225806451613
 40
0.2903225806451613
 40
0.2903225806451613
 40
0.3225806451612903
 40
0.3225806451612903
 40
0.3225806451612903
 40
0.3225806451612903
 40
0.3548387096774194
 40
0.3548387096774194
 40
0.3548387096774194
 40
0.3548387096774194
 40
0.3870967741935484
 40
0.3870967741935484
 40
0.3870967741935484
 40
0.3870967741935484
 40
0.4193548387096774
 40
0.4193548387096774
 40
0.4193548387096774
 40
0.4193548387096774
 40
0.4516129032258064
 40
0.4516129032258064
 40
0.4516129032258064
 40
0.4516129032258064
 40
0.4838709677419355
 40
0.4838709677419355
 40
0.4838709677419355
 40
0.4838709677419355
 40
0.5161290322580645
 40
0.5161290322580645
 40
0.5161290322580645
 40
0.5161290322580645
 40
0.5483870967741935
 40
0.5483870967741935
 40
0.5483870967741935
 40
0.5483870967741935
 40
0.5806451612903226
 40
0.5806451612903226
 40
0.5806451612903226
 40
0.5806451612903226
 40
0.6129032258064516
 40
0.6129032258064516
 40
0.6129032258064516
 40
0.6129032258064516
 40
0.6451612903225806
 40
0.6451612903225806
 40
0.6451612903225806
 40
0.6451612903225806
 40
0.6774193548387096
 40
0.6774193548387096
 40
0.6774193548387096
 40
0.6774193548387096
 40
0.7096774193548387
 40
0.7096774193548387
 40
0.7096774193548387
 40
0.7096774193548387
 40
0.7419354838709677
 40
0.7419354838709677
 40
0.7419354838709677
 40
0.7419354838709677
 40
0.7741935483870968
 40
0.7741935483870968
 40
0.7741935483870968
 40
0.7741935483870968
 40
0.8064516129032258
 40
0.8064516129032258
 40
0.8064516129032258
 40
0.8064516129032258
 40
0.8387096774193549
 40
0.8387096774193549
 40
0.8387096774193549
 40
0.8387096774193549
 40
0.8709677419354839
 40
0.8709677419354839
 40
0.8709677419354839
 40
0.8709677419354839
 40
0.9032258064516129
 40
0.9032258064516129
 40
0.9032258064516129
 40
0.9032258064516129
 40
0.9354838709677419
 40
0.9354838709677419
 40
0.9354838709677419
 40
0.9354838709677419
 40
1.0
 40
1.0
 40
1.0
 40
1.0
 10
-15.2972
 20
8.6566
 30
0.0
 10
-15.2972
 20
8.6566
 30
0.0
 10
-15.3302
 20
8.9045
 30
0.0
 10
-15.3302
 20
8.9045
 30
0.0
 10
-15.3302
 20
8.9045
 30
0.0
 10
-15.1896
 20
8.9332
 30
0.0
 10
-15.0883
 20
8.9816
 30
0.0
 10
-15.0263
 20
9.0498
 30
0.0
 10
-15.0263
 20
9.0498
 30
0.0
 10
-14.9641
 20
9.1185
 30
0.0
 10
-14.9332
 20
9.2017
 30
0.0
 10
-14.9332
 20
9.3
 30
0.0
 10
-14.9332
 20
9.3
 30
0.0
 10
-14.9332
 20
9.4167
 30
0.0
 10
-14.9735
 20
9.5155
 30
0.0
 10
-15.0545
 20
9.596
 30
0.0
 10
-15.0545
 20
9.596
 30
0.0
 10
-15.1354
 20
9.6759
 30
0.0
 10
-15.2357
 20
9.7164
 30
0.0
 10
-15.3551
 20
9.7164
 30
0.0
 10
-15.3551
 20
9.7164
 30
0.0
 10
-15.4689
 20
9.7164
 30
0.0
 10
-15.5631
 20
9.6792
 30
0.0
 10
-15.6368
 20
9.6049
 30
0.0
 10
-15.6368
 20
9.6049
 30
0.0
 10
-15.7106
 20
9.53
 30
0.0
 10
-15.7479
 20
9.4355
 30
0.0
 10
-15.7479
 20
9.3207
 30
0.0
 10
-15.7479
 20
9.3207
 30
0.0
 10
-15.7479
 20
9.2737
 30
0.0
 10
-15.7385
 20
9.2154
 30
0.0
 10
-15.7202
 20
9.1458
 30
0.0
 10
-15.7202
 20
9.1458
 30
0.0
 10
-15.7202
 20
9.1458
 30
0.0
 10
-15.9379
 20
9.1735
 30
0.0
 10
-15.9379
 20
9.1735
 30
0.0
 10
-15.9379
 20
9.1735
 30
0.0
 10
-15.9361
 20
9.1899
 30
0.0
 10
-15.9351
 20
9.2031
 30
0.0
 10
-15.9351
 20
9.2135
 30
0.0
 10
-15.9351
 20
9.2135
 30
0.0
 10
-15.9351
 20
9.3188
 30
0.0
 10
-15.9628
 20
9.4139
 30
0.0
 10
-16.0178
 20
9.4986
 30
0.0
 10
-16.0178
 20
9.4986
 30
0.0
 10
-16.0729
 20
9.5832
 30
0.0
 10
-16.1581
 20
9.6255
 30
0.0
 10
-16.2729
 20
9.6255
 30
0.0
 10
-16.2729
 20
9.6255
 30
0.0
 10
-16.3636
 20
9.6255
 30
0.0
 10
-16.4394
 20
9.5945
 30
0.0
 10
-16.4987
 20
9.5329
 30
0.0
 10
-16.4987
 20
9.5329
 30
0.0
 10
-16.5584
 20
9.4713
 30
0.0
 10
-16.5885
 20
9.3917
 30
0.0
 10
-16.5885
 20
9.2944
 30
0.0
 10
-16.5885
 20
9.2944
 30
0.0
 10
-16.5885
 20
9.1979
 30
0.0
 10
-16.5578
 20
9.1175
 30
0.0
 10
-16.4976
 20
9.0536
 30
0.0
 10
-16.4976
 20
9.0536
 30
0.0
 10
-16.437
 20
8.9891
 30
0.0
 10
-16.3457
 20
8.9477
 30
0.0
 10
-16.2244
 20
8.9294
 30
0.0
 10
-16.2244
 20
8.9294
 30
0.0
 10
-16.2244
 20
8.9294
 30
0.0
 10
-16.2686
 20
8.6815
 30
0.0
 10
-16.2686
 20
8.6815
 30
0.0
 10
-16.2686
 20
8.6815
 30
0.0
 10
-16.4351
 20
8.7116
 30
0.0
 10
-16.564
 20
8.7808
 30
0.0
 10
-16.6553
 20
8.888
 30
0.0
 10
-16.6553
 20
8.888
 30
0.0
 10
-16.7465
 20
8.9957
 30
0.0
 10
-16.7926
 20
9.1294
 30
0.0
 10
-16.7926
 20
9.2892
 30
0.0
 10
-16.7926
 20
9.2892
 30
0.0
 10
-16.7926
 20
9.3993
 30
0.0
 10
-16.7686
 20
9.5009
 30
0.0
 10
-16.7216
 20
9.5936
 30
0.0
 10
-16.7216
 20
9.5936
 30
0.0
 10
-16.6741
 20
9.6862
 30
0.0
 10
-16.6097
 20
9.7573
 30
0.0
 10
-16.5278
 20
9.8066
 30
0.0
 10
-16.5278
 20
9.8066
 30
0.0
 10
-16.4459
 20
9.8556
 30
0.0
 10
-16.3593
 20
9.8806
 30
0.0
 10
-16.2671
 20
9.8806
 30
0.0
 10
-16.2671
 20
9.8806
 30
0.0
 10
-16.1801
 20
9.8806
 30
0.0
 10
-16.1006
 20
9.857
 30
0.0
 10
-16.0286
 20
9.8099
 30
0.0
 10
-16.0286
 20
9.8099
 30
0.0
 10
-15.9572
 20
9.7629
 30
0.0
 10
-15.9003
 20
9.6938
 30
0.0
 10
-15.858
 20
9.602
 30
0.0
 10
-15.858
 20
9.602
 30
0.0
 10
-15.8307
 20
9.7215
 30
0.0
 10
-15.7733
 20
9.8142
 30
0.0
 10
-15.6862
 20
9.8806
 30
0.0
 10
-15.6862
 20
9.8806
 30
0.0
 10
-15.5996
 20
9.9464
 30
0.0
 10
-15.491
 20
9.9793
 30
0.0
 10
-15.3608
 20
9.9793
 30
0.0
 10
-15.3608
 20
9.9793
 30
0.0
 10
-15.1843
 20
9.9793
 30
0.0
 10
-15.0348
 20
9.9153
 30
0.0
 10
-14.912
 20
9.7864
 30
0.0
 10
-14.912
 20
9.7864
 30
0.0
 10
-14.7891
 20
9.658
 30
0.0
 10
-14.728
 20
9.4953
 30
0.0
 10
-14.728
 20
9.2986
 30
0.0
 10
-14.728
 20
9.2986
 30
0.0
 10
-14.728
 20
9.1213
 30
0.0
 10
-14.7808
 20
8.9741
 30
0.0
 10
-14.8866
 20
8.8569
 30
0.0
 10
-14.8866
 20
8.8569
 30
0.0
 10
-14.992
 20
8.7398
 30
0.0
 10
-15.1288
 20
8.673
 30
0.0
 10
-15.2972
 20
8.6566
 30
0.0
  0
SPLINE
  5
64
330
1F
100
AcDbEntity
  8
VRSTVA_1
 62
   250
100
AcDbSpline
210
0.0
220
0.0
230
1.0
 70
    11
 71
     3
 72
    52
 73
    48
 74
     0
 42
0.0000000001
 43
0.0000000001
 40
0.0
 40
0.0
 40
0.0
 40
0.0
 40
0.0769230769230769
 40
0.0769230769230769
 40
0.0769230769230769
 40
0.0769230769230769
 40
0.1538461538461539
 40
0.1538461538461539
 40
0.1538461538461539
 40
0.1538461538461539
 40
0.2307692307692308
 40
0.2307692307692308
 40
0.2307692307692308
 40
0.2307692307692308
 40
0.3076923076923077
 40
0.3076923076923077
 40
0.3076923076923077
 40
0.3076923076923077
 40
0.3846153846153846
 40
0.3846153846153846
 40
0.3846153846153846
 40
0.3846153846153846
 40
0.4615384615384616
 40
0.4615384615384616
 40
0.4615384615384616
 40
0.4615384615384616
 40
0.5384615384615384
 40
0.5384615384615384
 40
0.5384615384615384
 40
0.5384615384615384
 40
0.6153846153846154
 40
0.6153846153846154
 40
0.6153846153846154
 40
0.6153846153846154
 40
0.6923076923076923
 40
0.6923076923076923
 40
0.6923076923076923
 40
0.6923076923076923
 40
0.7692307692307693
 40
0.7692307692307693
 40
0.7692307692307693
 40
0.7692307692307693
 40
0.8461538461538461
 40
0.8461538461538461
 40
0.8461538461538461
 40
0.8461538461538461
 40
1.0
 40
1.0
 40
1.0
 40
1.0
 10
-15.7601
 20
10.2248
 30
0.0
 10
-15.999
 20
10.2248
 30
0.0
 10
-16.1915
 20
10.2492
 30
0.0
 10
-16.3369
 20
10.2986
 30
0.0
 10
-16.3369
 20
10.2986
 30
0.0
 10
-16.4826
 20
10.3476
 30
0.0
 10
-16.595
 20
10.421
 30
0.0
 10
-16.6741
 20
10.5179
 30
0.0
 10
-16.6741
 20
10.5179
 30
0.0
 10
-16.7531
 20
10.6148
 30
0.0
 10
-16.7926
 20
10.7366
 30
0.0
 10
-16.7926
 20
10.8833
 30
0.0
 10
-16.7926
 20
10.8833
 30
0.0
 10
-16.7926
 20
10.9919
 30
0.0
 10
-16.7704
 20
11.087
 30
0.0
 10
-16.7267
 20
11.1689
 30
0.0
 10
-16.7267
 20
11.1689
 30
0.0
 10
-16.6835
 20
11.2507
 30
0.0
 10
-16.6204
 20
11.318
 30
0.0
 10
-16.5381
 20
11.3716
 30
0.0
 10
-16.5381
 20
11.3716
 30
0.0
 10
-16.4558
 20
11.4247
 30
0.0
 10
-16.3557
 20
11.4667
 30
0.0
 10
-16.2376
 20
11.4967
 30
0.0
 10
-16.2376
 20
11.4967
 30
0.0
 10
-16.1194
 20
11.5273
 30
0.0
 10
-15.9605
 20
11.5424
 30
0.0
 10
-15.7601
 20
11.5424
 30
0.0
 10
-15.7601
 20
11.5424
 30
0.0
 10
-15.523
 20
11.5424
 30
0.0
 10
-15.332
 20
11.5179
 30
0.0
 10
-15.1862
 20
11.4694
 30
0.0
 10
-15.1862
 20
11.4694
 30
0.0
 10
-15.0404
 20
11.4206
 30
0.0
 10
-14.928
 20
11.3476
 30
0.0
 10
-14.8484
 20
11.2507
 30
0.0
 10
-14.8484
 20
11.2507
 30
0.0
 10
-14.769
 20
11.1538
 30
0.0
 10
-14.7295
 20
11.0315
 30
0.0
 10
-14.7295
 20
10.8833
 30
0.0
 10
-14.7295
 20
10.8833
 30
0.0
 10
-14.7295
 20
10.6886
 30
0.0
 10
-14.7991
 20
10.5358
 30
0.0
 10
-14.9388
 20
10.4248
 30
0.0
 10
-14.9388
 20
10.4248
 30
0.0
 10
-15.1068
 20
10.2915
 30
0.0
 10
-15.381
 20
10.2248
 30
0.0
 10
-15.7601
 20
10.2248
 30
0.0
  0
SPLINE
  5
65
330
1F
100
AcDbEntity
  8
VRSTVA_1
 62
   250
100
AcDbSpline
210
0.0
220
0.0
230
1.0
 70
    11
 71
     3
 72
    36
 73
    32
 74
     0
 42
0.0000000001
 43
0.0000000001
 40
0.0
 40
0.0
 40
0.0
 40
0.0
 40
0.1111111111111111
 40
0.1111111111111111
 40
0.1111111111111111
 40
0.1111111111111111
 40
0.2222222222222222
 40
0.2222222222222222
 40
0.2222222222222222
 40
0.2222222222222222
 40
0.3333333333333333
 40
0.3333333333333333
 40
0.3333333333333333
 40
0.3333333333333333
 40
0.4444444444444444
 40
0.4444444444444444
 40
0.4444444444444444
 40
0.4444444444444444
 40
0.5555555555555556
 40
0.5555555555555556
 40
0.5555555555555556
 40
0.5555555555555556
 40
0.6666666666666666
 40
0.6666666666666666
 40
0.6666666666666666
 40
0.6666666666666666
 40
0.7777777777777778
 40
0.7777777777777778
 40
0.7777777777777778
 40
0.7777777777777778
 40
1.0
 40
1.0
 40
1.0
 40
1.0
 10
-15.7601
 20
10.4797
 30
0.0
 10
-15.4284
 20
10.4797
 30
0.0
 10
-15.2078
 20
10.5188
 30
0.0
 10
-15.0977
 20
10.5964
 30
0.0
 10
-15.0977
 20
10.5964
 30
0.0
 10
-14.9882
 20
10.6741
 30
0.0
 10
-14.9332
 20
10.7695
 30
0.0
 10
-14.9332
 20
10.8833
 30
0.0
 10
-14.9332
 20
10.8833
 30
0.0
 10
-14.9332
 20
10.9977
 30
0.0
 10
-14.9887
 20
11.0932
 30
0.0
 10
-15.0988
 20
11.1707
 30
0.0
 10
-15.0988
 20
11.1707
 30
0.0
 10
-15.2087
 20
11.2483
 30
0.0
 10
-15.4295
 20
11.2874
 30
0.0
 10
-15.7601
 20
11.2874
 30
0.0
 10
-15.7601
 20
11.2874
 30
0.0
 10
-16.0926
 20
11.2874
 30
0.0
 10
-16.3137
 20
11.2483
 30
0.0
 10
-16.4229
 20
11.1707
 30
0.0
 10
-16.4229
 20
11.1707
 30
0.0
 10
-16.5325
 20
11.0932
 30
0.0
 10
-16.5871
 20
10.9966
 30
0.0
 10
-16.5871
 20
10.8809
 30
0.0
 10
-16.5871
 20
10.8809
 30
0.0
 10
-16.5871
 20
10.7667
 30
0.0
 10
-16.5386
 20
10.6759
 30
0.0
 10
-16.4421
 20
10.6077
 30
0.0
 10
-16.4421
 20
10.6077
 30
0.0
 10
-16.3194
 20
10.5226
 30
0.0
 10
-16.0917
 20
10.4797
 30
0.0
 10
-15.7601
 20
10.4797
 30
0.0
  0
SPLINE
  5
66
330
1F
100
AcDbEntity
  8
VRSTVA_1
 62
   250
100
AcDbSpline
210
0.0
220
0.0
230
1.0
 70
    11
 71
     3
 72
    68
 73
    64
 74
     0
 42
0.0000000001
 43
0.0000000001
 40
0.0
 40
0.0
 40
0.0
 40
0.0
 40
0.0588235294117647
 40
0.0588235294117647
 40
0.0588235294117647
 40
0.0588235294117647
 40
0.1176470588235294
 40
0.1176470588235294
 40
0.1176470588235294
 40
0.1176470588235294
 40
0.1764705882352941
 40
0.1764705882352941
 40
0.1764705882352941
 40
0.1764705882352941
 40
0.2352941176470588
 40
0.2352941176470588
 40
0.2352941176470588
 40
0.2352941176470588
 40
0.2941176470588235
 40
0.2941176470588235
 40
0.2941176470588235
 40
0.2941176470588235
 40
0.3529411764705883
 40
0.3529411764705883
 40
0.3529411764705883
 40
0.3529411764705883
 40
0.4117647058823529
 40
0.4117647058823529
 40
0.4117647058823529
 40
0.4117647058823529
 40
0.4705882352941176
 40
0.4705882352941176
 40
0.4705882352941176
 40
0.4705882352941176
 40
0.5294117647058824
 40
0.5294117647058824
 40
0.5294117647058824
 40
0.5294117647058824
 40
0.5882352941176471
 40
0.5882352941176471
 40
0.5882352941176471
 40
0.5882352941176471
 40
0.6470588235294118
 40
0.6470588235294118
 40
0.6470588235294118
 40
0.6470588235294118
 40
0.7058823529411765
 40
0.7058823529411765
 40
0.7058823529411765
 40
0.7058823529411765
 40
0.7647058823529411
 40
0.7647058823529411
 40
0.7647058823529411
 40
0.7647058823529411
 40
0.8235294117647058
 40
0.8235294117647058
 40
0.8235294117647058
 40
0.8235294117647058
 40
0.8823529411764706
 40
0.8823529411764706
 40
0.8823529411764706
 40
0.8823529411764706
 40
1.0
 40
1.0
 40
1.0
 40
1.0
 10
-15.8594
 20
12.1765
 30
0.0
 10
-15.897
 20
12.0734
 30
0.0
 10
-15.9505
 20
11.9972
 30
0.0
 10
-16.0207
 20
11.9473
 30
0.0
 10
-16.0207
 20
11.9473
 30
0.0
 10
-16.0903
 20
11.8979
 30
0.0
 10
-16.174
 20
11.873
 30
0.0
 10
-16.2714
 20
11.873
 30
0.0
 10
-16.2714
 20
11.873
 30
0.0
 10
-16.4186
 20
11.873
 30
0.0
 10
-16.5419
 20
11.9257
 30
0.0
 10
-16.6421
 20
12.0315
 30
0.0
 10
-16.6421
 20
12.0315
 30
0.0
 10
-16.7422
 20
12.1374
 30
0.0
 10
-16.7926
 20
12.2775
 30
0.0
 10
-16.7926
 20
12.4529
 30
0.0
 10
-16.7926
 20
12.4529
 30
0.0
 10
-16.7926
 20
12.6294
 30
0.0
 10
-16.7413
 20
12.7715
 30
0.0
 10
-16.6388
 20
12.8792
 30
0.0
 10
-16.6388
 20
12.8792
 30
0.0
 10
-16.5363
 20
12.9864
 30
0.0
 10
-16.4116
 20
13.0401
 30
0.0
 10
-16.2644
 20
13.0401
 30
0.0
 10
-16.2644
 20
13.0401
 30
0.0
 10
-16.1707
 20
13.0401
 30
0.0
 10
-16.0894
 20
13.0156
 30
0.0
 10
-16.0198
 20
12.9667
 30
0.0
 10
-16.0198
 20
12.9667
 30
0.0
 10
-15.9505
 20
12.9172
 30
0.0
 10
-15.897
 20
12.8429
 30
0.0
 10
-15.8594
 20
12.7427
 30
0.0
 10
-15.8594
 20
12.7427
 30
0.0
 10
-15.8189
 20
12.8664
 30
0.0
 10
-15.754
 20
12.961
 30
0.0
 10
-15.6636
 20
13.0259
 30
0.0
 10
-15.6636
 20
13.0259
 30
0.0
 10
-15.5738
 20
13.0904
 30
0.0
 10
-15.4662
 20
13.1228
 30
0.0
 10
-15.3414
 20
13.1228
 30
0.0
 10
-15.3414
 20
13.1228
 30
0.0
 10
-15.1684
 20
13.1228
 30
0.0
 10
-15.0234
 20
13.0617
 30
0.0
 10
-14.9059
 20
12.9398
 30
0.0
 10
-14.9059
 20
12.9398
 30
0.0
 10
-14.7882
 20
12.8176
 30
0.0
 10
-14.7295
 20
12.6567
 30
0.0
 10
-14.7295
 20
12.4573
 30
0.0
 10
-14.7295
 20
12.4573
 30
0.0
 10
-14.7295
 20
12.2578
 30
0.0
 10
-14.7882
 20
12.0973
 30
0.0
 10
-14.9063
 20
11.9751
 30
0.0
 10
-14.9063
 20
11.9751
 30
0.0
 10
-15.0243
 20
11.8527
 30
0.0
 10
-15.1717
 20
11.7916
 30
0.0
 10
-15.348
 20
11.7916
 30
0.0
 10
-15.348
 20
11.7916
 30
0.0
 10
-15.4792
 20
11.7916
 30
0.0
 10
-15.5893
 20
11.825
 30
0.0
 10
-15.6782
 20
11.8918
 30
0.0
 10
-15.6782
 20
11.8918
 30
0.0
 10
-15.7667
 20
11.9581
 30
0.0
 10
-15.8274
 20
12.0532
 30
0.0
 10
-15.8594
 20
12.1765
 30
0.0
  0
SPLINE
  5
67
330
1F
100
AcDbEntity
  8
VRSTVA_1
 62
   250
100
AcDbSpline
210
0.0
220
0.0
230
1.0
 70
    11
 71
     3
 72
    36
 73
    32
 74
     0
 42
0.0000000001
 43
0.0000000001
 40
0.0
 40
0.0
 40
0.0
 40
0.0
 40
0.1111111111111111
 40
0.1111111111111111
 40
0.1111111111111111
 40
0.1111111111111111
 40
0.2222222222222222
 40
0.2222222222222222
 40
0.2222222222222222
 40
0.2222222222222222
 40
0.3333333333333333
 40
0.3333333333333333
 40
0.3333333333333333
 40
0.3333333333333333
 40
0.4444444444444444
 40
0.4444444444444444
 40
0.4444444444444444
 40
0.4444444444444444
 40
0.5555555555555556
 40
0.5555555555555556
 40
0.5555555555555556
 40
0.5555555555555556
 40
0.6666666666666666
 40
0.6666666666666666
 40
0.6666666666666666
 40
0.6666666666666666
 40
0.7777777777777778
 40
0.7777777777777778
 40
0.7777777777777778
 40
0.7777777777777778
 40
1.0
 40
1.0
 40
1.0
 40
1.0
 10
-16.2799
 20
12.1266
 30
0.0
 10
-16.1844
 20
12.1266
 30
0.0
 10
-16.1064
 20
12.1575
 30
0.0
 10
-16.0456
 20
12.2188
 30
0.0
 10
-16.0456
 20
12.2188
 30
0.0
 10
-15.9849
 20
12.2804
 30
0.0
 10
-15.9543
 20
12.3603
 30
0.0
 10
-15.9543
 20
12.4587
 30
0.0
 10
-15.9543
 20
12.4587
 30
0.0
 10
-15.9543
 20
12.5542
 30
0.0
 10
-15.9845
 20
12.6326
 30
0.0
 10
-16.0447
 20
12.6939
 30
0.0
 10
-16.0447
 20
12.6939
 30
0.0
 10
-16.1049
 20
12.755
 30
0.0
 10
-16.1787
 20
12.7851
 30
0.0
 10
-16.2658
 20
12.7851
 30
0.0
 10
-16.2658
 20
12.7851
 30
0.0
 10
-16.357
 20
12.7851
 30
0.0
 10
-16.4332
 20
12.7541
 30
0.0
 10
-16.4953
 20
12.691
 30
0.0
 10
-16.4953
 20
12.691
 30
0.0
 10
-16.5574
 20
12.6279
 30
0.0
 10
-16.5885
 20
12.5498
 30
0.0
 10
-16.5885
 20
12.4558
 30
0.0
 10
-16.5885
 20
12.4558
 30
0.0
 10
-16.5885
 20
12.3613
 30
0.0
 10
-16.5578
 20
12.2828
 30
0.0
 10
-16.4976
 20
12.2202
 30
0.0
 10
-16.4976
 20
12.2202
 30
0.0
 10
-16.437
 20
12.1575
 30
0.0
 10
-16.364
 20
12.1266
 30
0.0
 10
-16.2799
 20
12.1266
 30
0.0
  0
SPLINE
  5
68
330
1F
100
AcDbEntity
  8
VRSTVA_1
 62
   250
100
AcDbSpline
210
0.0
220
0.0
230
1.0
 70
    11
 71
     3
 72
    40
 73
    36
 74
     0
 42
0.0000000001
 43
0.0000000001
 40
0.0
 40
0.0
 40
0.0
 40
0.0
 40
0.1
 40
0.1
 40
0.1
 40
0.1
 40
0.2
 40
0.2
 40
0.2
 40
0.2
 40
0.3
 40
0.3
 40
0.3
 40
0.3
 40
0.4
 40
0.4
 40
0.4
 40
0.4
 40
0.5
 40
0.5
 40
0.5
 40
0.5
 40
0.6
 40
0.6
 40
0.6
 40
0.6
 40
0.7
 40
0.7
 40
0.7
 40
0.7
 40
0.8
 40
0.8
 40
0.8
 40
0.8
 40
1.0
 40
1.0
 40
1.0
 40
1.0
 10
-15.3467
 20
12.0465
 30
0.0
 10
-15.276
 20
12.0465
 30
0.0
 10
-15.2074
 20
12.0635
 30
0.0
 10
-15.1415
 20
12.0969
 30
0.0
 10
-15.1415
 20
12.0969
 30
0.0
 10
-15.0751
 20
12.1304
 30
0.0
 10
-15.024
 20
12.1801
 30
0.0
 10
-14.9876
 20
12.2465
 30
0.0
 10
-14.9876
 20
12.2465
 30
0.0
 10
-14.9515
 20
12.3128
 30
0.0
 10
-14.9332
 20
12.3839
 30
0.0
 10
-14.9332
 20
12.46
 30
0.0
 10
-14.9332
 20
12.46
 30
0.0
 10
-14.9332
 20
12.5786
 30
0.0
 10
-14.9712
 20
12.6764
 30
0.0
 10
-15.048
 20
12.7536
 30
0.0
 10
-15.048
 20
12.7536
 30
0.0
 10
-15.1241
 20
12.8308
 30
0.0
 10
-15.221
 20
12.8693
 30
0.0
 10
-15.3386
 20
12.8693
 30
0.0
 10
-15.3386
 20
12.8693
 30
0.0
 10
-15.4581
 20
12.8693
 30
0.0
 10
-15.5569
 20
12.8297
 30
0.0
 10
-15.635
 20
12.7503
 30
0.0
 10
-15.635
 20
12.7503
 30
0.0
 10
-15.713
 20
12.6708
 30
0.0
 10
-15.752
 20
12.571
 30
0.0
 10
-15.752
 20
12.4516
 30
0.0
 10
-15.752
 20
12.4516
 30
0.0
 10
-15.752
 20
12.3349
 30
0.0
 10
-15.7135
 20
12.2385
 30
0.0
 10
-15.6363
 20
12.1618
 30
0.0
 10
-15.6363
 20
12.1618
 30
0.0
 10
-15.5588
 20
12.0852
 30
0.0
 10
-15.4624
 20
12.0465
 30
0.0
 10
-15.3467
 20
12.0465
 30
0.0
  0
SPLINE
  5
69
330
1F
100
AcDbEntity
  8
VRSTVA_1
 62
   250
100
AcDbSpline
210
0.0
220
0.0
230
1.0
 70
    11
 71
     3
 72
    84
 73
    80
 74
     0
 42
0.0000000001
 43
0.0000000001
 40
0.0
 40
0.0
 40
0.0
 40
0.0
 40
0.0476190476190476
 40
0.0476190476190476
 40
0.0476190476190476
 40
0.0476190476190476
 40
0.0952380952380952
 40
0.0952380952380952
 40
0.0952380952380952
 40
0.0952380952380952
 40
0.1428571428571428
 40
0.1428571428571428
 40
0.1428571428571428
 40
0.1428571428571428
 40
0.1904761904761905
 40
0.1904761904761905
 40
0.1904761904761905
 40
0.1904761904761905
 40
0.2380952380952381
 40
0.2380952380952381
 40
0.2380952380952381
 40
0.2380952380952381
 40
0.2857142857142857
 40
0.2857142857142857
 40
0.2857142857142857
 40
0.2857142857142857
 40
0.3333333333333333
 40
0.3333333333333333
 40
0.3333333333333333
 40
0.3333333333333333
 40
0.3809523809523809
 40
0.3809523809523809
 40
0.3809523809523809
 40
0.3809523809523809
 40
0.4285714285714285
 40
0.4285714285714285
 40
0.4285714285714285
 40
0.4285714285714285
 40
0.4761904761904762
 40
0.4761904761904762
 40
0.4761904761904762
 40
0.4761904761904762
 40
0.5238095238095238
 40
0.5238095238095238
 40
0.5238095238095238
 40
0.5238095238095238
 40
0.5714285714285714
 40
0.5714285714285714
 40
0.5714285714285714
 40
0.5714285714285714
 40
0.6190476190476191
 40
0.6190476190476191
 40
0.6190476190476191
 40
0.6190476190476191
 40
0.6666666666666666
 40
0.6666666666666666
 40
0.6666666666666666
 40
0.6666666666666666
 40
0.7142857142857143
 40
0.7142857142857143
 40
0.7142857142857143
 40
0.7142857142857143
 40
0.7619047619047619
 40
0.7619047619047619
 40
0.7619047619047619
 40
0.7619047619047619
 40
0.8095238095238095
 40
0.8095238095238095
 40
0.8095238095238095
 40
0.8095238095238095
 40
0.8571428571428571
 40
0.8571428571428571
 40
0.8571428571428571
 40
0.8571428571428571
 40
0.9047619047619048
 40
0.9047619047619048
 40
0.9047619047619048
 40
0.9047619047619048
 40
1.0
 40
1.0
 40
1.0
 40
1.0
 10
4.2751
 20
2.3216
 30
0.0
 10
4.2751
 20
2.3216
 30
0.0
 10
4.5065
 20
2.5809
 30
0.0
 10
4.5065
 20
2.5809
 30
0.0
 10
4.5065
 20
2.5809
 30
0.0
 10
4.5065
 20
2.5809
 30
0.0
 10
4.643
 20
2.4652
 30
0.0
 10
4.643
 20
2.4652
 30
0.0
 10
4.643
 20
2.4652
 30
0.0
 10
4.643
 20
2.4652
 30
0.0
 10
4.4007
 20
2.1923
 30
0.0
 10
4.4007
 20
2.1923
 30
0.0
 10
4.4007
 20
2.1923
 30
0.0
 10
4.4797
 20
2.0747
 30
0.0
 10
4.5329
 20
1.9718
 30
0.0
 10
4.5606
 20
1.8837
 30
0.0
 10
4.5606
 20
1.8837
 30
0.0
 10
4.5973
 20
1.768
 30
0.0
 10
4.6157
 20
1.6382
 30
0.0
 10
4.6157
 20
1.4952
 30
0.0
 10
4.6157
 20
1.4952
 30
0.0
 10
4.6157
 20
1.2882
 30
0.0
 10
4.5738
 20
1.1038
 30
0.0
 10
4.4901
 20
0.9425
 30
0.0
 10
4.4901
 20
0.9425
 30
0.0
 10
4.4063
 20
0.7807
 30
0.0
 10
4.2892
 20
0.6583
 30
0.0
 10
4.1382
 20
0.5755
 30
0.0
 10
4.1382
 20
0.5755
 30
0.0
 10
3.9867
 20
0.4933
 30
0.0
 10
3.8264
 20
0.4519
 30
0.0
 10
3.6566
 20
0.4519
 30
0.0
 10
3.6566
 20
0.4519
 30
0.0
 10
3.5295
 20
0.4519
 30
0.0
 10
3.4147
 20
0.4697
 30
0.0
 10
3.3117
 20
0.5055
 30
0.0
 10
3.3117
 20
0.5055
 30
0.0
 10
3.2327
 20
0.5332
 30
0.0
 10
3.1405
 20
0.586
 30
0.0
 10
3.0347
 20
0.6639
 30
0.0
 10
3.0347
 20
0.6639
 30
0.0
 10
3.0347
 20
0.6639
 30
0.0
 10
2.8032
 20
0.4048
 30
0.0
 10
2.8032
 20
0.4048
 30
0.0
 10
2.8032
 20
0.4048
 30
0.0
 10
2.8032
 20
0.4048
 30
0.0
 10
2.6668
 20
0.5205
 30
0.0
 10
2.6668
 20
0.5205
 30
0.0
 10
2.6668
 20
0.5205
 30
0.0
 10
2.6668
 20
0.5205
 30
0.0
 10
2.9096
 20
0.7919
 30
0.0
 10
2.9096
 20
0.7919
 30
0.0
 10
2.9096
 20
0.7919
 30
0.0
 10
2.8192
 20
0.9288
 30
0.0
 10
2.759
 20
1.0459
 30
0.0
 10
2.7289
 20
1.1428
 30
0.0
 10
2.7289
 20
1.1428
 30
0.0
 10
2.6988
 20
1.2398
 30
0.0
 10
2.6832
 20
1.3564
 30
0.0
 10
2.6832
 20
1.4923
 30
0.0
 10
2.6832
 20
1.4923
 30
0.0
 10
2.6832
 20
1.6998
 30
0.0
 10
2.7246
 20
1.8846
 30
0.0
 10
2.8074
 20
2.047
 30
0.0
 10
2.8074
 20
2.047
 30
0.0
 10
2.8902
 20
2.2093
 30
0.0
 10
3.0059
 20
2.3321
 30
0.0
 10
3.1556
 20
2.4158
 30
0.0
 10
3.1556
 20
2.4158
 30
0.0
 10
3.3046
 20
2.499
 30
0.0
 10
3.4707
 20
2.5409
 30
0.0
 10
3.6537
 20
2.5409
 30
0.0
 10
3.6537
 20
2.5409
 30
0.0
 10
3.777
 20
2.5409
 30
0.0
 10
3.8846
 20
2.5248
 30
0.0
 10
3.9768
 20
2.4919
 30
0.0
 10
3.9768
 20
2.4919
 30
0.0
 10
4.069
 20
2.4595
 30
0.0
 10
4.1688
 20
2.4026
 30
0.0
 10
4.2751
 20
2.3216
 30
0.0
  0
SPLINE
  5
6A
330
1F
100
AcDbEntity
  8
VRSTVA_1
 62
   250
100
AcDbSpline
210
0.0
220
0.0
230
1.0
 70
    11
 71
     3
 72
    32
 73
    28
 74
     0
 42
0.0000000001
 43
0.0000000001
 40
0.0
 40
0.0
 40
0.0
 40
0.0
 40
0.125
 40
0.125
 40
0.125
 40
0.125
 40
0.25
 40
0.25
 40
0.25
 40
0.25
 40
0.375
 40
0.375
 40
0.375
 40
0.375
 40
0.5
 40
0.5
 40
0.5
 40
0.5
 40
0.625
 40
0.625
 40
0.625
 40
0.625
 40
0.75
 40
0.75
 40
0.75
 40
0.75
 40
1.0
 40
1.0
 40
1.0
 40
1.0
 10
4.11
 20
2.1359
 30
0.0
 10
4.0234
 20
2.2036
 30
0.0
 10
3.9477
 20
2.2502
 30
0.0
 10
3.8833
 20
2.2751
 30
0.0
 10
3.8833
 20
2.2751
 30
0.0
 10
3.8184
 20
2.2996
 30
0.0
 10
3.7421
 20
2.3122
 30
0.0
 10
3.6551
 20
2.3122
 30
0.0
 10
3.6551
 20
2.3122
 30
0.0
 10
3.4538
 20
2.3122
 30
0.0
 10
3.2878
 20
2.2441
 30
0.0
 10
3.156
 20
2.1077
 30
0.0
 10
3.156
 20
2.1077
 30
0.0
 10
3.0247
 20
1.9712
 30
0.0
 10
2.9589
 20
1.7675
 30
0.0
 10
2.9589
 20
1.4961
 30
0.0
 10
2.9589
 20
1.4961
 30
0.0
 10
2.9589
 20
1.3898
 30
0.0
 10
2.9692
 20
1.2953
 30
0.0
 10
2.9895
 20
1.2125
 30
0.0
 10
2.9895
 20
1.2125
 30
0.0
 10
3.0041
 20
1.1508
 30
0.0
 10
3.0347
 20
1.0751
 30
0.0
 10
3.0817
 20
0.9853
 30
0.0
 10
3.0817
 20
0.9853
 30
0.0
 10
3.0817
 20
0.9853
 30
0.0
 10
4.11
 20
2.1359
 30
0.0
 10
4.11
 20
2.1359
 30
0.0
  0
SPLINE
  5
6B
330
1F
100
AcDbEntity
  8
VRSTVA_1
 62
   250
100
AcDbSpline
210
0.0
220
0.0
230
1.0
 70
    11
 71
     3
 72
    28
 73
    24
 74
     0
 42
0.0000000001
 43
0.0000000001
 40
0.0
 40
0.0
 40
0.0
 40
0.0
 40
0.1428571428571428
 40
0.1428571428571428
 40
0.1428571428571428
 40
0.1428571428571428
 40
0.2857142857142857
 40
0.2857142857142857
 40
0.2857142857142857
 40
0.2857142857142857
 40
0.4285714285714285
 40
0.4285714285714285
 40
0.4285714285714285
 40
0.4285714285714285
 40
0.5714285714285714
 40
0.5714285714285714
 40
0.5714285714285714
 40
0.5714285714285714
 40
0.7142857142857143
 40
0.7142857142857143
 40
0.7142857142857143
 40
0.7142857142857143
 40
1.0
 40
1.0
 40
1.0
 40
1.0
 10
4.2229
 20
1.9938
 30
0.0
 10
4.2229
 20
1.9938
 30
0.0
 10
3.1988
 20
0.8474
 30
0.0
 10
3.1988
 20
0.8474
 30
0.0
 10
3.1988
 20
0.8474
 30
0.0
 10
3.2694
 20
0.7896
 30
0.0
 10
3.3348
 20
0.7491
 30
0.0
 10
3.3945
 20
0.7261
 30
0.0
 10
3.3945
 20
0.7261
 30
0.0
 10
3.4726
 20
0.6955
 30
0.0
 10
3.5573
 20
0.6805
 30
0.0
 10
3.6481
 20
0.6805
 30
0.0
 10
3.6481
 20
0.6805
 30
0.0
 10
3.8484
 20
0.6805
 30
0.0
 10
4.0135
 20
0.7511
 30
0.0
 10
4.1444
 20
0.8926
 30
0.0
 10
4.1444
 20
0.8926
 30
0.0
 10
4.2746
 20
1.0342
 30
0.0
 10
4.34
 20
1.2327
 30
0.0
 10
4.34
 20
1.4881
 30
0.0
 10
4.34
 20
1.4881
 30
0.0
 10
4.34
 20
1.6791
 30
0.0
 10
4.301
 20
1.8479
 30
0.0
 10
4.2229
 20
1.9938
 30
0.0
  0
SPLINE
  5
6C
330
1F
100
AcDbEntity
  8
VRSTVA_1
 62
   250
100
AcDbSpline
210
0.0
220
0.0
230
1.0
 70
    11
 71
     3
 72
    68
 73
    64
 74
     0
 42
0.0000000001
 43
0.0000000001
 40
0.0
 40
0.0
 40
0.0
 40
0.0
 40
0.0588235294117647
 40
0.0588235294117647
 40
0.0588235294117647
 40
0.0588235294117647
 40
0.1176470588235294
 40
0.1176470588235294
 40
0.1176470588235294
 40
0.1176470588235294
 40
0.1764705882352941
 40
0.1764705882352941
 40
0.1764705882352941
 40
0.1764705882352941
 40
0.2352941176470588
 40
0.2352941176470588
 40
0.2352941176470588
 40
0.2352941176470588
 40
0.2941176470588235
 40
0.2941176470588235
 40
0.2941176470588235
 40
0.2941176470588235
 40
0.3529411764705883
 40
0.3529411764705883
 40
0.3529411764705883
 40
0.3529411764705883
 40
0.4117647058823529
 40
0.4117647058823529
 40
0.4117647058823529
 40
0.4117647058823529
 40
0.4705882352941176
 40
0.4705882352941176
 40
0.4705882352941176
 40
0.4705882352941176
 40
0.5294117647058824
 40
0.5294117647058824
 40
0.5294117647058824
 40
0.5294117647058824
 40
0.5882352941176471
 40
0.5882352941176471
 40
0.5882352941176471
 40
0.5882352941176471
 40
0.6470588235294118
 40
0.6470588235294118
 40
0.6470588235294118
 40
0.6470588235294118
 40
0.7058823529411765
 40
0.7058823529411765
 40
0.7058823529411765
 40
0.7058823529411765
 40
0.7647058823529411
 40
0.7647058823529411
 40
0.7647058823529411
 40
0.7647058823529411
 40
0.8235294117647058
 40
0.8235294117647058
 40
0.8235294117647058
 40
0.8235294117647058
 40
0.8823529411764706
 40
0.8823529411764706
 40
0.8823529411764706
 40
0.8823529411764706
 40
1.0
 40
1.0
 40
1.0
 40
1.0
 10
5.247
 20
1.5818
 30
0.0
 10
5.144
 20
1.6194
 30
0.0
 10
5.0677
 20
1.6729
 30
0.0
 10
5.0178
 20
1.7431
 30
0.0
 10
5.0178
 20
1.7431
 30
0.0
 10
4.9684
 20
1.8127
 30
0.0
 10
4.9435
 20
1.8964
 30
0.0
 10
4.9435
 20
1.9938
 30
0.0
 10
4.9435
 20
1.9938
 30
0.0
 10
4.9435
 20
2.141
 30
0.0
 10
4.9963
 20
2.2643
 30
0.0
 10
5.102
 20
2.3645
 30
0.0
 10
5.102
 20
2.3645
 30
0.0
 10
5.208
 20
2.4646
 30
0.0
 10
5.3481
 20
2.515
 30
0.0
 10
5.5235
 20
2.515
 30
0.0
 10
5.5235
 20
2.515
 30
0.0
 10
5.6999
 20
2.515
 30
0.0
 10
5.842
 20
2.4637
 30
0.0
 10
5.9498
 20
2.3612
 30
0.0
 10
5.9498
 20
2.3612
 30
0.0
 10
6.057
 20
2.2587
 30
0.0
 10
6.1107
 20
2.134
 30
0.0
 10
6.1107
 20
1.9868
 30
0.0
 10
6.1107
 20
1.9868
 30
0.0
 10
6.1107
 20
1.8931
 30
0.0
 10
6.0861
 20
1.8118
 30
0.0
 10
6.0373
 20
1.7422
 30
0.0
 10
6.0373
 20
1.7422
 30
0.0
 10
5.9878
 20
1.6729
 30
0.0
 10
5.9134
 20
1.6194
 30
0.0
 10
5.8133
 20
1.5818
 30
0.0
 10
5.8133
 20
1.5818
 30
0.0
 10
5.937
 20
1.5413
 30
0.0
 10
6.0315
 20
1.4764
 30
0.0
 10
6.0964
 20
1.386
 30
0.0
 10
6.0964
 20
1.386
 30
0.0
 10
6.1609
 20
1.2962
 30
0.0
 10
6.1933
 20
1.1886
 30
0.0
 10
6.1933
 20
1.0638
 30
0.0
 10
6.1933
 20
1.0638
 30
0.0
 10
6.1933
 20
0.8908
 30
0.0
 10
6.1322
 20
0.7458
 30
0.0
 10
6.0104
 20
0.6283
 30
0.0
 10
6.0104
 20
0.6283
 30
0.0
 10
5.8881
 20
0.5106
 30
0.0
 10
5.7272
 20
0.4519
 30
0.0
 10
5.5278
 20
0.4519
 30
0.0
 10
5.5278
 20
0.4519
 30
0.0
 10
5.3284
 20
0.4519
 30
0.0
 10
5.1679
 20
0.5106
 30
0.0
 10
5.0456
 20
0.6287
 30
0.0
 10
5.0456
 20
0.6287
 30
0.0
 10
4.9233
 20
0.7467
 30
0.0
 10
4.8621
 20
0.8941
 30
0.0
 10
4.8621
 20
1.0704
 30
0.0
 10
4.8621
 20
1.0704
 30
0.0
 10
4.8621
 20
1.2016
 30
0.0
 10
4.8956
 20
1.3117
 30
0.0
 10
4.9623
 20
1.4006
 30
0.0
 10
4.9623
 20
1.4006
 30
0.0
 10
5.0286
 20
1.4891
 30
0.0
 10
5.1237
 20
1.5498
 30
0.0
 10
5.247
 20
1.5818
 30
0.0
  0
SPLINE
  5
6D
330
1F
100
AcDbEntity
  8
VRSTVA_1
 62
   250
100
AcDbSpline
210
0.0
220
0.0
230
1.0
 70
    11
 71
     3
 72
    36
 73
    32
 74
     0
 42
0.0000000001
 43
0.0000000001
 40
0.0
 40
0.0
 40
0.0
 40
0.0
 40
0.1111111111111111
 40
0.1111111111111111
 40
0.1111111111111111
 40
0.1111111111111111
 40
0.2222222222222222
 40
0.2222222222222222
 40
0.2222222222222222
 40
0.2222222222222222
 40
0.3333333333333333
 40
0.3333333333333333
 40
0.3333333333333333
 40
0.3333333333333333
 40
0.4444444444444444
 40
0.4444444444444444
 40
0.4444444444444444
 40
0.4444444444444444
 40
0.5555555555555556
 40
0.5555555555555556
 40
0.5555555555555556
 40
0.5555555555555556
 40
0.6666666666666666
 40
0.6666666666666666
 40
0.6666666666666666
 40
0.6666666666666666
 40
0.7777777777777778
 40
0.7777777777777778
 40
0.7777777777777778
 40
0.7777777777777778
 40
1.0
 40
1.0
 40
1.0
 40
1.0
 10
5.1971
 20
2.0023
 30
0.0
 10
5.1971
 20
1.9068
 30
0.0
 10
5.2281
 20
1.8287
 30
0.0
 10
5.2893
 20
1.768
 30
0.0
 10
5.2893
 20
1.768
 30
0.0
 10
5.351
 20
1.7073
 30
0.0
 10
5.4309
 20
1.6767
 30
0.0
 10
5.5292
 20
1.6767
 30
0.0
 10
5.5292
 20
1.6767
 30
0.0
 10
5.6247
 20
1.6767
 30
0.0
 10
5.7032
 20
1.7069
 30
0.0
 10
5.7644
 20
1.7671
 30
0.0
 10
5.7644
 20
1.7671
 30
0.0
 10
5.8256
 20
1.8273
 30
0.0
 10
5.8556
 20
1.9011
 30
0.0
 10
5.8556
 20
1.9882
 30
0.0
 10
5.8556
 20
1.9882
 30
0.0
 10
5.8556
 20
2.0794
 30
0.0
 10
5.8246
 20
2.1556
 30
0.0
 10
5.7616
 20
2.2177
 30
0.0
 10
5.7616
 20
2.2177
 30
0.0
 10
5.6985
 20
2.2798
 30
0.0
 10
5.6204
 20
2.3109
 30
0.0
 10
5.5264
 20
2.3109
 30
0.0
 10
5.5264
 20
2.3109
 30
0.0
 10
5.4318
 20
2.3109
 30
0.0
 10
5.3533
 20
2.2802
 30
0.0
 10
5.2908
 20
2.22
 30
0.0
 10
5.2908
 20
2.22
 30
0.0
 10
5.2281
 20
2.1594
 30
0.0
 10
5.1971
 20
2.0864
 30
0.0
 10
5.1971
 20
2.0023
 30
0.0
  0
SPLINE
  5
6E
330
1F
100
AcDbEntity
  8
VRSTVA_1
 62
   250
100
AcDbSpline
210
0.0
220
0.0
230
1.0
 70
    11
 71
     3
 72
    40
 73
    36
 74
     0
 42
0.0000000001
 43
0.0000000001
 40
0.0
 40
0.0
 40
0.0
 40
0.0
 40
0.1
 40
0.1
 40
0.1
 40
0.1
 40
0.2
 40
0.2
 40
0.2
 40
0.2
 40
0.3
 40
0.3
 40
0.3
 40
0.3
 40
0.4
 40
0.4
 40
0.4
 40
0.4
 40
0.5
 40
0.5
 40
0.5
 40
0.5
 40
0.6
 40
0.6
 40
0.6
 40
0.6
 40
0.7
 40
0.7
 40
0.7
 40
0.7
 40
0.8
 40
0.8
 40
0.8
 40
0.8
 40
1.0
 40
1.0
 40
1.0
 40
1.0
 10
5.1171
 20
1.0691
 30
0.0
 10
5.1171
 20
0.9984
 30
0.0
 10
5.134
 20
0.9298
 30
0.0
 10
5.1675
 20
0.8639
 30
0.0
 10
5.1675
 20
0.8639
 30
0.0
 10
5.2009
 20
0.7975
 30
0.0
 10
5.2507
 20
0.7464
 30
0.0
 10
5.317
 20
0.71
 30
0.0
 10
5.317
 20
0.71
 30
0.0
 10
5.3833
 20
0.6739
 30
0.0
 10
5.4544
 20
0.6556
 30
0.0
 10
5.5305
 20
0.6556
 30
0.0
 10
5.5305
 20
0.6556
 30
0.0
 10
5.6491
 20
0.6556
 30
0.0
 10
5.7469
 20
0.6936
 30
0.0
 10
5.8241
 20
0.7704
 30
0.0
 10
5.8241
 20
0.7704
 30
0.0
 10
5.9013
 20
0.8465
 30
0.0
 10
5.9398
 20
0.9434
 30
0.0
 10
5.9398
 20
1.061
 30
0.0
 10
5.9398
 20
1.061
 30
0.0
 10
5.9398
 20
1.1805
 30
0.0
 10
5.9003
 20
1.2793
 30
0.0
 10
5.8209
 20
1.3574
 30
0.0
 10
5.8209
 20
1.3574
 30
0.0
 10
5.7413
 20
1.4354
 30
0.0
 10
5.6415
 20
1.4744
 30
0.0
 10
5.5222
 20
1.4744
 30
0.0
 10
5.5222
 20
1.4744
 30
0.0
 10
5.4054
 20
1.4744
 30
0.0
 10
5.309
 20
1.4359
 30
0.0
 10
5.2324
 20
1.3587
 30
0.0
 10
5.2324
 20
1.3587
 30
0.0
 10
5.1557
 20
1.2812
 30
0.0
 10
5.1171
 20
1.1848
 30
0.0
 10
5.1171
 20
1.0691
 30
0.0
  0
SPLINE
  5
6F
330
1F
100
AcDbEntity
  8
VRSTVA_1
 62
   250
100
AcDbSpline
210
0.0
220
0.0
230
1.0
 70
    11
 71
     3
 72
    52
 73
    48
 74
     0
 42
0.0000000001
 43
0.0000000001
 40
0.0
 40
0.0
 40
0.0
 40
0.0
 40
0.0769230769230769
 40
0.0769230769230769
 40
0.0769230769230769
 40
0.0769230769230769
 40
0.1538461538461539
 40
0.1538461538461539
 40
0.1538461538461539
 40
0.1538461538461539
 40
0.2307692307692308
 40
0.2307692307692308
 40
0.2307692307692308
 40
0.2307692307692308
 40
0.3076923076923077
 40
0.3076923076923077
 40
0.3076923076923077
 40
0.3076923076923077
 40
0.3846153846153846
 40
0.3846153846153846
 40
0.3846153846153846
 40
0.3846153846153846
 40
0.4615384615384616
 40
0.4615384615384616
 40
0.4615384615384616
 40
0.4615384615384616
 40
0.5384615384615384
 40
0.5384615384615384
 40
0.5384615384615384
 40
0.5384615384615384
 40
0.6153846153846154
 40
0.6153846153846154
 40
0.6153846153846154
 40
0.6153846153846154
 40
0.6923076923076923
 40
0.6923076923076923
 40
0.6923076923076923
 40
0.6923076923076923
 40
0.7692307692307693
 40
0.7692307692307693
 40
0.7692307692307693
 40
0.7692307692307693
 40
0.8461538461538461
 40
0.8461538461538461
 40
0.8461538461538461
 40
0.8461538461538461
 40
1.0
 40
1.0
 40
1.0
 40
1.0
 10
6.4347
 20
1.4825
 30
0.0
 10
6.4347
 20
1.7214
 30
0.0
 10
6.4591
 20
1.9139
 30
0.0
 10
6.5085
 20
2.0593
 30
0.0
 10
6.5085
 20
2.0593
 30
0.0
 10
6.5574
 20
2.205
 30
0.0
 10
6.6308
 20
2.3174
 30
0.0
 10
6.7277
 20
2.3965
 30
0.0
 10
6.7277
 20
2.3965
 30
0.0
 10
6.8246
 20
2.4755
 30
0.0
 10
6.9465
 20
2.515
 30
0.0
 10
7.0931
 20
2.515
 30
0.0
 10
7.0931
 20
2.515
 30
0.0
 10
7.2018
 20
2.515
 30
0.0
 10
7.2969
 20
2.4928
 30
0.0
 10
7.3788
 20
2.4491
 30
0.0
 10
7.3788
 20
2.4491
 30
0.0
 10
7.4605
 20
2.4059
 30
0.0
 10
7.5279
 20
2.3428
 30
0.0
 10
7.5815
 20
2.2605
 30
0.0
 10
7.5815
 20
2.2605
 30
0.0
 10
7.6346
 20
2.1782
 30
0.0
 10
7.6765
 20
2.0781
 30
0.0
 10
7.7066
 20
1.96
 30
0.0
 10
7.7066
 20
1.96
 30
0.0
 10
7.7371
 20
1.8418
 30
0.0
 10
7.7523
 20
1.6829
 30
0.0
 10
7.7523
 20
1.4825
 30
0.0
 10
7.7523
 20
1.4825
 30
0.0
 10
7.7523
 20
1.2454
 30
0.0
 10
7.7277
 20
1.0544
 30
0.0
 10
7.6793
 20
0.9086
 30
0.0
 10
7.6793
 20
0.9086
 30
0.0
 10
7.6304
 20
0.7628
 30
0.0
 10
7.5574
 20
0.6504
 30
0.0
 10
7.4605
 20
0.5708
 30
0.0
 10
7.4605
 20
0.5708
 30
0.0
 10
7.3636
 20
0.4914
 30
0.0
 10
7.2414
 20
0.4519
 30
0.0
 10
7.0931
 20
0.4519
 30
0.0
 10
7.0931
 20
0.4519
 30
0.0
 10
6.8984
 20
0.4519
 30
0.0
 10
6.7456
 20
0.5215
 30
0.0
 10
6.6346
 20
0.6612
 30
0.0
 10
6.6346
 20
0.6612
 30
0.0
 10
6.5014
 20
0.8292
 30
0.0
 10
6.4347
 20
1.1034
 30
0.0
 10
6.4347
 20
1.4825
 30
0.0
  0
SPLINE
  5
70
330
1F
100
AcDbEntity
  8
VRSTVA_1
 62
   250
100
AcDbSpline
210
0.0
220
0.0
230
1.0
 70
    11
 71
     3
 72
    36
 73
    32
 74
     0
 42
0.0000000001
 43
0.0000000001
 40
0.0
 40
0.0
 40
0.0
 40
0.0
 40
0.1111111111111111
 40
0.1111111111111111
 40
0.1111111111111111
 40
0.1111111111111111
 40
0.2222222222222222
 40
0.2222222222222222
 40
0.2222222222222222
 40
0.2222222222222222
 40
0.3333333333333333
 40
0.3333333333333333
 40
0.3333333333333333
 40
0.3333333333333333
 40
0.4444444444444444
 40
0.4444444444444444
 40
0.4444444444444444
 40
0.4444444444444444
 40
0.5555555555555556
 40
0.5555555555555556
 40
0.5555555555555556
 40
0.5555555555555556
 40
0.6666666666666666
 40
0.6666666666666666
 40
0.6666666666666666
 40
0.6666666666666666
 40
0.7777777777777778
 40
0.7777777777777778
 40
0.7777777777777778
 40
0.7777777777777778
 40
1.0
 40
1.0
 40
1.0
 40
1.0
 10
6.6896
 20
1.4825
 30
0.0
 10
6.6896
 20
1.1508
 30
0.0
 10
6.7286
 20
0.9302
 30
0.0
 10
6.8062
 20
0.8201
 30
0.0
 10
6.8062
 20
0.8201
 30
0.0
 10
6.8839
 20
0.7106
 30
0.0
 10
6.9794
 20
0.6556
 30
0.0
 10
7.0931
 20
0.6556
 30
0.0
 10
7.0931
 20
0.6556
 30
0.0
 10
7.2075
 20
0.6556
 30
0.0
 10
7.303
 20
0.7111
 30
0.0
 10
7.3806
 20
0.8212
 30
0.0
 10
7.3806
 20
0.8212
 30
0.0
 10
7.4582
 20
0.9311
 30
0.0
 10
7.4972
 20
1.1519
 30
0.0
 10
7.4972
 20
1.4825
 30
0.0
 10
7.4972
 20
1.4825
 30
0.0
 10
7.4972
 20
1.815
 30
0.0
 10
7.4582
 20
2.0361
 30
0.0
 10
7.3806
 20
2.1453
 30
0.0
 10
7.3806
 20
2.1453
 30
0.0
 10
7.303
 20
2.2549
 30
0.0
 10
7.2065
 20
2.3095
 30
0.0
 10
7.0908
 20
2.3095
 30
0.0
 10
7.0908
 20
2.3095
 30
0.0
 10
6.9765
 20
2.3095
 30
0.0
 10
6.8858
 20
2.261
 30
0.0
 10
6.8176
 20
2.1645
 30
0.0
 10
6.8176
 20
2.1645
 30
0.0
 10
6.7324
 20
2.0418
 30
0.0
 10
6.6896
 20
1.8141
 30
0.0
 10
6.6896
 20
1.4825
 30
0.0
  0
SPLINE
  5
71
330
1F
100
AcDbEntity
  8
VRSTVA_1
 62
   250
100
AcDbSpline
210
0.0
220
0.0
230
1.0
 70
    11
 71
     3
 72
    84
 73
    80
 74
     0
 42
0.0000000001
 43
0.0000000001
 40
0.0
 40
0.0
 40
0.0
 40
0.0
 40
0.0476190476190476
 40
0.0476190476190476
 40
0.0476190476190476
 40
0.0476190476190476
 40
0.0952380952380952
 40
0.0952380952380952
 40
0.0952380952380952
 40
0.0952380952380952
 40
0.1428571428571428
 40
0.1428571428571428
 40
0.1428571428571428
 40
0.1428571428571428
 40
0.1904761904761905
 40
0.1904761904761905
 40
0.1904761904761905
 40
0.1904761904761905
 40
0.2380952380952381
 40
0.2380952380952381
 40
0.2380952380952381
 40
0.2380952380952381
 40
0.2857142857142857
 40
0.2857142857142857
 40
0.2857142857142857
 40
0.2857142857142857
 40
0.3333333333333333
 40
0.3333333333333333
 40
0.3333333333333333
 40
0.3333333333333333
 40
0.3809523809523809
 40
0.3809523809523809
 40
0.3809523809523809
 40
0.3809523809523809
 40
0.4285714285714285
 40
0.4285714285714285
 40
0.4285714285714285
 40
0.4285714285714285
 40
0.4761904761904762
 40
0.4761904761904762
 40
0.4761904761904762
 40
0.4761904761904762
 40
0.5238095238095238
 40
0.5238095238095238
 40
0.5238095238095238
 40
0.5238095238095238
 40
0.5714285714285714
 40
0.5714285714285714
 40
0.5714285714285714
 40
0.5714285714285714
 40
0.6190476190476191
 40
0.6190476190476191
 40
0.6190476190476191
 40
0.6190476190476191
 40
0.6666666666666666
 40
0.6666666666666666
 40
0.6666666666666666
 40
0.6666666666666666
 40
0.7142857142857143
 40
0.7142857142857143
 40
0.7142857142857143
 40
0.7142857142857143
 40
0.7619047619047619
 40
0.7619047619047619
 40
0.7619047619047619
 40
0.7619047619047619
 40
0.8095238095238095
 40
0.8095238095238095
 40
0.8095238095238095
 40
0.8095238095238095
 40
0.8571428571428571
 40
0.8571428571428571
 40
0.8571428571428571
 40
0.8571428571428571
 40
0.9047619047619048
 40
0.9047619047619048
 40
0.9047619047619048
 40
0.9047619047619048
 40
1.0
 40
1.0
 40
1.0
 40
1.0
 10
-6.5296
 20
-28.9944
 30
0.0
 10
-6.5296
 20
-28.9944
 30
0.0
 10
-6.2982
 20
-28.7351
 30
0.0
 10
-6.2982
 20
-28.7351
 30
0.0
 10
-6.2982
 20
-28.7351
 30
0.0
 10
-6.2982
 20
-28.7351
 30
0.0
 10
-6.1617
 20
-28.8508
 30
0.0
 10
-6.1617
 20
-28.8508
 30
0.0
 10
-6.1617
 20
-28.8508
 30
0.0
 10
-6.1617
 20
-28.8508
 30
0.0
 10
-6.404
 20
-29.1237
 30
0.0
 10
-6.404
 20
-29.1237
 30
0.0
 10
-6.404
 20
-29.1237
 30
0.0
 10
-6.325
 20
-29.2413
 30
0.0
 10
-6.2718
 20
-29.3442
 30
0.0
 10
-6.2441
 20
-29.4323
 30
0.0
 10
-6.2441
 20
-29.4323
 30
0.0
 10
-6.2074
 20
-29.548
 30
0.0
 10
-6.189
 20
-29.6778
 30
0.0
 10
-6.189
 20
-29.8208
 30
0.0
 10
-6.189
 20
-29.8208
 30
0.0
 10
-6.189
 20
-30.0278
 30
0.0
 10
-6.2309
 20
-30.2122
 30
0.0
 10
-6.3146
 20
-30.3735
 30
0.0
 10
-6.3146
 20
-30.3735
 30
0.0
 10
-6.3984
 20
-30.5353
 30
0.0
 10
-6.5155
 20
-30.6577
 30
0.0
 10
-6.6665
 20
-30.7405
 30
0.0
 10
-6.6665
 20
-30.7405
 30
0.0
 10
-6.818
 20
-30.8227
 30
0.0
 10
-6.9783
 20
-30.8641
 30
0.0
 10
-7.1481
 20
-30.8641
 30
0.0
 10
-7.1481
 20
-30.8641
 30
0.0
 10
-7.2752
 20
-30.8641
 30
0.0
 10
-7.39
 20
-30.8463
 30
0.0
 10
-7.493
 20
-30.8105
 30
0.0
 10
-7.493
 20
-30.8105
 30
0.0
 10
-7.572
 20
-30.7828
 30
0.0
 10
-7.6642
 20
-30.73
 30
0.0
 10
-7.77
 20
-30.6521
 30
0.0
 10
-7.77
 20
-30.6521
 30
0.0
 10
-7.77
 20
-30.6521
 30
0.0
 10
-8.0015
 20
-30.9112
 30
0.0
 10
-8.0015
 20
-30.9112
 30
0.0
 10
-8.0015
 20
-30.9112
 30
0.0
 10
-8.0015
 20
-30.9112
 30
0.0
 10
-8.1379
 20
-30.7955
 30
0.0
 10
-8.1379
 20
-30.7955
 30
0.0
 10
-8.1379
 20
-30.7955
 30
0.0
 10
-8.1379
 20
-30.7955
 30
0.0
 10
-7.8951
 20
-30.5241
 30
0.0
 10
-7.8951
 20
-30.5241
 30
0.0
 10
-7.8951
 20
-30.5241
 30
0.0
 10
-7.9855
 20
-30.3872
 30
0.0
 10
-8.0457
 20
-30.2701
 30
0.0
 10
-8.0758
 20
-30.1732
 30
0.0
 10
-8.0758
 20
-30.1732
 30
0.0
 10
-8.1059
 20
-30.0762
 30
0.0
 10
-8.1215
 20
-29.9596
 30
0.0
 10
-8.1215
 20
-29.8237
 30
0.0
 10
-8.1215
 20
-29.8237
 30
0.0
 10
-8.1215
 20
-29.6162
 30
0.0
 10
-8.0801
 20
-29.4314
 30
0.0
 10
-7.9973
 20
-29.269
 30
0.0
 10
-7.9973
 20
-29.269
 30
0.0
 10
-7.9145
 20
-29.1067
 30
0.0
 10
-7.7988
 20
-28.9839
 30
0.0
 10
-7.6491
 20
-28.9002
 30
0.0
 10
-7.6491
 20
-28.9002
 30
0.0
 10
-7.5001
 20
-28.817
 30
0.0
 10
-7.334
 20
-28.7751
 30
0.0
 10
-7.151
 20
-28.7751
 30
0.0
 10
-7.151
 20
-28.7751
 30
0.0
 10
-7.0277
 20
-28.7751
 30
0.0
 10
-6.9201
 20
-28.7912
 30
0.0
 10
-6.8279
 20
-28.8241
 30
0.0
 10
-6.8279
 20
-28.8241
 30
0.0
 10
-6.7357
 20
-28.8565
 30
0.0
 10
-6.6359
 20
-28.9134
 30
0.0
 10
-6.5296
 20
-28.9944
 30
0.0
  0
SPLINE
  5
72
330
1F
100
AcDbEntity
  8
VRSTVA_1
 62
   250
100
AcDbSpline
210
0.0
220
0.0
230
1.0
 70
    11
 71
     3
 72
    32
 73
    28
 74
     0
 42
0.0000000001
 43
0.0000000001
 40
0.0
 40
0.0
 40
0.0
 40
0.0
 40
0.125
 40
0.125
 40
0.125
 40
0.125
 40
0.25
 40
0.25
 40
0.25
 40
0.25
 40
0.375
 40
0.375
 40
0.375
 40
0.375
 40
0.5
 40
0.5
 40
0.5
 40
0.5
 40
0.625
 40
0.625
 40
0.625
 40
0.625
 40
0.75
 40
0.75
 40
0.75
 40
0.75
 40
1.0
 40
1.0
 40
1.0
 40
1.0
 10
-6.6947
 20
-29.1801
 30
0.0
 10
-6.7813
 20
-29.1124
 30
0.0
 10
-6.857
 20
-29.0658
 30
0.0
 10
-6.9214
 20
-29.0409
 30
0.0
 10
-6.9214
 20
-29.0409
 30
0.0
 10
-6.9863
 20
-29.0164
 30
0.0
 10
-7.0626
 20
-29.0038
 30
0.0
 10
-7.1496
 20
-29.0038
 30
0.0
 10
-7.1496
 20
-29.0038
 30
0.0
 10
-7.3509
 20
-29.0038
 30
0.0
 10
-7.5169
 20
-29.0719
 30
0.0
 10
-7.6487
 20
-29.2083
 30
0.0
 10
-7.6487
 20
-29.2083
 30
0.0
 10
-7.78
 20
-29.3448
 30
0.0
 10
-7.8458
 20
-29.5485
 30
0.0
 10
-7.8458
 20
-29.8199
 30
0.0
 10
-7.8458
 20
-29.8199
 30
0.0
 10
-7.8458
 20
-29.9262
 30
0.0
 10
-7.8355
 20
-30.0207
 30
0.0
 10
-7.8152
 20
-30.1035
 30
0.0
 10
-7.8152
 20
-30.1035
 30
0.0
 10
-7.8006
 20
-30.1652
 30
0.0
 10
-7.77
 20
-30.2409
 30
0.0
 10
-7.723
 20
-30.3307
 30
0.0
 10
-7.723
 20
-30.3307
 30
0.0
 10
-7.723
 20
-30.3307
 30
0.0
 10
-6.6947
 20
-29.1801
 30
0.0
 10
-6.6947
 20
-29.1801
 30
0.0
  0
SPLINE
  5
73
330
1F
100
AcDbEntity
  8
VRSTVA_1
 62
   250
100
AcDbSpline
210
0.0
220
0.0
230
1.0
 70
    11
 71
     3
 72
    28
 73
    24
 74
     0
 42
0.0000000001
 43
0.0000000001
 40
0.0
 40
0.0
 40
0.0
 40
0.0
 40
0.1428571428571428
 40
0.1428571428571428
 40
0.1428571428571428
 40
0.1428571428571428
 40
0.2857142857142857
 40
0.2857142857142857
 40
0.2857142857142857
 40
0.2857142857142857
 40
0.4285714285714285
 40
0.4285714285714285
 40
0.4285714285714285
 40
0.4285714285714285
 40
0.5714285714285714
 40
0.5714285714285714
 40
0.5714285714285714
 40
0.5714285714285714
 40
0.7142857142857143
 40
0.7142857142857143
 40
0.7142857142857143
 40
0.7142857142857143
 40
1.0
 40
1.0
 40
1.0
 40
1.0
 10
-6.5818
 20
-29.3222
 30
0.0
 10
-6.5818
 20
-29.3222
 30
0.0
 10
-7.6059
 20
-30.4686
 30
0.0
 10
-7.6059
 20
-30.4686
 30
0.0
 10
-7.6059
 20
-30.4686
 30
0.0
 10
-7.5353
 20
-30.5264
 30
0.0
 10
-7.4699
 20
-30.5669
 30
0.0
 10
-7.4102
 20
-30.5899
 30
0.0
 10
-7.4102
 20
-30.5899
 30
0.0
 10
-7.3321
 20
-30.6205
 30
0.0
 10
-7.2474
 20
-30.6355
 30
0.0
 10
-7.1566
 20
-30.6355
 30
0.0
 10
-7.1566
 20
-30.6355
 30
0.0
 10
-6.9563
 20
-30.6355
 30
0.0
 10
-6.7912
 20
-30.5649
 30
0.0
 10
-6.6603
 20
-30.4234
 30
0.0
 10
-6.6603
 20
-30.4234
 30
0.0
 10
-6.5301
 20
-30.2818
 30
0.0
 10
-6.4647
 20
-30.0833
 30
0.0
 10
-6.4647
 20
-29.8279
 30
0.0
 10
-6.4647
 20
-29.8279
 30
0.0
 10
-6.4647
 20
-29.6369
 30
0.0
 10
-6.5037
 20
-29.4681
 30
0.0
 10
-6.5818
 20
-29.3222
 30
0.0
  0
SPLINE
  5
74
330
1F
100
AcDbEntity
  8
VRSTVA_1
 62
   250
100
AcDbSpline
210
0.0
220
0.0
230
1.0
 70
    11
 71
     3
 72
    92
 73
    88
 74
     0
 42
0.0000000001
 43
0.0000000001
 40
0.0
 40
0.0
 40
0.0
 40
0.0
 40
0.0434782608695652
 40
0.0434782608695652
 40
0.0434782608695652
 40
0.0434782608695652
 40
0.0869565217391304
 40
0.0869565217391304
 40
0.0869565217391304
 40
0.0869565217391304
 40
0.1304347826086956
 40
0.1304347826086956
 40
0.1304347826086956
 40
0.1304347826086956
 40
0.1739130434782609
 40
0.1739130434782609
 40
0.1739130434782609
 40
0.1739130434782609
 40
0.2173913043478261
 40
0.2173913043478261
 40
0.2173913043478261
 40
0.2173913043478261
 40
0.2608695652173913
 40
0.2608695652173913
 40
0.2608695652173913
 40
0.2608695652173913
 40
0.3043478260869565
 40
0.3043478260869565
 40
0.3043478260869565
 40
0.3043478260869565
 40
0.3478260869565217
 40
0.3478260869565217
 40
0.3478260869565217
 40
0.3478260869565217
 40
0.391304347826087
 40
0.391304347826087
 40
0.391304347826087
 40
0.391304347826087
 40
0.4347826086956522
 40
0.4347826086956522
 40
0.4347826086956522
 40
0.4347826086956522
 40
0.4782608695652174
 40
0.4782608695652174
 40
0.4782608695652174
 40
0.4782608695652174
 40
0.5217391304347826
 40
0.5217391304347826
 40
0.5217391304347826
 40
0.5217391304347826
 40
0.5652173913043478
 40
0.5652173913043478
 40
0.5652173913043478
 40
0.5652173913043478
 40
0.6086956521739131
 40
0.6086956521739131
 40
0.6086956521739131
 40
0.6086956521739131
 40
0.6521739130434783
 40
0.6521739130434783
 40
0.6521739130434783
 40
0.6521739130434783
 40
0.6956521739130435
 40
0.6956521739130435
 40
0.6956521739130435
 40
0.6956521739130435
 40
0.7391304347826086
 40
0.7391304347826086
 40
0.7391304347826086
 40
0.7391304347826086
 40
0.782608695652174
 40
0.782608695652174
 40
0.782608695652174
 40
0.782608695652174
 40
0.8260869565217391
 40
0.8260869565217391
 40
0.8260869565217391
 40
0.8260869565217391
 40
0.8695652173913043
 40
0.8695652173913043
 40
0.8695652173913043
 40
0.8695652173913043
 40
0.9130434782608695
 40
0.9130434782608695
 40
0.9130434782608695
 40
0.9130434782608695
 40
1.0
 40
1.0
 40
1.0
 40
1.0
 10
-5.9397
 20
-30.3006
 30
0.0
 10
-5.9397
 20
-30.3006
 30
0.0
 10
-5.6792
 20
-30.2785
 30
0.0
 10
-5.6792
 20
-30.2785
 30
0.0
 10
-5.6792
 20
-30.2785
 30
0.0
 10
-5.6598
 20
-30.4055
 30
0.0
 10
-5.6152
 20
-30.5006
 30
0.0
 10
-5.545
 20
-30.5646
 30
0.0
 10
-5.545
 20
-30.5646
 30
0.0
 10
-5.4745
 20
-30.6284
 30
0.0
 10
-5.3899
 20
-30.6604
 30
0.0
 10
-5.2906
 20
-30.6604
 30
0.0
 10
-5.2906
 20
-30.6604
 30
0.0
 10
-5.1711
 20
-30.6604
 30
0.0
 10
-5.0699
 20
-30.6154
 30
0.0
 10
-4.9876
 20
-30.5255
 30
0.0
 10
-4.9876
 20
-30.5255
 30
0.0
 10
-4.9048
 20
-30.4351
 30
0.0
 10
-4.8634
 20
-30.3156
 30
0.0
 10
-4.8634
 20
-30.167
 30
0.0
 10
-4.8634
 20
-30.167
 30
0.0
 10
-4.8634
 20
-30.0254
 30
0.0
 10
-4.903
 20
-29.9139
 30
0.0
 10
-4.9824
 20
-29.8322
 30
0.0
 10
-4.9824
 20
-29.8322
 30
0.0
 10
-5.0619
 20
-29.7503
 30
0.0
 10
-5.1659
 20
-29.7093
 30
0.0
 10
-5.2948
 20
-29.7093
 30
0.0
 10
-5.2948
 20
-29.7093
 30
0.0
 10
-5.3747
 20
-29.7093
 30
0.0
 10
-5.4467
 20
-29.7277
 30
0.0
 10
-5.5112
 20
-29.7639
 30
0.0
 10
-5.5112
 20
-29.7639
 30
0.0
 10
-5.5756
 20
-29.8002
 30
0.0
 10
-5.626
 20
-29.8472
 30
0.0
 10
-5.6627
 20
-29.905
 30
0.0
 10
-5.6627
 20
-29.905
 30
0.0
 10
-5.6627
 20
-29.905
 30
0.0
 10
-5.8956
 20
-29.8749
 30
0.0
 10
-5.8956
 20
-29.8749
 30
0.0
 10
-5.8956
 20
-29.8749
 30
0.0
 10
-5.8956
 20
-29.8749
 30
0.0
 10
-5.6998
 20
-28.8373
 30
0.0
 10
-5.6998
 20
-28.8373
 30
0.0
 10
-5.6998
 20
-28.8373
 30
0.0
 10
-5.6998
 20
-28.8373
 30
0.0
 10
-4.6951
 20
-28.8373
 30
0.0
 10
-4.6951
 20
-28.8373
 30
0.0
 10
-4.6951
 20
-28.8373
 30
0.0
 10
-4.6951
 20
-28.8373
 30
0.0
 10
-4.6951
 20
-29.0743
 30
0.0
 10
-4.6951
 20
-29.0743
 30
0.0
 10
-4.6951
 20
-29.0743
 30
0.0
 10
-4.6951
 20
-29.0743
 30
0.0
 10
-5.5013
 20
-29.0743
 30
0.0
 10
-5.5013
 20
-29.0743
 30
0.0
 10
-5.5013
 20
-29.0743
 30
0.0
 10
-5.5013
 20
-29.0743
 30
0.0
 10
-5.6105
 20
-29.6171
 30
0.0
 10
-5.6105
 20
-29.6171
 30
0.0
 10
-5.6105
 20
-29.6171
 30
0.0
 10
-5.4891
 20
-29.5324
 30
0.0
 10
-5.3615
 20
-29.4901
 30
0.0
 10
-5.2285
 20
-29.4901
 30
0.0
 10
-5.2285
 20
-29.4901
 30
0.0
 10
-5.052
 20
-29.4901
 30
0.0
 10
-4.9034
 20
-29.5512
 30
0.0
 10
-4.7821
 20
-29.6736
 30
0.0
 10
-4.7821
 20
-29.6736
 30
0.0
 10
-4.6607
 20
-29.7959
 30
0.0
 10
-4.6
 20
-29.953
 30
0.0
 10
-4.6
 20
-30.1449
 30
0.0
 10
-4.6
 20
-30.1449
 30
0.0
 10
-4.6
 20
-30.3279
 30
0.0
 10
-4.6537
 20
-30.4859
 30
0.0
 10
-4.76
 20
-30.619
 30
0.0
 10
-4.76
 20
-30.619
 30
0.0
 10
-4.8898
 20
-30.7823
 30
0.0
 10
-5.0666
 20
-30.8641
 30
0.0
 10
-5.2906
 20
-30.8641
 30
0.0
 10
-5.2906
 20
-30.8641
 30
0.0
 10
-5.4745
 20
-30.8641
 30
0.0
 10
-5.6246
 20
-30.8128
 30
0.0
 10
-5.7408
 20
-30.7099
 30
0.0
 10
-5.7408
 20
-30.7099
 30
0.0
 10
-5.8569
 20
-30.6069
 30
0.0
 10
-5.9232
 20
-30.4704
 30
0.0
 10
-5.9397
 20
-30.3006
 30
0.0
  0
SPLINE
  5
75
330
1F
100
AcDbEntity
  8
VRSTVA_1
 62
   250
100
AcDbSpline
210
0.0
220
0.0
230
1.0
 70
    11
 71
     3
 72
    52
 73
    48
 74
     0
 42
0.0000000001
 43
0.0000000001
 40
0.0
 40
0.0
 40
0.0
 40
0.0
 40
0.0769230769230769
 40
0.0769230769230769
 40
0.0769230769230769
 40
0.0769230769230769
 40
0.1538461538461539
 40
0.1538461538461539
 40
0.1538461538461539
 40
0.1538461538461539
 40
0.2307692307692308
 40
0.2307692307692308
 40
0.2307692307692308
 40
0.2307692307692308
 40
0.3076923076923077
 40
0.3076923076923077
 40
0.3076923076923077
 40
0.3076923076923077
 40
0.3846153846153846
 40
0.3846153846153846
 40
0.3846153846153846
 40
0.3846153846153846
 40
0.4615384615384616
 40
0.4615384615384616
 40
0.4615384615384616
 40
0.4615384615384616
 40
0.5384615384615384
 40
0.5384615384615384
 40
0.5384615384615384
 40
0.5384615384615384
 40
0.6153846153846154
 40
0.6153846153846154
 40
0.6153846153846154
 40
0.6153846153846154
 40
0.6923076923076923
 40
0.6923076923076923
 40
0.6923076923076923
 40
0.6923076923076923
 40
0.7692307692307693
 40
0.7692307692307693
 40
0.7692307692307693
 40
0.7692307692307693
 40
0.8461538461538461
 40
0.8461538461538461
 40
0.8461538461538461
 40
0.8461538461538461
 40
1.0
 40
1.0
 40
1.0
 40
1.0
 10
-4.37
 20
-29.8335
 30
0.0
 10
-4.37
 20
-29.5946
 30
0.0
 10
-4.3456
 20
-29.4021
 30
0.0
 10
-4.2962
 20
-29.2567
 30
0.0
 10
-4.2962
 20
-29.2567
 30
0.0
 10
-4.2473
 20
-29.111
 30
0.0
 10
-4.1739
 20
-28.9986
 30
0.0
 10
-4.077
 20
-28.9195
 30
0.0
 10
-4.077
 20
-28.9195
 30
0.0
 10
-3.9801
 20
-28.8405
 30
0.0
 10
-3.8582
 20
-28.801
 30
0.0
 10
-3.7116
 20
-28.801
 30
0.0
 10
-3.7116
 20
-28.801
 30
0.0
 10
-3.6029
 20
-28.801
 30
0.0
 10
-3.5078
 20
-28.8232
 30
0.0
 10
-3.4259
 20
-28.8669
 30
0.0
 10
-3.4259
 20
-28.8669
 30
0.0
 10
-3.3442
 20
-28.9101
 30
0.0
 10
-3.2768
 20
-28.9732
 30
0.0
 10
-3.2232
 20
-29.0555
 30
0.0
 10
-3.2232
 20
-29.0555
 30
0.0
 10
-3.1701
 20
-29.1378
 30
0.0
 10
-3.1282
 20
-29.2379
 30
0.0
 10
-3.0981
 20
-29.356
 30
0.0
 10
-3.0981
 20
-29.356
 30
0.0
 10
-3.0676
 20
-29.4742
 30
0.0
 10
-3.0524
 20
-29.6331
 30
0.0
 10
-3.0524
 20
-29.8335
 30
0.0
 10
-3.0524
 20
-29.8335
 30
0.0
 10
-3.0524
 20
-30.0706
 30
0.0
 10
-3.077
 20
-30.2616
 30
0.0
 10
-3.1254
 20
-30.4074
 30
0.0
 10
-3.1254
 20
-30.4074
 30
0.0
 10
-3.1743
 20
-30.5532
 30
0.0
 10
-3.2473
 20
-30.6656
 30
0.0
 10
-3.3442
 20
-30.7452
 30
0.0
 10
-3.3442
 20
-30.7452
 30
0.0
 10
-3.4411
 20
-30.8246
 30
0.0
 10
-3.5633
 20
-30.8641
 30
0.0
 10
-3.7116
 20
-30.8641
 30
0.0
 10
-3.7116
 20
-30.8641
 30
0.0
 10
-3.9063
 20
-30.8641
 30
0.0
 10
-4.0591
 20
-30.7945
 30
0.0
 10
-4.1701
 20
-30.6548
 30
0.0
 10
-4.1701
 20
-30.6548
 30
0.0
 10
-4.3033
 20
-30.4868
 30
0.0
 10
-4.37
 20
-30.2126
 30
0.0
 10
-4.37
 20
-29.8335
 30
0.0
  0
SPLINE
  5
76
330
1F
100
AcDbEntity
  8
VRSTVA_1
 62
   250
100
AcDbSpline
210
0.0
220
0.0
230
1.0
 70
    11
 71
     3
 72
    36
 73
    32
 74
     0
 42
0.0000000001
 43
0.0000000001
 40
0.0
 40
0.0
 40
0.0
 40
0.0
 40
0.1111111111111111
 40
0.1111111111111111
 40
0.1111111111111111
 40
0.1111111111111111
 40
0.2222222222222222
 40
0.2222222222222222
 40
0.2222222222222222
 40
0.2222222222222222
 40
0.3333333333333333
 40
0.3333333333333333
 40
0.3333333333333333
 40
0.3333333333333333
 40
0.4444444444444444
 40
0.4444444444444444
 40
0.4444444444444444
 40
0.4444444444444444
 40
0.5555555555555556
 40
0.5555555555555556
 40
0.5555555555555556
 40
0.5555555555555556
 40
0.6666666666666666
 40
0.6666666666666666
 40
0.6666666666666666
 40
0.6666666666666666
 40
0.7777777777777778
 40
0.7777777777777778
 40
0.7777777777777778
 40
0.7777777777777778
 40
1.0
 40
1.0
 40
1.0
 40
1.0
 10
-4.1151
 20
-29.8335
 30
0.0
 10
-4.1151
 20
-30.1652
 30
0.0
 10
-4.0761
 20
-30.3858
 30
0.0
 10
-3.9985
 20
-30.4959
 30
0.0
 10
-3.9985
 20
-30.4959
 30
0.0
 10
-3.9208
 20
-30.6054
 30
0.0
 10
-3.8253
 20
-30.6604
 30
0.0
 10
-3.7116
 20
-30.6604
 30
0.0
 10
-3.7116
 20
-30.6604
 30
0.0
 10
-3.5972
 20
-30.6604
 30
0.0
 10
-3.5017
 20
-30.6049
 30
0.0
 10
-3.4241
 20
-30.4948
 30
0.0
 10
-3.4241
 20
-30.4948
 30
0.0
 10
-3.3465
 20
-30.3849
 30
0.0
 10
-3.3075
 20
-30.1641
 30
0.0
 10
-3.3075
 20
-29.8335
 30
0.0
 10
-3.3075
 20
-29.8335
 30
0.0
 10
-3.3075
 20
-29.501
 30
0.0
 10
-3.3465
 20
-29.2799
 30
0.0
 10
-3.4241
 20
-29.1707
 30
0.0
 10
-3.4241
 20
-29.1707
 30
0.0
 10
-3.5017
 20
-29.0611
 30
0.0
 10
-3.5982
 20
-29.0065
 30
0.0
 10
-3.7139
 20
-29.0065
 30
0.0
 10
-3.7139
 20
-29.0065
 30
0.0
 10
-3.8282
 20
-29.0065
 30
0.0
 10
-3.9189
 20
-29.055
 30
0.0
 10
-3.9871
 20
-29.1515
 30
0.0
 10
-3.9871
 20
-29.1515
 30
0.0
 10
-4.0723
 20
-29.2742
 30
0.0
 10
-4.1151
 20
-29.5019
 30
0.0
 10
-4.1151
 20
-29.8335
 30
0.0
  0
SPLINE
  5
77
330
1F
100
AcDbEntity
  8
VRSTVA_1
 62
   250
100
AcDbSpline
210
0.0
220
0.0
230
1.0
 70
     8
 71
     3
 72
    32
 73
    28
 74
     0
 42
0.0000000001
 43
0.0000000001
 40
0.0
 40
0.0
 40
0.0
 40
0.0
 40
0.125
 40
0.125
 40
0.125
 40
0.125
 40
0.25
 40
0.25
 40
0.25
 40
0.25
 40
0.375
 40
0.375
 40
0.375
 40
0.375
 40
0.5
 40
0.5
 40
0.5
 40
0.5
 40
0.625
 40
0.625
 40
0.625
 40
0.625
 40
0.75
 40
0.75
 40
0.75
 40
0.75
 40
1.0
 40
1.0
 40
1.0
 40
1.0
 10
-2.8203
 20
14.6635
 30
0.0
 10
-2.8203
 20
14.6635
 30
0.0
 10
-2.774
 20
9.595
 30
0.0
 10
-2.774
 20
9.595
 30
0.0
 10
-2.774
 20
9.595
 30
0.0
 10
-2.774
 20
9.595
 30
0.0
 10
-5.6048
 20
9.6183
 30
0.0
 10
-5.6048
 20
9.6183
 30
0.0
 10
-5.6048
 20
9.6183
 30
0.0
 10
-5.6048
 20
9.6183
 30
0.0
 10
-5.543
 20
14.6628
 30
0.0
 10
-5.543
 20
14.6628
 30
0.0
 10
-5.543
 20
14.6628
 30
0.0
 10
-5.543
 20
14.6628
 30
0.0
 10
14.7812
 20
14.6628
 30
0.0
 10
14.7812
 20
14.6628
 30
0.0
 10
14.7812
 20
14.6628
 30
0.0
 10
14.7812
 20
14.6628
 30
0.0
 10
14.7725
 20
9.6888
 30
0.0
 10
14.7725
 20
9.6888
 30
0.0
 10
14.7725
 20
9.6888
 30
0.0
 10
14.7725
 20
9.6888
 30
0.0
 10
11.9654
 20
9.6717
 30
0.0
 10
11.9654
 20
9.6717
 30
0.0
 10
11.9654
 20
9.6717
 30
0.0
 10
11.9654
 20
9.6717
 30
0.0
 10
11.9825
 20
14.6628
 30
0.0
 10
11.9825
 20
14.6628
 30
0.0
  0
SPLINE
  5
78
330
1F
100
AcDbEntity
  8
VRSTVA_1
 62
   250
100
AcDbSpline
210
0.0
220
0.0
230
1.0
 70
     8
 71
     3
 72
    36
 73
    32
 74
     0
 42
0.0000000001
 43
0.0000000001
 40
0.0
 40
0.0
 40
0.0
 40
0.0
 40
0.1111111111111111
 40
0.1111111111111111
 40
0.1111111111111111
 40
0.1111111111111111
 40
0.2222222222222222
 40
0.2222222222222222
 40
0.2222222222222222
 40
0.2222222222222222
 40
0.3333333333333333
 40
0.3333333333333333
 40
0.3333333333333333
 40
0.3333333333333333
 40
0.4444444444444444
 40
0.4444444444444444
 40
0.4444444444444444
 40
0.4444444444444444
 40
0.5555555555555556
 40
0.5555555555555556
 40
0.5555555555555556
 40
0.5555555555555556
 40
0.6666666666666666
 40
0.6666666666666666
 40
0.6666666666666666
 40
0.6666666666666666
 40
0.7777777777777778
 40
0.7777777777777778
 40
0.7777777777777778
 40
0.7777777777777778
 40
1.0
 40
1.0
 40
1.0
 40
1.0
 10
3.9509
 20
-8.8329
 30
0.0
 10
3.9509
 20
-8.8329
 30
0.0
 10
3.9646
 20
-9.2707
 30
0.0
 10
3.9646
 20
-9.2707
 30
0.0
 10
3.9646
 20
-9.2707
 30
0.0
 10
3.9646
 20
-9.2707
 30
0.0
 10
5.4117
 20
-9.2571
 30
0.0
 10
5.4117
 20
-9.2571
 30
0.0
 10
5.4117
 20
-9.2571
 30
0.0
 10
5.4117
 20
-9.2571
 30
0.0
 10
5.3981
 20
-8.8056
 30
0.0
 10
5.3981
 20
-8.8056
 30
0.0
 10
5.3981
 20
-8.8056
 30
0.0
 10
5.3981
 20
-8.8056
 30
0.0
 10
1.0292
 20
-8.7919
 30
0.0
 10
1.0292
 20
-8.7919
 30
0.0
 10
1.0292
 20
-8.7919
 30
0.0
 10
1.0292
 20
-8.7919
 30
0.0
 10
1.0337
 20
-9.2574
 30
0.0
 10
1.0337
 20
-9.2574
 30
0.0
 10
1.0337
 20
-9.2574
 30
0.0
 10
1.0337
 20
-9.2574
 30
0.0
 10
8.3062
 20
-9.2574
 30
0.0
 10
8.3062
 20
-9.2574
 30
0.0
 10
8.3062
 20
-9.2574
 30
0.0
 10
8.3062
 20
-9.2574
 30
0.0
 10
8.3062
 20
-8.8193
 30
0.0
 10
8.3062
 20
-8.8193
 30
0.0
 10
8.3062
 20
-8.8193
 30
0.0
 10
8.3062
 20
-8.8193
 30
0.0
 10
5.2207
 20
-8.8193
 30
0.0
 10
5.2207
 20
-8.8193
 30
0.0
  0
SPLINE
  5
79
330
1F
100
AcDbEntity
  8
VRSTVA_1
 62
   250
100
AcDbSpline
210
0.0
220
0.0
230
1.0
 70
     8
 71
     3
 72
    48
 73
    44
 74
     0
 42
0.0000000001
 43
0.0000000001
 40
0.0
 40
0.0
 40
0.0
 40
0.0
 40
0.0833333333333333
 40
0.0833333333333333
 40
0.0833333333333333
 40
0.0833333333333333
 40
0.1666666666666667
 40
0.1666666666666667
 40
0.1666666666666667
 40
0.1666666666666667
 40
0.25
 40
0.25
 40
0.25
 40
0.25
 40
0.3333333333333333
 40
0.3333333333333333
 40
0.3333333333333333
 40
0.3333333333333333
 40
0.4166666666666667
 40
0.4166666666666667
 40
0.4166666666666667
 40
0.4166666666666667
 40
0.5
 40
0.5
 40
0.5
 40
0.5
 40
0.5833333333333334
 40
0.5833333333333334
 40
0.5833333333333334
 40
0.5833333333333334
 40
0.6666666666666666
 40
0.6666666666666666
 40
0.6666666666666666
 40
0.6666666666666666
 40
0.75
 40
0.75
 40
0.75
 40
0.75
 40
0.8333333333333334
 40
0.8333333333333334
 40
0.8333333333333334
 40
0.8333333333333334
 40
1.0
 40
1.0
 40
1.0
 40
1.0
 10
5.0537
 20
-11.3395
 30
0.0
 10
5.0537
 20
-11.3395
 30
0.0
 10
5.0384
 20
-10.0519
 30
0.0
 10
5.0384
 20
-10.0519
 30
0.0
 10
5.0384
 20
-10.0519
 30
0.0
 10
5.0384
 20
-10.0519
 30
0.0
 10
5.0082
 20
-9.9682
 30
0.0
 10
5.0082
 20
-9.9682
 30
0.0
 10
5.0082
 20
-9.9682
 30
0.0
 10
5.0082
 20
-9.9682
 30
0.0
 10
4.9398
 20
-9.8387
 30
0.0
 10
4.9398
 20
-9.8387
 30
0.0
 10
4.9398
 20
-9.8387
 30
0.0
 10
4.9398
 20
-9.8387
 30
0.0
 10
4.7118
 20
-9.7093
 30
0.0
 10
4.7118
 20
-9.7093
 30
0.0
 10
4.7118
 20
-9.7093
 30
0.0
 10
4.7118
 20
-9.7093
 30
0.0
 10
3.48
 20
-9.6939
 30
0.0
 10
3.48
 20
-9.6939
 30
0.0
 10
3.48
 20
-9.6939
 30
0.0
 10
3.48
 20
-9.6939
 30
0.0
 10
3.3555
 20
-9.726
 30
0.0
 10
3.3555
 20
-9.726
 30
0.0
 10
3.3555
 20
-9.726
 30
0.0
 10
3.1992
 20
-9.7737
 30
0.0
 10
3.0825
 20
-9.9042
 30
0.0
 10
3.0522
 20
-10.0647
 30
0.0
 10
3.0522
 20
-10.0647
 30
0.0
 10
3.0221
 20
-10.225
 30
0.0
 10
3.0834
 20
-10.3892
 30
0.0
 10
3.2116
 20
-10.4904
 30
0.0
 10
3.2116
 20
-10.4904
 30
0.0
 10
3.3398
 20
-10.5915
 30
0.0
 10
3.5135
 20
-10.6131
 30
0.0
 10
3.6625
 20
-10.5465
 30
0.0
 10
3.6625
 20
-10.5465
 30
0.0
 10
3.6625
 20
-10.5465
 30
0.0
 10
4.187
 20
-10.5318
 30
0.0
 10
4.187
 20
-10.5318
 30
0.0
 10
4.187
 20
-10.5318
 30
0.0
 10
4.187
 20
-10.5318
 30
0.0
 10
4.187
 20
-11.309
 30
0.0
 10
4.187
 20
-11.309
 30
0.0
  0
SPLINE
  5
7A
330
1F
100
AcDbEntity
  8
VRSTVA_1
 62
   250
100
AcDbSpline
210
0.0
220
0.0
230
1.0
 70
     8
 71
     3
 72
    40
 73
    36
 74
     0
 42
0.0000000001
 43
0.0000000001
 40
0.0
 40
0.0
 40
0.0
 40
0.0
 40
0.1
 40
0.1
 40
0.1
 40
0.1
 40
0.2
 40
0.2
 40
0.2
 40
0.2
 40
0.3
 40
0.3
 40
0.3
 40
0.3
 40
0.4
 40
0.4
 40
0.4
 40
0.4
 40
0.5
 40
0.5
 40
0.5
 40
0.5
 40
0.6
 40
0.6
 40
0.6
 40
0.6
 40
0.7
 40
0.7
 40
0.7
 40
0.7
 40
0.8
 40
0.8
 40
0.8
 40
0.8
 40
1.0
 40
1.0
 40
1.0
 40
1.0
 10
-3.0907
 20
9.7011
 30
0.0
 10
-3.0907
 20
9.7011
 30
0.0
 10
-3.0907
 20
-7.5183
 30
0.0
 10
-3.0907
 20
-7.5183
 30
0.0
 10
-3.0907
 20
-7.5183
 30
0.0
 10
-3.0907
 20
-7.5183
 30
0.0
 10
-3.4975
 20
-7.7478
 30
0.0
 10
-3.4975
 20
-7.7478
 30
0.0
 10
-3.4975
 20
-7.7478
 30
0.0
 10
-3.4975
 20
-7.7478
 30
0.0
 10
-3.5197
 20
-11.3763
 30
0.0
 10
-3.5197
 20
-11.3763
 30
0.0
 10
-3.5197
 20
-11.3763
 30
0.0
 10
-3.5197
 20
-11.3763
 30
0.0
 10
12.8127
 20
-11.3343
 30
0.0
 10
12.8127
 20
-11.3343
 30
0.0
 10
12.8127
 20
-11.3343
 30
0.0
 10
12.8127
 20
-11.3343
 30
0.0
 10
12.7821
 20
-7.7647
 30
0.0
 10
12.7821
 20
-7.7647
 30
0.0
 10
12.7821
 20
-7.7647
 30
0.0
 10
12.7821
 20
-7.7647
 30
0.0
 10
-3.5987
 20
-7.7382
 30
0.0
 10
-3.5987
 20
-7.7382
 30
0.0
 10
-3.5987
 20
-7.7382
 30
0.0
 10
-3.5987
 20
-7.7382
 30
0.0
 10
12.8289
 20
-7.773
 30
0.0
 10
12.8289
 20
-7.773
 30
0.0
 10
12.8289
 20
-7.773
 30
0.0
 10
12.8289
 20
-7.773
 30
0.0
 10
12.3069
 20
-7.3544
 30
0.0
 10
12.3069
 20
-7.3544
 30
0.0
 10
12.3069
 20
-7.3544
 30
0.0
 10
12.3069
 20
-7.3544
 30
0.0
 10
12.3243
 20
9.49
 30
0.0
 10
12.3243
 20
9.49
 30
0.0
  0
SPLINE
  5
7B
330
1F
100
AcDbEntity
  8
VRSTVA_1
 62
   250
100
AcDbSpline
210
0.0
220
0.0
230
1.0
 70
    11
 71
     3
 72
    20
 73
    16
 74
     0
 42
0.0000000001
 43
0.0000000001
 40
0.0
 40
0.0
 40
0.0
 40
0.0
 40
0.2
 40
0.2
 40
0.2
 40
0.2
 40
0.4
 40
0.4
 40
0.4
 40
0.4
 40
0.6
 40
0.6
 40
0.6
 40
0.6
 40
1.0
 40
1.0
 40
1.0
 40
1.0
 10
-3.7205
 20
13.3271
 30
0.0
 10
-3.7205
 20
13.5378
 30
0.0
 10
-3.8915
 20
13.7087
 30
0.0
 10
-4.1022
 20
13.7087
 30
0.0
 10
-4.1022
 20
13.7087
 30
0.0
 10
-4.3128
 20
13.7087
 30
0.0
 10
-4.4838
 20
13.5378
 30
0.0
 10
-4.4838
 20
13.3271
 30
0.0
 10
-4.4838
 20
13.3271
 30
0.0
 10
-4.4838
 20
13.1162
 30
0.0
 10
-4.3128
 20
12.9454
 30
0.0
 10
-4.1022
 20
12.9454
 30
0.0
 10
-4.1022
 20
12.9454
 30
0.0
 10
-3.8915
 20
12.9454
 30
0.0
 10
-3.7205
 20
13.1162
 30
0.0
 10
-3.7205
 20
13.3271
 30
0.0
  0
SPLINE
  5
7C
330
1F
100
AcDbEntity
  8
VRSTVA_1
 62
   250
100
AcDbSpline
210
0.0
220
0.0
230
1.0
 70
    11
 71
     3
 72
    20
 73
    16
 74
     0
 42
0.0000000001
 43
0.0000000001
 40
0.0
 40
0.0
 40
0.0
 40
0.0
 40
0.2
 40
0.2
 40
0.2
 40
0.2
 40
0.4
 40
0.4
 40
0.4
 40
0.4
 40
0.6
 40
0.6
 40
0.6
 40
0.6
 40
1.0
 40
1.0
 40
1.0
 40
1.0
 10
13.7219
 20
13.3271
 30
0.0
 10
13.7219
 20
13.5378
 30
0.0
 10
13.5511
 20
13.7087
 30
0.0
 10
13.3402
 20
13.7087
 30
0.0
 10
13.3402
 20
13.7087
 30
0.0
 10
13.1294
 20
13.7087
 30
0.0
 10
12.9586
 20
13.5378
 30
0.0
 10
12.9586
 20
13.3271
 30
0.0
 10
12.9586
 20
13.3271
 30
0.0
 10
12.9586
 20
13.1162
 30
0.0
 10
13.1294
 20
12.9454
 30
0.0
 10
13.3402
 20
12.9454
 30
0.0
 10
13.3402
 20
12.9454
 30
0.0
 10
13.5511
 20
12.9454
 30
0.0
 10
13.7219
 20
13.1162
 30
0.0
 10
13.7219
 20
13.3271
 30
0.0
  0
SPLINE
  5
7D
330
1F
100
AcDbEntity
  8
VRSTVA_1
 62
   250
100
AcDbSpline
210
0.0
220
0.0
230
1.0
 70
    11
 71
     3
 72
    20
 73
    16
 74
     0
 42
0.0000000001
 43
0.0000000001
 40
0.0
 40
0.0
 40
0.0
 40
0.0
 40
0.2
 40
0.2
 40
0.2
 40
0.2
 40
0.4
 40
0.4
 40
0.4
 40
0.4
 40
0.6
 40
0.6
 40
0.6
 40
0.6
 40
1.0
 40
1.0
 40
1.0
 40
1.0
 10
13.7219
 20
11.0371
 30
0.0
 10
13.7219
 20
11.248
 30
0.0
 10
13.5511
 20
11.4187
 30
0.0
 10
13.3402
 20
11.4187
 30
0.0
 10
13.3402
 20
11.4187
 30
0.0
 10
13.1294
 20
11.4187
 30
0.0
 10
12.9586
 20
11.248
 30
0.0
 10
12.9586
 20
11.0371
 30
0.0
 10
12.9586
 20
11.0371
 30
0.0
 10
12.9586
 20
10.8262
 30
0.0
 10
13.1294
 20
10.6553
 30
0.0
 10
13.3402
 20
10.6553
 30
0.0
 10
13.3402
 20
10.6553
 30
0.0
 10
13.5511
 20
10.6553
 30
0.0
 10
13.7219
 20
10.8262
 30
0.0
 10
13.7219
 20
11.0371
 30
0.0
  0
SPLINE
  5
7E
330
1F
100
AcDbEntity
  8
VRSTVA_1
 62
   250
100
AcDbSpline
210
0.0
220
0.0
230
1.0
 70
    11
 71
     3
 72
    20
 73
    16
 74
     0
 42
0.0000000001
 43
0.0000000001
 40
0.0
 40
0.0
 40
0.0
 40
0.0
 40
0.2
 40
0.2
 40
0.2
 40
0.2
 40
0.4
 40
0.4
 40
0.4
 40
0.4
 40
0.6
 40
0.6
 40
0.6
 40
0.6
 40
1.0
 40
1.0
 40
1.0
 40
1.0
 10
-3.7205
 20
11.0371
 30
0.0
 10
-3.7205
 20
11.248
 30
0.0
 10
-3.8915
 20
11.4187
 30
0.0
 10
-4.1022
 20
11.4187
 30
0.0
 10
-4.1022
 20
11.4187
 30
0.0
 10
-4.3128
 20
11.4187
 30
0.0
 10
-4.4838
 20
11.248
 30
0.0
 10
-4.4838
 20
11.0371
 30
0.0
 10
-4.4838
 20
11.0371
 30
0.0
 10
-4.4838
 20
10.8262
 30
0.0
 10
-4.3128
 20
10.6553
 30
0.0
 10
-4.1022
 20
10.6553
 30
0.0
 10
-4.1022
 20
10.6553
 30
0.0
 10
-3.8915
 20
10.6553
 30
0.0
 10
-3.7205
 20
10.8262
 30
0.0
 10
-3.7205
 20
11.0371
 30
0.0
  0
SPLINE
  5
7F
330
1F
100
AcDbEntity
  8
VRSTVA_1
 62
   250
100
AcDbSpline
210
0.0
220
0.0
230
1.0
 70
    11
 71
     3
 72
    20
 73
    16
 74
     0
 42
0.0000000001
 43
0.0000000001
 40
0.0
 40
0.0
 40
0.0
 40
0.0
 40
0.2
 40
0.2
 40
0.2
 40
0.2
 40
0.4
 40
0.4
 40
0.4
 40
0.4
 40
0.6
 40
0.6
 40
0.6
 40
0.6
 40
1.0
 40
1.0
 40
1.0
 40
1.0
 10
-13.4821
 20
-14.0303
 30
0.0
 10
-13.4821
 20
-14.0303
 30
0.0
 10
-13.9052
 20
-17.0303
 30
0.0
 10
-13.9052
 20
-17.0303
 30
0.0
 10
-13.9052
 20
-17.0303
 30
0.0
 10
-13.9052
 20
-17.0303
 30
0.0
 10
-13.9993
 20
-17.0303
 30
0.0
 10
-13.9993
 20
-17.0303
 30
0.0
 10
-13.9993
 20
-17.0303
 30
0.0
 10
-13.9993
 20
-17.0303
 30
0.0
 10
-14.4509
 20
-14.0303
 30
0.0
 10
-14.4509
 20
-14.0303
 30
0.0
 10
-14.4509
 20
-14.0303
 30
0.0
 10
-14.4509
 20
-14.0303
 30
0.0
 10
-13.4821
 20
-14.0303
 30
0.0
 10
-13.4821
 20
-14.0303
 30
0.0
  0
SPLINE
  5
80
330
1F
100
AcDbEntity
  8
VRSTVA_1
 62
   250
100
AcDbSpline
210
0.0
220
0.0
230
1.0
 70
    11
 71
     3
 72
    20
 73
    16
 74
     0
 42
0.0000000001
 43
0.0000000001
 40
0.0
 40
0.0
 40
0.0
 40
0.0
 40
0.2
 40
0.2
 40
0.2
 40
0.2
 40
0.4
 40
0.4
 40
0.4
 40
0.4
 40
0.6
 40
0.6
 40
0.6
 40
0.6
 40
1.0
 40
1.0
 40
1.0
 40
1.0
 10
-14.4189
 20
30.4632
 30
0.0
 10
-14.4189
 20
30.4632
 30
0.0
 10
-13.9957
 20
33.4632
 30
0.0
 10
-13.9957
 20
33.4632
 30
0.0
 10
-13.9957
 20
33.4632
 30
0.0
 10
-13.9957
 20
33.4632
 30
0.0
 10
-13.9016
 20
33.4632
 30
0.0
 10
-13.9016
 20
33.4632
 30
0.0
 10
-13.9016
 20
33.4632
 30
0.0
 10
-13.9016
 20
33.4632
 30
0.0
 10
-13.4501
 20
30.4632
 30
0.0
 10
-13.4501
 20
30.4632
 30
0.0
 10
-13.4501
 20
30.4632
 30
0.0
 10
-13.4501
 20
30.4632
 30
0.0
 10
-14.4189
 20
30.4632
 30
0.0
 10
-14.4189
 20
30.4632
 30
0.0
  0
SPLINE
  5
81
330
1F
100
AcDbEntity
  8
VRSTVA_1
 62
   250
100
AcDbSpline
210
0.0
220
0.0
230
1.0
 70
    11
 71
     3
 72
    20
 73
    16
 74
     0
 42
0.0000000001
 43
0.0000000001
 40
0.0
 40
0.0
 40
0.0
 40
0.0
 40
0.2
 40
0.2
 40
0.2
 40
0.2
 40
0.4
 40
0.4
 40
0.4
 40
0.4
 40
0.6
 40
0.6
 40
0.6
 40
0.6
 40
1.0
 40
1.0
 40
1.0
 40
1.0
 10
-6.0554
 20
0.4392
 30
0.0
 10
-6.0554
 20
0.4392
 30
0.0
 10
-3.0554
 20
0.0159
 30
0.0
 10
-3.0554
 20
0.0159
 30
0.0
 10
-3.0554
 20
0.0159
 30
0.0
 10
-3.0554
 20
0.0159
 30
0.0
 10
-3.0554
 20
-0.0782
 30
0.0
 10
-3.0554
 20
-0.0782
 30
0.0
 10
-3.0554
 20
-0.0782
 30
0.0
 10
-3.0554
 20
-0.0782
 30
0.0
 10
-6.0554
 20
-0.5297
 30
0.0
 10
-6.0554
 20
-0.5297
 30
0.0
 10
-6.0554
 20
-0.5297
 30
0.0
 10
-6.0554
 20
-0.5297
 30
0.0
 10
-6.0554
 20
0.4392
 30
0.0
 10
-6.0554
 20
0.4392
 30
0.0
  0
SPLINE
  5
82
330
1F
100
AcDbEntity
  8
VRSTVA_1
 62
   250
100
AcDbSpline
210
0.0
220
0.0
230
1.0
 70
    11
 71
     3
 72
    20
 73
    16
 74
     0
 42
0.0000000001
 43
0.0000000001
 40
0.0
 40
0.0
 40
0.0
 40
0.0
 40
0.2
 40
0.2
 40
0.2
 40
0.2
 40
0.4
 40
0.4
 40
0.4
 40
0.4
 40
0.6
 40
0.6
 40
0.6
 40
0.6
 40
1.0
 40
1.0
 40
1.0
 40
1.0
 10
15.4489
 20
-0.5044
 30
0.0
 10
15.4489
 20
-0.5044
 30
0.0
 10
12.4489
 20
-0.081
 30
0.0
 10
12.4489
 20
-0.081
 30
0.0
 10
12.4489
 20
-0.081
 30
0.0
 10
12.4489
 20
-0.081
 30
0.0
 10
12.4489
 20
0.013
 30
0.0
 10
12.4489
 20
0.013
 30
0.0
 10
12.4489
 20
0.013
 30
0.0
 10
12.4489
 20
0.013
 30
0.0
 10
15.4489
 20
0.4646
 30
0.0
 10
15.4489
 20
0.4646
 30
0.0
 10
15.4489
 20
0.4646
 30
0.0
 10
15.4489
 20
0.4646
 30
0.0
 10
15.4489
 20
-0.5044
 30
0.0
 10
15.4489
 20
-0.5044
 30
0.0
  0
SPLINE
  5
83
330
1F
100
AcDbEntity
  8
VRSTVA_1
 62
   250
100
AcDbSpline
210
0.0
220
0.0
230
1.0
 70
    27
 71
     3
 72
    12
 73
     8
 74
     0
 42
0.0000000001
 43
0.0000000001
 40
0.0
 40
0.0
 40
0.0
 40
0.0
 40
0.3333333333333333
 40
0.3333333333333333
 40
0.3333333333333333
 40
0.3333333333333333
 40
1.0
 40
1.0
 40
1.0
 40
1.0
 10
-13.9566
 20
32.7412
 30
0.0
 10
-13.9566
 20
32.7412
 30
0.0
 10
-13.9566
 20
-16.6107
 30
0.0
 10
-13.9566
 20
-16.6107
 30
0.0
 10
-13.9566
 20
-16.6107
 30
0.0
 10
-13.9566
 20
-16.6107
 30
0.0
 10
-13.9566
 20
32.7412
 30
0.0
 10
-13.9566
 20
32.7412
 30
0.0
  0
SPLINE
  5
84
330
1F
100
AcDbEntity
  8
VRSTVA_1
 62
   250
100
AcDbSpline
210
0.0
220
0.0
230
1.0
 70
    27
 71
     3
 72
    12
 73
     8
 74
     0
 42
0.0000000001
 43
0.0000000001
 40
0.0
 40
0.0
 40
0.0
 40
0.0
 40
0.3333333333333333
 40
0.3333333333333333
 40
0.3333333333333333
 40
0.3333333333333333
 40
1.0
 40
1.0
 40
1.0
 40
1.0
 10
2.4628
 20
33.4379
 30
0.0
 10
2.4628
 20
33.4379
 30
0.0
 10
-15.149
 20
33.4379
 30
0.0
 10
-15.149
 20
33.4379
 30
0.0
 10
-15.149
 20
33.4379
 30
0.0
 10
-15.149
 20
33.4379
 30
0.0
 10
2.4628
 20
33.4379
 30
0.0
 10
2.4628
 20
33.4379
 30
0.0
  0
SPLINE
  5
85
330
1F
100
AcDbEntity
  8
VRSTVA_1
 62
   250
100
AcDbSpline
210
0.0
220
0.0
230
1.0
 70
    27
 71
     3
 72
    12
 73
     8
 74
     0
 42
0.0000000001
 43
0.0000000001
 40
0.0
 40
0.0
 40
0.0
 40
0.0
 40
0.3333333333333333
 40
0.3333333333333333
 40
0.3333333333333333
 40
0.3333333333333333
 40
1.0
 40
1.0
 40
1.0
 40
1.0
 10
-3.8057
 20
-17.0994
 30
0.0
 10
-3.8057
 20
-17.0994
 30
0.0
 10
-14.669
 20
-17.0994
 30
0.0
 10
-14.669
 20
-17.0994
 30
0.0
 10
-14.669
 20
-17.0994
 30
0.0
 10
-14.669
 20
-17.0994
 30
0.0
 10
-3.8057
 20
-17.0994
 30
0.0
 10
-3.8057
 20
-17.0994
 30
0.0
  0
SPLINE
  5
86
330
1F
100
AcDbEntity
  8
VRSTVA_1
 62
   250
100
AcDbSpline
210
0.0
220
0.0
230
1.0
 70
    27
 71
     3
 72
    12
 73
     8
 74
     0
 42
0.0000000001
 43
0.0000000001
 40
0.0
 40
0.0
 40
0.0
 40
0.0
 40
0.3333333333333333
 40
0.3333333333333333
 40
0.3333333333333333
 40
0.3333333333333333
 40
1.0
 40
1.0
 40
1.0
 40
1.0
 10
-2.9853
 20
-16.9894
 30
0.0
 10
-2.9853
 20
-16.9894
 30
0.0
 10
-2.9853
 20
-18.1377
 30
0.0
 10
-2.9853
 20
-18.1377
 30
0.0
 10
-2.9853
 20
-18.1377
 30
0.0
 10
-2.9853
 20
-18.1377
 30
0.0
 10
-2.9853
 20
-16.9894
 30
0.0
 10
-2.9853
 20
-16.9894
 30
0.0
  0
SPLINE
  5
87
330
1F
100
AcDbEntity
  8
VRSTVA_1
 62
   250
100
AcDbSpline
210
0.0
220
0.0
230
1.0
 70
    27
 71
     3
 72
    12
 73
     8
 74
     0
 42
0.0000000001
 43
0.0000000001
 40
0.0
 40
0.0
 40
0.0
 40
0.0
 40
0.3333333333333333
 40
0.3333333333333333
 40
0.3333333333333333
 40
0.3333333333333333
 40
1.0
 40
1.0
 40
1.0
 40
1.0
 10
12.3253
 20
-16.9894
 30
0.0
 10
12.3253
 20
-16.9894
 30
0.0
 10
12.3253
 20
-18.1377
 30
0.0
 10
12.3253
 20
-18.1377
 30
0.0
 10
12.3253
 20
-18.1377
 30
0.0
 10
12.3253
 20
-18.1377
 30
0.0
 10
12.3253
 20
-16.9894
 30
0.0
 10
12.3253
 20
-16.9894
 30
0.0
  0
SPLINE
  5
88
330
1F
100
AcDbEntity
  8
VRSTVA_1
 62
   250
100
AcDbSpline
210
0.0
220
0.0
230
1.0
 70
     8
 71
     3
 72
    40
 73
    36
 74
     0
 42
0.0000000001
 43
0.0000000001
 40
0.0
 40
0.0
 40
0.0
 40
0.0
 40
0.1
 40
0.1
 40
0.1
 40
0.1
 40
0.2
 40
0.2
 40
0.2
 40
0.2
 40
0.3
 40
0.3
 40
0.3
 40
0.3
 40
0.4
 40
0.4
 40
0.4
 40
0.4
 40
0.5
 40
0.5
 40
0.5
 40
0.5
 40
0.6
 40
0.6
 40
0.6
 40
0.6
 40
0.7
 40
0.7
 40
0.7
 40
0.7
 40
0.8
 40
0.8
 40
0.8
 40
0.8
 40
1.0
 40
1.0
 40
1.0
 40
1.0
 10
-3.1271
 20
-11.3713
 30
0.0
 10
-3.1271
 20
-11.3713
 30
0.0
 10
-3.1288
 20
-11.8985
 30
0.0
 10
-3.1288
 20
-11.8985
 30
0.0
 10
-3.1288
 20
-11.8985
 30
0.0
 10
-3.1288
 20
-11.8985
 30
0.0
 10
-2.9359
 20
-11.8985
 30
0.0
 10
-2.9359
 20
-11.8985
 30
0.0
 10
-2.9359
 20
-11.8985
 30
0.0
 10
-2.9359
 20
-11.8985
 30
0.0
 10
-1.9794
 20
-11.8985
 30
0.0
 10
-1.9794
 20
-11.8985
 30
0.0
 10
-1.9794
 20
-11.8985
 30
0.0
 10
-1.9794
 20
-11.8985
 30
0.0
 10
2.7784
 20
-11.8985
 30
0.0
 10
2.7784
 20
-11.8985
 30
0.0
 10
2.7784
 20
-11.8985
 30
0.0
 10
2.7784
 20
-11.8985
 30
0.0
 10
4.5716
 20
-11.8985
 30
0.0
 10
4.5716
 20
-11.8985
 30
0.0
 10
4.5716
 20
-11.8985
 30
0.0
 10
4.5716
 20
-11.8985
 30
0.0
 10
11.3193
 20
-11.8985
 30
0.0
 10
11.3193
 20
-11.8985
 30
0.0
 10
11.3193
 20
-11.8985
 30
0.0
 10
11.3193
 20
-11.8985
 30
0.0
 10
12.2758
 20
-11.8985
 30
0.0
 10
12.2758
 20
-11.8985
 30
0.0
 10
12.2758
 20
-11.8985
 30
0.0
 10
12.2758
 20
-11.8985
 30
0.0
 10
12.4688
 20
-11.8985
 30
0.0
 10
12.4688
 20
-11.8985
 30
0.0
 10
12.4688
 20
-11.8985
 30
0.0
 10
12.4688
 20
-11.8985
 30
0.0
 10
12.465
 20
-11.3077
 30
0.0
 10
12.465
 20
-11.3077
 30
0.0
  0
SPLINE
  5
89
330
1F
100
AcDbEntity
  8
VRSTVA_1
 62
   250
100
AcDbSpline
210
0.0
220
0.0
230
1.0
 70
    11
 71
     3
 72
   116
 73
   112
 74
     0
 42
0.0000000001
 43
0.0000000001
 40
0.0
 40
0.0
 40
0.0
 40
0.0
 40
0.0344827586206897
 40
0.0344827586206897
 40
0.0344827586206897
 40
0.0344827586206897
 40
0.0689655172413793
 40
0.0689655172413793
 40
0.0689655172413793
 40
0.0689655172413793
 40
0.103448275862069
 40
0.103448275862069
 40
0.103448275862069
 40
0.103448275862069
 40
0.1379310344827586
 40
0.1379310344827586
 40
0.1379310344827586
 40
0.1379310344827586
 40
0.1724137931034483
 40
0.1724137931034483
 40
0.1724137931034483
 40
0.1724137931034483
 40
0.2068965517241379
 40
0.2068965517241379
 40
0.2068965517241379
 40
0.2068965517241379
 40
0.2413793103448276
 40
0.2413793103448276
 40
0.2413793103448276
 40
0.2413793103448276
 40
0.2758620689655172
 40
0.2758620689655172
 40
0.2758620689655172
 40
0.2758620689655172
 40
0.3103448275862069
 40
0.3103448275862069
 40
0.3103448275862069
 40
0.3103448275862069
 40
0.3448275862068966
 40
0.3448275862068966
 40
0.3448275862068966
 40
0.3448275862068966
 40
0.3793103448275862
 40
0.3793103448275862
 40
0.3793103448275862
 40
0.3793103448275862
 40
0.4137931034482759
 40
0.4137931034482759
 40
0.4137931034482759
 40
0.4137931034482759
 40
0.4482758620689655
 40
0.4482758620689655
 40
0.4482758620689655
 40
0.4482758620689655
 40
0.4827586206896552
 40
0.4827586206896552
 40
0.4827586206896552
 40
0.4827586206896552
 40
0.5172413793103449
 40
0.5172413793103449
 40
0.5172413793103449
 40
0.5172413793103449
 40
0.5517241379310345
 40
0.5517241379310345
 40
0.5517241379310345
 40
0.5517241379310345
 40
0.5862068965517241
 40
0.5862068965517241
 40
0.5862068965517241
 40
0.5862068965517241
 40
0.6206896551724138
 40
0.6206896551724138
 40
0.6206896551724138
 40
0.6206896551724138
 40
0.6551724137931034
 40
0.6551724137931034
 40
0.6551724137931034
 40
0.6551724137931034
 40
0.6896551724137931
 40
0.6896551724137931
 40
0.6896551724137931
 40
0.6896551724137931
 40
0.7241379310344828
 40
0.7241379310344828
 40
0.7241379310344828
 40
0.7241379310344828
 40
0.7586206896551724
 40
0.7586206896551724
 40
0.7586206896551724
 40
0.7586206896551724
 40
0.7931034482758621
 40
0.7931034482758621
 40
0.7931034482758621
 40
0.7931034482758621
 40
0.8275862068965517
 40
0.8275862068965517
 40
0.8275862068965517
 40
0.8275862068965517
 40
0.8620689655172413
 40
0.8620689655172413
 40
0.8620689655172413
 40
0.8620689655172413
 40
0.896551724137931
 40
0.896551724137931
 40
0.896551724137931
 40
0.896551724137931
 40
0.9310344827586207
 40
0.9310344827586207
 40
0.9310344827586207
 40
0.9310344827586207
 40
1.0
 40
1.0
 40
1.0
 40
1.0
 10
10.4953
 20
-15.6509
 30
0.0
 10
10.4953
 20
-15.6509
 30
0.0
 10
10.6005
 20
-16.1101
 30
0.0
 10
10.6005
 20
-16.1101
 30
0.0
 10
10.6005
 20
-16.1101
 30
0.0
 10
10.6005
 20
-16.1101
 30
0.0
 10
11.3193
 20
-16.1101
 30
0.0
 10
11.3193
 20
-16.1101
 30
0.0
 10
11.3193
 20
-16.1101
 30
0.0
 10
11.3193
 20
-16.1101
 30
0.0
 10
11.3193
 20
-11.8985
 30
0.0
 10
11.3193
 20
-11.8985
 30
0.0
 10
11.3193
 20
-11.8985
 30
0.0
 10
11.3193
 20
-11.8985
 30
0.0
 10
11.3193
 20
-16.1101
 30
0.0
 10
11.3193
 20
-16.1101
 30
0.0
 10
11.3193
 20
-16.1101
 30
0.0
 10
11.3193
 20
-16.1101
 30
0.0
 10
12.2758
 20
-16.1101
 30
0.0
 10
12.2758
 20
-16.1101
 30
0.0
 10
12.2758
 20
-16.1101
 30
0.0
 10
12.2758
 20
-16.1101
 30
0.0
 10
12.2758
 20
-11.8985
 30
0.0
 10
12.2758
 20
-11.8985
 30
0.0
 10
12.2758
 20
-11.8985
 30
0.0
 10
12.2758
 20
-11.8985
 30
0.0
 10
12.2758
 20
-16.1101
 30
0.0
 10
12.2758
 20
-16.1101
 30
0.0
 10
12.2758
 20
-16.1101
 30
0.0
 10
12.2758
 20
-16.1101
 30
0.0
 10
12.4963
 20
-16.1101
 30
0.0
 10
12.4963
 20
-16.1101
 30
0.0
 10
12.4963
 20
-16.1101
 30
0.0
 10
12.4963
 20
-16.1101
 30
0.0
 10
12.4963
 20
-16.9749
 30
0.0
 10
12.4963
 20
-16.9749
 30
0.0
 10
12.4963
 20
-16.9749
 30
0.0
 10
12.4963
 20
-16.9749
 30
0.0
 10
-3.1475
 20
-16.9749
 30
0.0
 10
-3.1475
 20
-16.9749
 30
0.0
 10
-3.1475
 20
-16.9749
 30
0.0
 10
-3.1475
 20
-16.9749
 30
0.0
 10
-3.1475
 20
-16.1101
 30
0.0
 10
-3.1475
 20
-16.1101
 30
0.0
 10
-3.1475
 20
-16.1101
 30
0.0
 10
-3.1475
 20
-16.1101
 30
0.0
 10
-2.9359
 20
-16.1101
 30
0.0
 10
-2.9359
 20
-16.1101
 30
0.0
 10
-2.9359
 20
-16.1101
 30
0.0
 10
-2.9359
 20
-16.1101
 30
0.0
 10
-2.9359
 20
-11.8985
 30
0.0
 10
-2.9359
 20
-11.8985
 30
0.0
 10
-2.9359
 20
-11.8985
 30
0.0
 10
-2.9359
 20
-11.8985
 30
0.0
 10
-2.9359
 20
-16.1101
 30
0.0
 10
-2.9359
 20
-16.1101
 30
0.0
 10
-2.9359
 20
-16.1101
 30
0.0
 10
-2.9359
 20
-16.1101
 30
0.0
 10
-1.9794
 20
-16.1101
 30
0.0
 10
-1.9794
 20
-16.1101
 30
0.0
 10
-1.9794
 20
-16.1101
 30
0.0
 10
-1.9794
 20
-16.1101
 30
0.0
 10
-1.9794
 20
-11.8985
 30
0.0
 10
-1.9794
 20
-11.8985
 30
0.0
 10
-1.9794
 20
-11.8985
 30
0.0
 10
-1.9794
 20
-11.8985
 30
0.0
 10
-1.9794
 20
-16.1101
 30
0.0
 10
-1.9794
 20
-16.1101
 30
0.0
 10
-1.9794
 20
-16.1101
 30
0.0
 10
-1.9794
 20
-16.1101
 30
0.0
 10
-1.2603
 20
-16.1101
 30
0.0
 10
-1.2603
 20
-16.1101
 30
0.0
 10
-1.2603
 20
-16.1101
 30
0.0
 10
-1.2603
 20
-16.1101
 30
0.0
 10
-1.1696
 20
-15.714
 30
0.0
 10
-1.1696
 20
-15.714
 30
0.0
 10
-1.1696
 20
-15.714
 30
0.0
 10
-1.1696
 20
-15.714
 30
0.0
 10
-1.2603
 20
-16.1101
 30
0.0
 10
-1.2603
 20
-16.1101
 30
0.0
 10
-1.2603
 20
-16.1101
 30
0.0
 10
-1.2603
 20
-16.1101
 30
0.0
 10
2.7784
 20
-16.1101
 30
0.0
 10
2.7784
 20
-16.1101
 30
0.0
 10
2.7784
 20
-16.1101
 30
0.0
 10
2.7784
 20
-16.1101
 30
0.0
 10
2.7784
 20
-11.8985
 30
0.0
 10
2.7784
 20
-11.8985
 30
0.0
 10
2.7784
 20
-11.8985
 30
0.0
 10
2.7784
 20
-11.8985
 30
0.0
 10
2.7784
 20
-16.1101
 30
0.0
 10
2.7784
 20
-16.1101
 30
0.0
 10
2.7784
 20
-16.1101
 30
0.0
 10
2.7784
 20
-16.1101
 30
0.0
 10
4.5716
 20
-16.1101
 30
0.0
 10
4.5716
 20
-16.1101
 30
0.0
 10
4.5716
 20
-16.1101
 30
0.0
 10
4.5716
 20
-16.1101
 30
0.0
 10
4.5716
 20
-11.8985
 30
0.0
 10
4.5716
 20
-11.8985
 30
0.0
 10
4.5716
 20
-11.8985
 30
0.0
 10
4.5716
 20
-11.8985
 30
0.0
 10
4.5716
 20
-16.1101
 30
0.0
 10
4.5716
 20
-16.1101
 30
0.0
 10
4.5716
 20
-16.1101
 30
0.0
 10
4.5716
 20
-16.1101
 30
0.0
 10
10.6005
 20
-16.1101
 30
0.0
 10
10.6005
 20
-16.1101
 30
0.0
 10
10.6005
 20
-16.1101
 30
0.0
 10
10.6005
 20
-16.1101
 30
0.0
 10
10.4953
 20
-15.6509
 30
0.0
 10
10.4953
 20
-15.6509
 30
0.0
  0
SPLINE
  5
8A
330
1F
100
AcDbEntity
  8
VRSTVA_1
 62
   250
100
AcDbSpline
210
0.0
220
0.0
230
1.0
 70
     8
 71
     3
 72
    20
 73
    16
 74
     0
 42
0.0000000001
 43
0.0000000001
 40
0.0
 40
0.0
 40
0.0
 40
0.0
 40
0.2
 40
0.2
 40
0.2
 40
0.2
 40
0.4
 40
0.4
 40
0.4
 40
0.4
 40
0.6
 40
0.6
 40
0.6
 40
0.6
 40
1.0
 40
1.0
 40
1.0
 40
1.0
 10
7.7245
 20
-11.9096
 30
0.0
 10
7.7245
 20
-11.9096
 30
0.0
 10
7.7321
 20
-13.4943
 30
0.0
 10
7.7321
 20
-13.4943
 30
0.0
 10
7.7321
 20
-13.4943
 30
0.0
 10
7.7321
 20
-13.9639
 30
0.0
 10
8.018
 20
-14.3861
 30
0.0
 10
8.4539
 20
-14.5604
 30
0.0
 10
8.4539
 20
-14.5604
 30
0.0
 10
8.4539
 20
-14.5604
 30
0.0
 10
9.6759
 20
-15.0436
 30
0.0
 10
9.6759
 20
-15.0436
 30
0.0
 10
9.6759
 20
-15.0436
 30
0.0
 10
9.6759
 20
-15.0436
 30
0.0
 10
9.6759
 20
-15.2802
 30
0.0
 10
9.6759
 20
-15.2802
 30
0.0
  0
SPLINE
  5
8B
330
1F
100
AcDbEntity
  8
VRSTVA_1
 62
   250
100
AcDbSpline
210
0.0
220
0.0
230
1.0
 70
     8
 71
     3
 72
    16
 73
    12
 74
     0
 42
0.0000000001
 43
0.0000000001
 40
0.0
 40
0.0
 40
0.0
 40
0.0
 40
0.25
 40
0.25
 40
0.25
 40
0.25
 40
0.5
 40
0.5
 40
0.5
 40
0.5
 40
1.0
 40
1.0
 40
1.0
 40
1.0
 10
4.582
 20
-15.3264
 30
0.0
 10
4.582
 20
-15.3264
 30
0.0
 10
10.89
 20
-15.3244
 30
0.0
 10
10.89
 20
-15.3244
 30
0.0
 10
10.89
 20
-15.3244
 30
0.0
 10
10.89
 20
-15.3244
 30
0.0
 10
10.89
 20
-15.7071
 30
0.0
 10
10.89
 20
-15.7071
 30
0.0
 10
10.89
 20
-15.7071
 30
0.0
 10
10.89
 20
-15.7071
 30
0.0
 10
4.5413
 20
-15.6938
 30
0.0
 10
4.5413
 20
-15.6938
 30
0.0
  0
SPLINE
  5
8C
330
1F
100
AcDbEntity
  8
VRSTVA_1
 62
   250
100
AcDbSpline
210
0.0
220
0.0
230
1.0
 70
     8
 71
     3
 72
    20
 73
    16
 74
     0
 42
0.0000000001
 43
0.0000000001
 40
0.0
 40
0.0
 40
0.0
 40
0.0
 40
0.2
 40
0.2
 40
0.2
 40
0.2
 40
0.4
 40
0.4
 40
0.4
 40
0.4
 40
0.6
 40
0.6
 40
0.6
 40
0.6
 40
1.0
 40
1.0
 40
1.0
 40
1.0
 10
1.6104
 20
-11.909
 30
0.0
 10
1.6104
 20
-11.909
 30
0.0
 10
1.6078
 20
-13.4943
 30
0.0
 10
1.6078
 20
-13.4943
 30
0.0
 10
1.6078
 20
-13.4943
 30
0.0
 10
1.6078
 20
-13.9639
 30
0.0
 10
1.322
 20
-14.3861
 30
0.0
 10
0.886
 20
-14.5604
 30
0.0
 10
0.886
 20
-14.5604
 30
0.0
 10
0.886
 20
-14.5604
 30
0.0
 10
-0.303
 20
-15.0422
 30
0.0
 10
-0.303
 20
-15.0422
 30
0.0
 10
-0.303
 20
-15.0422
 30
0.0
 10
-0.303
 20
-15.0422
 30
0.0
 10
-0.303
 20
-15.3228
 30
0.0
 10
-0.303
 20
-15.3228
 30
0.0
  0
SPLINE
  5
8D
330
1F
100
AcDbEntity
  8
VRSTVA_1
 62
   250
100
AcDbSpline
210
0.0
220
0.0
230
1.0
 70
     8
 71
     3
 72
    16
 73
    12
 74
     0
 42
0.0000000001
 43
0.0000000001
 40
0.0
 40
0.0
 40
0.0
 40
0.0
 40
0.25
 40
0.25
 40
0.25
 40
0.25
 40
0.5
 40
0.5
 40
0.5
 40
0.5
 40
1.0
 40
1.0
 40
1.0
 40
1.0
 10
2.7784
 20
-15.7071
 30
0.0
 10
2.7784
 20
-15.7071
 30
0.0
 10
-1.5499
 20
-15.7071
 30
0.0
 10
-1.5499
 20
-15.7071
 30
0.0
 10
-1.5499
 20
-15.7071
 30
0.0
 10
-1.5499
 20
-15.7071
 30
0.0
 10
-1.5551
 20
-15.3221
 30
0.0
 10
-1.5551
 20
-15.3221
 30
0.0
 10
-1.5551
 20
-15.3221
 30
0.0
 10
-1.5551
 20
-15.3221
 30
0.0
 10
2.7552
 20
-15.308
 30
0.0
 10
2.7552
 20
-15.308
 30
0.0
  0
SPLINE
  5
8E
330
1F
100
AcDbEntity
  8
VRSTVA_1
  6
NEW_LINE4
 62
   250
100
AcDbSpline
210
0.0
220
0.0
230
1.0
 70
    24
 71
     3
 72
     8
 73
     4
 74
     0
 42
0.0000000001
 43
0.0000000001
 40
0.0
 40
0.0
 40
0.0
 40
0.0
 40
1.0
 40
1.0
 40
1.0
 40
1.0
 10
0.5055
 20
-34.3786
 30
0.0
 10
0.5055
 20
-34.3786
 30
0.0
 10
3.8965
 20
-34.082
 30
0.0
 10
3.8965
 20
-34.082
 30
0.0
  0
SPLINE
  5
90
330
1F
100
AcDbEntity
  8
VRSTVA_1
  6
NEW_LINE5
 62
   250
100
AcDbSpline
210
0.0
220
0.0
230
1.0
 70
     8
 71
     3
 72
    16
 73
    12
 74
     0
 42
0.0000000001
 43
0.0000000001
 40
0.0
 40
0.0
 40
0.0
 40
0.0
 40
0.25
 40
0.25
 40
0.25
 40
0.25
 40
0.5
 40
0.5
 40
0.5
 40
0.5
 40
1.0
 40
1.0
 40
1.0
 40
1.0
 10
3.8629
 20
-34.0919
 30
0.0
 10
3.8629
 20
-34.0919
 30
0.0
 10
4.2896
 20
-33.1809
 30
0.0
 10
4.2896
 20
-33.1809
 30
0.0
 10
4.2896
 20
-33.1809
 30
0.0
 10
4.2896
 20
-33.1809
 30
0.0
 10
5.2665
 20
-34.9579
 30
0.0
 10
5.2665
 20
-34.9579
 30
0.0
 10
5.2665
 20
-34.9579
 30
0.0
 10
5.2665
 20
-34.9579
 30
0.0
 10
5.6932
 20
-33.9345
 30
0.0
 10
5.6932
 20
-33.9345
 30
0.0
  0
SPLINE
  5
92
330
1F
100
AcDbEntity
  8
VRSTVA_1
  6
NEW_LINE6
 62
   250
100
AcDbSpline
210
0.0
220
0.0
230
1.0
 70
    24
 71
     3
 72
     8
 73
     4
 74
     0
 42
0.0000000001
 43
0.0000000001
 40
0.0
 40
0.0
 40
0.0
 40
0.0
 40
1.0
 40
1.0
 40
1.0
 40
1.0
 10
5.682
 20
-33.9258
 30
0.0
 10
5.682
 20
-33.9258
 30
0.0
 10
8.6802
 20
-33.6635
 30
0.0
 10
8.6802
 20
-33.6635
 30
0.0
  0
ENDSEC
  0
SECTION
  2
OBJECTS
  0
DICTIONARY
  5
C
330
0
100
AcDbDictionary
  3
ACAD_GROUP
350
D
  3
ACAD_LAYOUT
350
1A
  3
ACAD_MATERIAL
350
3B
  3
ACAD_MLEADERSTYLE
350
B6
  3
ACAD_MLINESTYLE
350
17
  3
ACAD_PLOTSETTINGS
350
19
  3
ACAD_VISUALSTYLE
350
2A
  3
ACDBHEADERROUNDTRIPXREC
350
94
  3
ACDBVARIABLEDICTIONARY
350
B4
  0
DICTIONARY
  5
D
102
{ACAD_REACTORS
330
C
102
}
330
C
100
AcDbDictionary
  0
DICTIONARY
  5
1A
102
{ACAD_REACTORS
330
C
102
}
330
C
100
AcDbDictionary
  0
DICTIONARY
  5
3B
102
{ACAD_REACTORS
330
C
102
}
330
C
100
AcDbDictionary
  3
BYBLOCK
350
3D
  3
BYLAYER
350
3C
  3
GLOBAL
350
3E
  0
DICTIONARY
  5
B6
102
{ACAD_REACTORS
330
C
102
}
330
C
100
AcDbDictionary
  0
DICTIONARY
  5
17
102
{ACAD_REACTORS
330
C
102
}
330
C
100
AcDbDictionary
  3
STANDARD
350
18
  0
DICTIONARY
  5
19
102
{ACAD_REACTORS
330
C
102
}
330
C
100
AcDbDictionary
  0
DICTIONARY
  5
2A
102
{ACAD_REACTORS
330
C
102
}
330
C
100
AcDbDictionary
  3
2DWIREFRAME
350
2F
  3
3D_HIDDEN
350
31
  3
3DWIREFRAME
350
30
  3
BASIC
350
32
  3
BRIGHTEN
350
36
  3
COLORCHANGE
350
3A
  3
CONCEPTUAL
350
34
  3
DIM
350
35
  3
FACEPATTERN
350
39
  3
FLAT
350
2B
  3
FLATWITHEDGES
350
2C
  3
GOURAUD
350
2D
  3
GOURAUDWITHEDGES
350
2E
  3
LINEPATTERN
350
38
  3
REALISTIC
350
33
  3
THICKEN
350
37
  0
DICTIONARY
  5
94
102
{ACAD_REACTORS
330
C
102
}
330
C
100
AcDbDictionary
  3
CEPSNTYPE
350
9D
  3
DIMSTYLEDATA
350
B3
  3
FINGERPRINTGUID
350
9E
  3
HYPERLINKBASE
350
97
  3
INSUNITS
350
9C
  3
LAYOUTDICT
350
99
  3
LWETCUNION
350
9B
  3
PLOTSETDICT
350
9A
  3
PSVPSCALE
350
A0
  3
PUCSBASE
350
A3
  3
PUCSORGBACK
350
A9
  3
PUCSORGBOTTOM
350
A5
  3
PUCSORGFRONT
350
A8
  3
PUCSORGLEFT
350
A6
  3
PUCSORGRIGHT
350
A7
  3
PUCSORGTOP
350
A4
  3
PUCSORTHOREF
350
A1
  3
PUCSORTHOVIEW
350
A2
  3
STYLESHEET
350
98
  3
TSTACKALIGN
350
95
  3
TSTACKSIZE
350
96
  3
UCSBASE
350
AC
  3
UCSORGBACK
350
B2
  3
UCSORGBOTTOM
350
AE
  3
UCSORGFRONT
350
B1
  3
UCSORGLEFT
350
AF
  3
UCSORGRIGHT
350
B0
  3
UCSORGTOP
350
AD
  3
UCSORTHOREF
350
AA
  3
UCSORTHOVIEW
350
AB
  3
VERSIONGUID
350
9F
  0
DICTIONARY
  5
B4
102
{ACAD_REACTORS
330
C
102
}
330
C
100
AcDbDictionary
  3
DIMASSOC
350
B7
  3
HIDETEXT
350
B8
  0
MATERIAL
  5
3D
102
{ACAD_REACTORS
330
3B
102
}
102
{ACAD_XDICTIONARY
360
BB
102
}
330
3B
100
AcDbMaterial
  1
ByBlock
  0
MATERIAL
  5
3C
102
{ACAD_REACTORS
330
3B
102
}
102
{ACAD_XDICTIONARY
360
B9
102
}
330
3B
100
AcDbMaterial
  1
ByLayer
  0
MATERIAL
  5
3E
102
{ACAD_REACTORS
330
3B
102
}
102
{ACAD_XDICTIONARY
360
BD
102
}
330
3B
100
AcDbMaterial
  1
Global
  0
MLINESTYLE
  5
18
102
{ACAD_REACTORS
330
17
102
}
330
17
100
AcDbMlineStyle
  2
Standard
 70
     0
  3

 62
   256
 51
90.0
 52
90.0
 71
     2
 49
0.5
 62
   256
  6
BYLAYER
 49
-0.5
 62
   256
  6
BYLAYER
  0
ACAD_PROXY_OBJECT
  5
2F
102
{ACAD_REACTORS
330
2A
102
}
330
2A
100
AcDbProxyObject
 90
      499
 91
      501
 93
      436
310
42CC9915DA5C99599C985B595049028333333333333E3BF0000000000000FB0107901411070040501600405405064090741402480A0340
1001
ACAD
1000
AcDbSavedByObjectVersion
1070
     0
  0
ACAD_PROXY_OBJECT
  5
31
102
{ACAD_REACTORS
330
2A
102
}
330
2A
100
AcDbProxyObject
 90
      499
 91
      501
 93
      500
310
424CD108121A5919195B90640502408333333333333E3BF0000000000000FB01079024090700405020000000000001110200405405064090740C02480A0340
1001
ACAD
1000
AcDbSavedByObjectVersion
1070
     0
  0
ACAD_PROXY_OBJECT
  5
30
102
{ACAD_REACTORS
330
2A
102
}
330
2A
100
AcDbProxyObject
 90
      499
 91
      501
 93
      436
310
42CCD915DA5C99599C985B595059028333333333333E3BF0000000000000FB0107901411070040501600405405064090741402480A0340
1001
ACAD
1000
AcDbSavedByObjectVersion
1070
     0
  0
ACAD_PROXY_OBJECT
  5
32
102
{ACAD_REACTORS
330
2A
102
}
330
2A
100
AcDbProxyObject
 90
      499
 91
      501
 93
      388
310
4150985CDA58D07406404333333333333E3BF0000000000000FB0107A41107004050150841D405064090741402480A0350
1001
ACAD
1000
AcDbSavedByObjectVersion
1070
     0
  0
ACAD_PROXY_OBJECT
  5
36
102
{ACAD_REACTORS
330
2A
102
}
330
2A
100
AcDbProxyObject
 90
      499
 91
      501
 93
      428
310
42109C9A59DA1D195B90C409028333333333333E3BF0000000000000FB010790141107004050150841D405064090741402480A029950
1001
ACAD
1000
AcDbSavedByObjectVersion
1070
     0
  0
ACAD_PROXY_OBJECT
  5
3A
102
{ACAD_REACTORS
330
2A
102
}
330
2A
100
AcDbProxyObject
 90
      499
 91
      501
 93
      452
310
42D0DBDB1BDC90DA185B99D95104090240C333333333333E3BF0000000000000FB0108901411070040501508421405064090741402480A0350
1001
ACAD
1000
AcDbSavedByObjectVersion
1070
     0
  0
ACAD_PROXY_OBJECT
  5
34
102
{ACAD_REACTORS
330
2A
102
}
330
2A
100
AcDbProxyObject
 90
      499
 91
      501
 93
      500
310
4290DBDB98D95C1D1D585B10940D028333333333333E3BF0000000000000FB0107902409070040501000000000000111010841D405064090740C02480A0340
1001
ACAD
1000
AcDbSavedByObjectVersion
1070
     0
  0
ACAD_PROXY_OBJECT
  5
35
102
{ACAD_REACTORS
330
2A
102
}
330
2A
100
AcDbProxyObject
 90
      499
 91
      501
 93
      412
310
40D11A5B50B409028333333333333E3BF0000000000000FB010790141107004050150841D405064090741402480A02677FFFFFD0
1001
ACAD
1000
AcDbSavedByObjectVersion
1070
     0
  0
ACAD_PROXY_OBJECT
  5
39
102
{ACAD_REACTORS
330
2A
102
}
330
2A
100
AcDbProxyObject
 90
      499
 91
      501
 93
      444
310
42D19858D95C185D1D195C9B90F409028333333333333E3BF0000000000000FB010790141107004050150841D405064090741402480A0350
1001
ACAD
1000
AcDbSavedByObjectVersion
1070
     0
  0
ACAD_PROXY_OBJECT
  5
2B
102
{ACAD_REACTORS
330
2A
102
}
330
2A
100
AcDbProxyObject
 90
      499
 91
      501
 93
      388
310
41119B185D240901404333333333333E3BF0000000000000F9010740A41107004050150841D405064090741402480A1B50
1001
ACAD
1000
AcDbSavedByObjectVersion
1070
     0
  0
ACAD_PROXY_OBJECT
  5
2C
102
{ACAD_REACTORS
330
2A
102
}
330
2A
100
AcDbProxyObject
 90
      499
 91
      501
 93
      476
310
43519B185D15DA5D1A115919D95CD0140901404333333333333E3BF0000000000000F9010740901411070040501600405405064090741402480A1B50
1001
ACAD
1000
AcDbSavedByObjectVersion
1070
     0
  0
ACAD_PROXY_OBJECT
  5
2D
102
{ACAD_REACTORS
330
2A
102
}
330
2A
100
AcDbProxyObject
 90
      499
 91
      501
 93
      412
310
41D1DBDD5C985D5910240902404333333333333E3BF0000000000000F9010740A411070040501641D405064090741402480A1B50
1001
ACAD
1000
AcDbSavedByObjectVersion
1070
     0
  0
ACAD_PROXY_OBJECT
  5
2E
102
{ACAD_REACTORS
330
2A
102
}
330
2A
100
AcDbProxyObject
 90
      499
 91
      501
 93
      500
310
4411DBDD5C985D5915DA5D1A115919D95CD0340902404333333333333E3BF0000000000000F9010740901411070040501600405405064090741402480A1B50
1001
ACAD
1000
AcDbSavedByObjectVersion
1070
     0
  0
ACAD_PROXY_OBJECT
  5
38
102
{ACAD_REACTORS
330
2A
102
}
330
2A
100
AcDbProxyObject
 90
      499
 91
      501
 93
      444
310
42D31A5B995C185D1D195C9B90E409028333333333333E3BF0000000000000FB010790141107004050750841D405064090741402483A0350
1001
ACAD
1000
AcDbSavedByObjectVersion
1070
     0
  0
ACAD_PROXY_OBJECT
  5
33
102
{ACAD_REACTORS
330
2A
102
}
330
2A
100
AcDbProxyObject
 90
      499
 91
      501
 93
      420
310
425499585B1A5CDD1A58D08409028333333333333E3BF0000000000000FB01079019070040501508421405064090741402480A1B40
1001
ACAD
1000
AcDbSavedByObjectVersion
1070
     0
  0
ACAD_PROXY_OBJECT
  5
37
102
{ACAD_REACTORS
330
2A
102
}
330
2A
100
AcDbProxyObject
 90
      499
 91
      501
 93
      412
310
41D51A1A58DAD95B90D409028333333333333E3BF0000000000000FB010790141107004050150C41D405064090741402480A0350
1001
ACAD
1000
AcDbSavedByObjectVersion
1070
     0
  0
XRECORD
  5
9D
102
{ACAD_REACTORS
330
94
102
}
330
94
100
AcDbXrecord
 90
        0
  0
XRECORD
  5
B3
102
{ACAD_REACTORS
330
94
102
}
330
94
100
AcDbXrecord
1000
DSTYLE
1002
{
1070
   340
340
11
1002
}
  0
XRECORD
  5
9E
102
{ACAD_REACTORS
330
94
102
}
330
94
100
AcDbXrecord
  1
{40E9728B-815F-4BD7-8D44-B9CF070FB001}
  0
XRECORD
  5
97
102
{ACAD_REACTORS
330
94
102
}
330
94
100
AcDbXrecord
  1

  0
XRECORD
  5
9C
102
{ACAD_REACTORS
330
94
102
}
330
94
100
AcDbXrecord
 90
        4
  0
XRECORD
  5
99
102
{ACAD_REACTORS
330
94
102
}
330
94
100
AcDbXrecord
340
1A
  0
XRECORD
  5
9B
102
{ACAD_REACTORS
330
94
102
}
330
94
100
AcDbXrecord
 90
    10781
  0
XRECORD
  5
9A
102
{ACAD_REACTORS
330
94
102
}
330
94
100
AcDbXrecord
340
19
  0
XRECORD
  5
A0
102
{ACAD_REACTORS
330
94
102
}
330
94
100
AcDbXrecord
 40
0.0
  0
XRECORD
  5
A3
102
{ACAD_REACTORS
330
94
102
}
330
94
100
AcDbXrecord
340
0
  0
XRECORD
  5
A9
102
{ACAD_REACTORS
330
94
102
}
330
94
100
AcDbXrecord
 10
0.0
 20
0.0
 30
0.0
  0
XRECORD
  5
A5
102
{ACAD_REACTORS
330
94
102
}
330
94
100
AcDbXrecord
 10
0.0
 20
0.0
 30
0.0
  0
XRECORD
  5
A8
102
{ACAD_REACTORS
330
94
102
}
330
94
100
AcDbXrecord
 10
0.0
 20
0.0
 30
0.0
  0
XRECORD
  5
A6
102
{ACAD_REACTORS
330
94
102
}
330
94
100
AcDbXrecord
 10
0.0
 20
0.0
 30
0.0
  0
XRECORD
  5
A7
102
{ACAD_REACTORS
330
94
102
}
330
94
100
AcDbXrecord
 10
0.0
 20
0.0
 30
0.0
  0
XRECORD
  5
A4
102
{ACAD_REACTORS
330
94
102
}
330
94
100
AcDbXrecord
 10
0.0
 20
0.0
 30
0.0
  0
XRECORD
  5
A1
102
{ACAD_REACTORS
330
94
102
}
330
94
100
AcDbXrecord
340
0
  0
XRECORD
  5
A2
102
{ACAD_REACTORS
330
94
102
}
330
94
100
AcDbXrecord
 70
     0
  0
XRECORD
  5
98
102
{ACAD_REACTORS
330
94
102
}
330
94
100
AcDbXrecord
  1

  0
XRECORD
  5
95
102
{ACAD_REACTORS
330
94
102
}
330
94
100
AcDbXrecord
 90
        1
  0
XRECORD
  5
96
102
{ACAD_REACTORS
330
94
102
}
330
94
100
AcDbXrecord
 90
       70
  0
XRECORD
  5
AC
102
{ACAD_REACTORS
330
94
102
}
330
94
100
AcDbXrecord
340
0
  0
XRECORD
  5
B2
102
{ACAD_REACTORS
330
94
102
}
330
94
100
AcDbXrecord
 10
0.0
 20
0.0
 30
0.0
  0
XRECORD
  5
AE
102
{ACAD_REACTORS
330
94
102
}
330
94
100
AcDbXrecord
 10
0.0
 20
0.0
 30
0.0
  0
XRECORD
  5
B1
102
{ACAD_REACTORS
330
94
102
}
330
94
100
AcDbXrecord
 10
0.0
 20
0.0
 30
0.0
  0
XRECORD
  5
AF
102
{ACAD_REACTORS
330
94
102
}
330
94
100
AcDbXrecord
 10
0.0
 20
0.0
 30
0.0
  0
XRECORD
  5
B0
102
{ACAD_REACTORS
330
94
102
}
330
94
100
AcDbXrecord
 10
0.0
 20
0.0
 30
0.0
  0
XRECORD
  5
AD
102
{ACAD_REACTORS
330
94
102
}
330
94
100
AcDbXrecord
 10
0.0
 20
0.0
 30
0.0
  0
XRECORD
  5
AA
102
{ACAD_REACTORS
330
94
102
}
330
94
100
AcDbXrecord
340
0
  0
XRECORD
  5
AB
102
{ACAD_REACTORS
330
94
102
}
330
94
100
AcDbXrecord
 70
     0
  0
XRECORD
  5
9F
102
{ACAD_REACTORS
330
94
102
}
330
94
100
AcDbXrecord
  1
{FAEB1C32-E019-11D5-929B-00C0DF256EC4}
  0
DICTIONARYVAR
  5
B7
102
{ACAD_REACTORS
330
B4
102
}
330
B4
100
DictionaryVariables
280
     0
  1
2
  0
DICTIONARYVAR
  5
B8
102
{ACAD_REACTORS
330
B4
102
}
330
B4
100
DictionaryVariables
280
     0
  1
1
  0
DICTIONARY
  5
BB
330
3D
100
AcDbDictionary
280
     1
  3
ACAD_XREC_ROUNDTRIP
360
BC
  0
DICTIONARY
  5
B9
330
3C
100
AcDbDictionary
280
     1
  3
ACAD_XREC_ROUNDTRIP
360
BA
  0
DICTIONARY
  5
BD
330
3E
100
AcDbDictionary
280
     1
  3
ACAD_XREC_ROUNDTRIP
360
BE
  0
XRECORD
  5
BC
102
{ACAD_REACTORS
330
BB
102
}
330
BB
100
AcDbXrecord
102
MATERIAL
148
0.0
149
0.0
149
0.0
 93
        0
 94
      127
282
     0
 72
     1
 77
     1
171
     1
175
     1
179
     1
273
     0
  0
XRECORD
  5
BA
102
{ACAD_REACTORS
330
B9
102
}
330
B9
100
AcDbXrecord
102
MATERIAL
148
0.0
149
0.0
149
0.0
 93
        0
 94
      127
282
     0
 72
     1
 77
     1
171
     1
175
     1
179
     1
273
     0
  0
XRECORD
  5
BE
102
{ACAD_REACTORS
330
BD
102
}
330
BD
100
AcDbXrecord
102
MATERIAL
148
0.0
149
0.0
149
0.0
 93
        0
 94
      127
282
     0
 72
     1
 77
     1
171
     1
175
     1
179
     1
273
     0
  0
ENDSEC
  0
EOF
